  0
SECTION
  2
HEADER
  9
$ACADVER
  1
AC1015
  9
$ACADMAINTVER
 70
     6
  9
$DWGCODEPAGE
  3
ANSI_1252
  9
$INSBASE
 10
0.0
 20
0.0
 30
0.0
  9
$EXTMIN
 10
0.0
 20
0.0
 30
0.0
  9
$EXTMAX
 10
50.0
 20
70.0
 30
0.0
  9
$LIMMIN
 10
0.0
 20
0.0
  9
$LIMMAX
 10
50.0
 20
70.0
  9
$ORTHOMODE
 70
     0
  9
$REGENMODE
 70
     1
  9
$FILLMODE
 70
     1
  9
$QTEXTMODE
 70
     0
  9
$MIRRTEXT
 70
     1
  9
$LTSCALE
 40
1.0
  9
$ATTMODE
 70
     1
  9
$TEXTSIZE
 40
0.125
  9
$TRACEWID
 40
0.05
  9
$TEXTSTYLE
  7
Standard
  9
$CLAYER
  8
0
  9
$CELTYPE
  6
ByLayer
  9
$CECOLOR
 62
   256
  9
$CELTSCALE
 40
1.0
  9
$DISPSILH
 70
     0
  9
$DIMSCALE
 40
1.0
  9
$DIMASZ
 40
0.13
  9
$DIMEXO
 40
0.05
  9
$DIMDLI
 40
0.38
  9
$DIMRND
 40
0.0
  9
$DIMDLE
 40
0.0
  9
$DIMEXE
 40
0.125
  9
$DIMTP
 40
0.0
  9
$DIMTM
 40
0.0
  9
$DIMTXT
 40
0.125
  9
$DIMCEN
 40
0.09
  9
$DIMTSZ
 40
0.0
  9
$DIMTOL
 70
     0
  9
$DIMLIM
 70
     0
  9
$DIMTIH
 70
     1
  9
$DIMTOH
 70
     1
  9
$DIMSE1
 70
     0
  9
$DIMSE2
 70
     0
  9
$DIMTAD
 70
     0
  9
$DIMZIN
 70
     0
  9
$DIMBLK
  1

  9
$DIMASO
 70
     1
  9
$DIMSHO
 70
     1
  9
$DIMPOST
  1

  9
$DIMAPOST
  1

  9
$DIMALT
 70
     0
  9
$DIMALTD
 70
     2
  9
$DIMALTF
 40
25.4
  9
$DIMLFAC
 40
1.0
  9
$DIMTOFL
 70
     0
  9
$DIMTVP
 40
0.0
  9
$DIMTIX
 70
     0
  9
$DIMSOXD
 70
     0
  9
$DIMSAH
 70
     0
  9
$DIMBLK1
  1

  9
$DIMBLK2
  1

  9
$DIMSTYLE
  2
Standard
  9
$DIMCLRD
 70
     0
  9
$DIMCLRE
 70
     0
  9
$DIMCLRT
 70
     0
  9
$DIMTFAC
 40
1.0
  9
$DIMGAP
 40
0.06
  9
$DIMJUST
 70
     0
  9
$DIMSD1
 70
     0
  9
$DIMSD2
 70
     0
  9
$DIMTOLJ
 70
     1
  9
$DIMTZIN
 70
     0
  9
$DIMALTZ
 70
     0
  9
$DIMALTTZ
 70
     0
  9
$DIMUPT
 70
     0
  9
$DIMDEC
 70
     2
  9
$DIMTDEC
 70
     2
  9
$DIMALTU
 70
     2
  9
$DIMALTTD
 70
     2
  9
$DIMTXSTY
  7
Standard
  9
$DIMAUNIT
 70
     0
  9
$DIMADEC
 70
     2
  9
$DIMALTRND
 40
0.0
  9
$DIMAZIN
 70
     0
  9
$DIMDSEP
 70
    46
  9
$DIMATFIT
 70
     3
  9
$DIMFRAC
 70
     0
  9
$DIMLDRBLK
  1

  9
$DIMLUNIT
 70
     2
  9
$DIMLWD
 70
    -2
  9
$DIMLWE
 70
    -2
  9
$DIMTMOVE
 70
     0
  9
$LUNITS
 70
     2
  9
$LUPREC
 70
     2
  9
$SKETCHINC
 40
0.1
  9
$FILLETRAD
 40
0.5
  9
$AUNITS
 70
     0
  9
$AUPREC
 70
     2
  9
$MENU
  1
.
  9
$ELEVATION
 40
0.0
  9
$PELEVATION
 40
0.0
  9
$THICKNESS
 40
0.0
  9
$LIMCHECK
 70
     0
  9
$CHAMFERA
 40
0.0
  9
$CHAMFERB
 40
0.0
  9
$CHAMFERC
 40
0.0
  9
$CHAMFERD
 40
0.0
  9
$SKPOLY
 70
     0
  9
$TDCREATE
 40
2458814.285513854
  9
$TDUCREATE
 40
2458814.618847188
  9
$TDUPDATE
 40
2458814.285514942
  9
$TDUUPDATE
 40
2458814.618848275
  9
$TDINDWG
 40
0.0000000116
  9
$TDUSRTIMER
 40
0.0000000116
  9
$USRTIMER
 70
     1
  9
$ANGBASE
 50
0.0
  9
$ANGDIR
 70
     0
  9
$PDMODE
 70
     0
  9
$PDSIZE
 40
-1.0
  9
$PLINEWID
 40
0.0
  9
$SPLFRAME
 70
     0
  9
$SPLINETYPE
 70
     6
  9
$SPLINESEGS
 70
     8
  9
$HANDSEED
  5
593
  9
$SURFTAB1
 70
     6
  9
$SURFTAB2
 70
     6
  9
$SURFTYPE
 70
     6
  9
$SURFU
 70
     6
  9
$SURFV
 70
     6
  9
$UCSBASE
  2

  9
$UCSNAME
  2

  9
$UCSORG
 10
0.0
 20
0.0
 30
0.0
  9
$UCSXDIR
 10
1.0
 20
0.0
 30
0.0
  9
$UCSYDIR
 10
0.0
 20
1.0
 30
0.0
  9
$UCSORTHOREF
  2

  9
$UCSORTHOVIEW
 70
     0
  9
$UCSORGTOP
 10
0.0
 20
0.0
 30
0.0
  9
$UCSORGBOTTOM
 10
0.0
 20
0.0
 30
0.0
  9
$UCSORGLEFT
 10
0.0
 20
0.0
 30
0.0
  9
$UCSORGRIGHT
 10
0.0
 20
0.0
 30
0.0
  9
$UCSORGFRONT
 10
0.0
 20
0.0
 30
0.0
  9
$UCSORGBACK
 10
0.0
 20
0.0
 30
0.0
  9
$PUCSBASE
  2

  9
$PUCSNAME
  2

  9
$PUCSORG
 10
0.0
 20
0.0
 30
0.0
  9
$PUCSXDIR
 10
1.0
 20
0.0
 30
0.0
  9
$PUCSYDIR
 10
0.0
 20
1.0
 30
0.0
  9
$PUCSORTHOREF
  2

  9
$PUCSORTHOVIEW
 70
     0
  9
$PUCSORGTOP
 10
0.0
 20
0.0
 30
0.0
  9
$PUCSORGBOTTOM
 10
0.0
 20
0.0
 30
0.0
  9
$PUCSORGLEFT
 10
0.0
 20
0.0
 30
0.0
  9
$PUCSORGRIGHT
 10
0.0
 20
0.0
 30
0.0
  9
$PUCSORGFRONT
 10
0.0
 20
0.0
 30
0.0
  9
$PUCSORGBACK
 10
0.0
 20
0.0
 30
0.0
  9
$USERI1
 70
     0
  9
$USERI2
 70
     0
  9
$USERI3
 70
     0
  9
$USERI4
 70
     0
  9
$USERI5
 70
     0
  9
$USERR1
 40
0.0
  9
$USERR2
 40
0.0
  9
$USERR3
 40
0.0
  9
$USERR4
 40
0.0
  9
$USERR5
 40
0.0
  9
$WORLDVIEW
 70
     1
  9
$SHADEDGE
 70
     3
  9
$SHADEDIF
 70
    70
  9
$TILEMODE
 70
     1
  9
$MAXACTVP
 70
    64
  9
$PINSBASE
 10
0.0
 20
0.0
 30
0.0
  9
$PLIMCHECK
 70
     0
  9
$PEXTMIN
 10
1.0000000000E+20
 20
1.0000000000E+20
 30
1.0000000000E+20
  9
$PEXTMAX
 10
-1.0000000000E+20
 20
-1.0000000000E+20
 30
-1.0000000000E+20
  9
$PLIMMIN
 10
0.0
 20
0.0
  9
$PLIMMAX
 10
12.0
 20
9.0
  9
$UNITMODE
 70
     0
  9
$VISRETAIN
 70
     1
  9
$PLINEGEN
 70
     0
  9
$PSLTSCALE
 70
     1
  9
$TREEDEPTH
 70
  3020
  9
$CMLSTYLE
  2
Standard
  9
$CMLJUST
 70
     0
  9
$CMLSCALE
 40
1.0
  9
$PROXYGRAPHICS
 70
     1
  9
$MEASUREMENT
 70
     0
  9
$CELWEIGHT
370
    -1
  9
$ENDCAPS
280
     0
  9
$JOINSTYLE
280
     0
  9
$LWDISPLAY
290
     1
  9
$INSUNITS
 70
     1
  9
$HYPERLINKBASE
  1

  9
$STYLESHEET
  1

  9
$XEDIT
290
     1
  9
$CEPSNTYPE
380
     0
  9
$PSTYLEMODE
290
     1
  9
$FINGERPRINTGUID
  2
{5EDF1BD5-FC08-4638-9CC6-95D8F1D04C17}
  9
$VERSIONGUID
  2
{FAEB1C32-E019-11D5-929B-00C0DF256EC4}
  9
$EXTNAMES
290
     1
  9
$PSVPSCALE
 40
0.0
  9
$OLESTARTUP
290
     0
  0
ENDSEC
  0
SECTION
  2
CLASSES
  0
CLASS
  1
ACDBDICTIONARYWDFLT
  2
AcDbDictionaryWithDefault
  3
ObjectDBX Classes
 90
        0
280
     0
281
     0
  0
CLASS
  1
VISUALSTYLE
  2
AcDbVisualStyle
  3
ObjectDBX Classes
 90
     4095
280
     0
281
     0
  0
CLASS
  1
MATERIAL
  2
AcDbMaterial
  3
ObjectDBX Classes
 90
     1153
280
     0
281
     0
  0
CLASS
  1
SCALE
  2
AcDbScale
  3
ObjectDBX Classes
 90
     1153
280
     0
281
     0
  0
CLASS
  1
TABLESTYLE
  2
AcDbTableStyle
  3
ObjectDBX Classes
 90
     4095
280
     0
281
     0
  0
CLASS
  1
MLEADERSTYLE
  2
AcDbMLeaderStyle
  3
ACDB_MLEADERSTYLE_CLASS
 90
     4095
280
     0
281
     0
  0
CLASS
  1
SUN
  2
AcDbSun
  3
SCENEOE
 90
     1153
280
     0
281
     0
  0
CLASS
  1
ACDBPLACEHOLDER
  2
AcDbPlaceHolder
  3
ObjectDBX Classes
 90
        0
280
     0
281
     0
  0
CLASS
  1
LAYOUT
  2
AcDbLayout
  3
ObjectDBX Classes
 90
        0
280
     0
281
     0
  0
ENDSEC
  0
SECTION
  2
TABLES
  0
TABLE
  2
VPORT
  5
8
330
0
100
AcDbSymbolTable
 70
     1
  0
VPORT
  5
29
330
8
100
AcDbSymbolTableRecord
100
AcDbViewportTableRecord
  2
*Active
 70
     0
 10
0.0
 20
0.0
 11
1.0
 21
1.0
 12
25.0
 22
35.0
 13
0.0
 23
0.0
 14
0.5
 24
0.5
 15
0.5
 25
0.5
 16
0.0
 26
0.0
 36
1.0
 17
0.0
 27
0.0
 37
0.0
 40
70.0
 41
0.7142857143
 42
50.0
 43
0.0
 44
0.0
 50
0.0
 51
0.0
 71
     0
 72
  2000
 73
     1
 74
     3
 75
     0
 76
     0
 77
     0
 78
     0
281
     0
 65
     1
110
0.0
120
0.0
130
0.0
111
1.0
121
0.0
131
0.0
112
0.0
122
1.0
132
0.0
 79
     0
146
0.0
  0
ENDTAB
  0
TABLE
  2
LTYPE
  5
5
330
0
100
AcDbSymbolTable
 70
     6
  0
LTYPE
  5
14
330
5
100
AcDbSymbolTableRecord
100
AcDbLinetypeTableRecord
  2
ByBlock
 70
     0
  3

 72
    65
 73
     0
 40
0.0
  0
LTYPE
  5
15
330
5
100
AcDbSymbolTableRecord
100
AcDbLinetypeTableRecord
  2
ByLayer
 70
     0
  3

 72
    65
 73
     0
 40
0.0
  0
LTYPE
  5
16
330
5
100
AcDbSymbolTableRecord
100
AcDbLinetypeTableRecord
  2
Continuous
 70
     0
  3
Solid line
 72
    65
 73
     0
 40
0.0
  0
LTYPE
  5
6E
330
5
100
AcDbSymbolTableRecord
100
AcDbLinetypeTableRecord
  2
HIDDEN
 70
     0
  3
Hidden __ __ __ __ __ __ __ __ __ __ __ __ __ __
 72
    65
 73
     2
 40
0.075
 49
0.05
 74
     0
 49
-0.025
 74
     0
  0
LTYPE
  5
6F
330
5
100
AcDbSymbolTableRecord
100
AcDbLinetypeTableRecord
  2
PHANTOM
 70
     0
  3
Phantom ______  __  __  ______  __  __  ______
 72
    65
 73
     6
 40
0.5
 49
0.25
 74
     0
 49
-0.05
 74
     0
 49
0.05
 74
     0
 49
-0.05
 74
     0
 49
0.05
 74
     0
 49
-0.05
 74
     0
  0
LTYPE
  5
70
330
5
100
AcDbSymbolTableRecord
100
AcDbLinetypeTableRecord
  2
CENTER
 70
     0
  3
Center ____ _ ____ _ ____ _ ____ _ ____ _ ____
 72
    65
 73
     4
 40
0.4
 49
0.25
 74
     0
 49
-0.05
 74
     0
 49
0.05
 74
     0
 49
-0.05
 74
     0
  0
LTYPE
  5
71
330
5
100
AcDbSymbolTableRecord
100
AcDbLinetypeTableRecord
  2
CENTERX2
 70
     0
  3
Center (2x) ________  __  ________  __  _____
 72
    65
 73
     4
 40
0.8
 49
0.5
 74
     0
 49
-0.1
 74
     0
 49
0.1
 74
     0
 49
-0.1
 74
     0
  0
LTYPE
  5
72
330
5
100
AcDbSymbolTableRecord
100
AcDbLinetypeTableRecord
  2
DOT2
 70
     0
  3
Dot (.5x) ........................................
 72
    65
 73
     2
 40
0.025
 49
0.0
 74
     0
 49
-0.025
 74
     0
  0
ENDTAB
  0
TABLE
  2
LAYER
  5
2
330
0
100
AcDbSymbolTable
 70
     1
  0
LAYER
  5
10
330
2
100
AcDbSymbolTableRecord
100
AcDbLayerTableRecord
  2
0
 70
     0
 62
     7
  6
Continuous
370
    -3
390
F
  0
ENDTAB
  0
TABLE
  2
STYLE
  5
3
330
0
100
AcDbSymbolTable
 70
     1
  0
STYLE
  5
11
330
3
100
AcDbSymbolTableRecord
100
AcDbTextStyleTableRecord
  2
Standard
 70
     0
 40
0.0
 41
1.0
 50
0.0
 71
     0
 42
0.125
  3
txt
  4

  0
ENDTAB
  0
TABLE
  2
VIEW
  5
6
330
0
100
AcDbSymbolTable
 70
     0
  0
ENDTAB
  0
TABLE
  2
UCS
  5
7
330
0
100
AcDbSymbolTable
 70
     0
  0
ENDTAB
  0
TABLE
  2
APPID
  5
9
330
0
100
AcDbSymbolTable
 70
     1
  0
APPID
  5
12
330
9
100
AcDbSymbolTableRecord
100
AcDbRegAppTableRecord
  2
ACAD
 70
     0
  0
ENDTAB
  0
TABLE
  2
DIMSTYLE
  5
A
330
0
100
AcDbSymbolTable
 70
     1
100
AcDbDimStyleTable
  0
DIMSTYLE
105
27
330
A
100
AcDbSymbolTableRecord
100
AcDbDimStyleTableRecord
  2
Standard
 70
     0
178
     0
340
11
  0
ENDTAB
  0
TABLE
  2
BLOCK_RECORD
  5
1
330
0
100
AcDbSymbolTable
 70
     1
  0
BLOCK_RECORD
  5
1F
330
1
100
AcDbSymbolTableRecord
100
AcDbBlockTableRecord
  2
*Model_Space
340
22
  0
BLOCK_RECORD
  5
1B
330
1
100
AcDbSymbolTableRecord
100
AcDbBlockTableRecord
  2
*Paper_Space
340
1E
  0
BLOCK_RECORD
  5
23
330
1
100
AcDbSymbolTableRecord
100
AcDbBlockTableRecord
  2
*Paper_Space0
340
26
  0
ENDTAB
  0
ENDSEC
  0
SECTION
  2
BLOCKS
  0
BLOCK
  5
20
330
1F
100
AcDbEntity
  8
0
100
AcDbBlockBegin
  2
*Model_Space
 70
     0
 10
0.0
 20
0.0
 30
0.0
  3
*Model_Space
  1

  0
ENDBLK
  5
21
330
1F
100
AcDbEntity
  8
0
100
AcDbBlockEnd
  0
BLOCK
  5
1C
330
1B
100
AcDbEntity
 67
     1
  8
0
100
AcDbBlockBegin
  2
*Paper_Space
 70
     0
 10
0.0
 20
0.0
 30
0.0
  3
*Paper_Space
  1

  0
ENDBLK
  5
1D
330
1B
100
AcDbEntity
 67
     1
  8
0
100
AcDbBlockEnd
  0
BLOCK
  5
24
330
23
100
AcDbEntity
  8
0
100
AcDbBlockBegin
  2
*Paper_Space0
 70
     0
 10
0.0
 20
0.0
 30
0.0
  3
*Paper_Space0
  1

  0
ENDBLK
  5
25
330
23
100
AcDbEntity
  8
0
100
AcDbBlockEnd
  0
ENDSEC
  0
SECTION
  2
ENTITIES
  0
LWPOLYLINE
  5
73
330
1F
100
AcDbEntity
  8
0
  6
Continuous
 62
     7
370
    25
100
AcDbPolyline
 90
        3
 70
   128
 43
0.0
 10
10.3652999802
 20
34.0846669852
 10
10.3412878387
 20
34.0663088771
 10
10.3290281969
 20
34.0569217777
  0
LWPOLYLINE
  5
74
330
1F
100
AcDbEntity
  8
0
  6
Continuous
 62
     7
370
    25
100
AcDbPolyline
 90
        3
 70
   128
 43
0.0
 10
40.0339819628
 20
32.7882281083
 10
40.0579941043
 20
32.8065862164
 10
40.0702537461
 20
32.8159733158
  0
LINE
  5
75
330
1F
100
AcDbEntity
  8
0
  6
Continuous
 62
     7
370
    25
100
AcDbLine
 10
10.9083023888
 20
32.8103090303
 30
0.0
 11
10.8953738209
 21
32.8306028169
 31
0.0
  0
LINE
  5
76
330
1F
100
AcDbEntity
  8
0
  6
Continuous
 62
     7
370
    25
100
AcDbLine
 10
10.5282893234
 20
32.7947152633
 30
0.0
 11
10.5232730222
 21
32.7868412475
 31
0.0
  0
LWPOLYLINE
  5
77
330
1F
100
AcDbEntity
  8
0
  6
Continuous
 62
     7
370
    25
100
AcDbPolyline
 90
        3
 70
   128
 43
0.0
 10
10.3292591147
 20
32.8157965041
 10
10.3412878387
 20
32.8065862164
 10
10.3652999802
 20
32.7882281083
  0
LINE
  5
78
330
1F
100
AcDbEntity
  8
0
  6
Continuous
 62
     7
370
    25
100
AcDbLine
 10
39.8760089208
 20
32.7868412475
 30
0.0
 11
39.8709926195
 21
32.7947152633
 31
0.0
  0
LINE
  5
79
330
1F
100
AcDbEntity
  8
0
  6
Continuous
 62
     7
370
    25
100
AcDbLine
 10
39.5026727217
 20
32.8286636268
 30
0.0
 11
39.4909795542
 21
32.8103090303
 31
0.0
  0
LWPOLYLINE
  5
7A
330
1F
100
AcDbEntity
  8
0
  6
Continuous
 62
     7
370
    25
100
AcDbPolyline
 90
        3
 70
   128
 43
0.0
 10
40.0700228282
 20
34.0570985894
 10
40.0579941043
 20
34.0663088771
 10
40.0339819628
 20
34.0846669852
  0
ARC
  5
7B
330
1F
100
AcDbEntity
  8
0
  6
Continuous
 62
     7
370
    25
100
AcDbCircle
 10
11.68389294
 20
11.1116443971
 30
0.0
 40
0.0196850393700814
100
AcDbArc
 50
90.0
 51
126.8698976458
  0
ARC
  5
7C
330
1F
100
AcDbEntity
  8
0
  6
Continuous
 62
     7
370
    25
100
AcDbCircle
 10
11.68389294
 20
11.27306172
 30
0.0
 40
0.0196850393700778
100
AcDbArc
 50
233.1301023542
 51
270.0
  0
LINE
  5
7D
330
1F
100
AcDbEntity
  8
0
  6
Continuous
 62
     7
370
    25
100
AcDbLine
 10
11.68389294
 20
11.1313294365
 30
0.0
 11
11.7232630187
 21
11.1313294365
 31
0.0
  0
LINE
  5
7E
330
1F
100
AcDbEntity
  8
0
  6
Continuous
 62
     7
370
    25
100
AcDbLine
 10
11.7232630187
 20
11.2533766806
 30
0.0
 11
11.68389294
 21
11.2533766806
 31
0.0
  0
LINE
  5
7F
330
1F
100
AcDbEntity
  8
0
  6
Continuous
 62
     7
370
    25
100
AcDbLine
 10
11.2941291605
 20
55.4640066019
 30
0.0
 11
11.2892047047
 21
55.4590821461
 31
0.0
  0
ARC
  5
80
330
1F
100
AcDbEntity
  8
0
  6
Continuous
 62
     7
370
    25
100
AcDbCircle
 10
38.715389003
 20
11.27306172
 30
0.0
 40
0.019685039370076
100
AcDbArc
 50
270.0
 51
306.8698976458
  0
ARC
  5
81
330
1F
100
AcDbEntity
  8
0
  6
Continuous
 62
     7
370
    25
100
AcDbCircle
 10
38.715389003
 20
11.1116443971
 30
0.0
 40
0.0196850393700814
100
AcDbArc
 50
53.1301023542
 51
90.0
  0
LINE
  5
82
330
1F
100
AcDbEntity
  8
0
  6
Continuous
 62
     7
370
    25
100
AcDbLine
 10
38.715389003
 20
11.2533766806
 30
0.0
 11
38.6760189242
 21
11.2533766806
 31
0.0
  0
LINE
  5
83
330
1F
100
AcDbEntity
  8
0
  6
Continuous
 62
     7
370
    25
100
AcDbLine
 10
38.6760189242
 20
11.1313294365
 30
0.0
 11
38.715389003
 21
11.1313294365
 31
0.0
  0
LWPOLYLINE
  5
84
330
1F
100
AcDbEntity
  8
0
  6
Continuous
 62
   144
370
    18
100
AcDbPolyline
 90
        3
 70
   128
 43
0.0
 10
10.3652999802
 20
56.7618323396
 10
10.3412878387
 20
56.7434742314
 10
10.3290281969
 20
56.734087132
  0
LWPOLYLINE
  5
85
330
1F
100
AcDbEntity
  8
0
  6
Continuous
 62
     7
370
    25
100
AcDbPolyline
 90
        3
 70
   128
 43
0.0
 10
10.3292591145
 20
55.4929618586
 10
10.3412878387
 20
55.4837515707
 10
10.3652999802
 20
55.4653934626
  0
LWPOLYLINE
  5
86
330
1F
100
AcDbEntity
  8
0
  6
Continuous
 62
     7
370
    25
100
AcDbPolyline
 90
        3
 70
   128
 43
0.0
 10
40.0700228265
 20
56.7342639451
 10
40.0579941042
 20
56.7434742314
 10
40.0339819627
 20
56.7618323396
  0
LWPOLYLINE
  5
87
330
1F
100
AcDbEntity
  8
0
  6
Continuous
 62
     7
370
    25
100
AcDbPolyline
 90
        3
 70
   128
 43
0.0
 10
40.0339819628
 20
55.4653934626
 10
40.0579941043
 20
55.4837515707
 10
40.0702537461
 20
55.4931386701
  0
LINE
  5
88
330
1F
100
AcDbEntity
  8
0
  6
Continuous
 62
     7
370
    25
100
AcDbLine
 10
10.5464916914
 20
55.5004526121
 30
0.0
 11
10.543126838
 21
55.4951708503
 31
0.0
  0
LINE
  5
89
330
1F
100
AcDbEntity
  8
0
  6
Continuous
 62
   144
370
    18
100
AcDbLine
 10
39.1100772383
 20
55.4590821461
 30
0.0
 11
39.1051527825
 21
55.4640066019
 31
0.0
  0
ARC
  5
8A
330
1F
100
AcDbEntity
  8
0
  6
Continuous
 62
     7
370
    25
100
AcDbCircle
 10
31.7384420483
 20
56.8616443971
 30
0.0
 40
0.0196850393700743
100
AcDbArc
 50
90.0
 51
180.0
  0
ARC
  5
8B
330
1F
100
AcDbEntity
  8
0
  6
Continuous
 62
     7
370
    25
100
AcDbCircle
 10
31.5730877176
 20
56.8616443971
 30
0.0
 40
0.0196850393700814
100
AcDbArc
 50
0.0
 51
90.0
  0
ARC
  5
8C
330
1F
100
AcDbEntity
  8
0
  6
Continuous
 62
     7
370
    25
100
AcDbCircle
 10
35.1004283731
 20
56.7632192003
 30
0.0
 40
0.0196850393700814
100
AcDbArc
 50
90.0
 51
180.0
  0
ARC
  5
8D
330
1F
100
AcDbEntity
  8
0
  6
Continuous
 62
     7
370
    25
100
AcDbCircle
 10
34.9350740424
 20
56.7632192003
 30
0.0
 40
0.0196850393700814
100
AcDbArc
 50
0.0
 51
90.0
  0
ARC
  5
8E
330
1F
100
AcDbEntity
  8
0
  6
Continuous
 62
     7
370
    25
100
AcDbCircle
 10
36.8642079006
 20
56.7632192003
 30
0.0
 40
0.0196850393700814
100
AcDbArc
 50
90.0
 51
180.0
  0
ARC
  5
8F
330
1F
100
AcDbEntity
  8
0
  6
Continuous
 62
     7
370
    25
100
AcDbCircle
 10
36.6988535699
 20
56.7632192003
 30
0.0
 40
0.0196850393700814
100
AcDbArc
 50
0.0
 51
90.0
  0
LINE
  5
90
330
1F
100
AcDbEntity
  8
0
  6
Continuous
 62
     7
370
    25
100
AcDbLine
 10
28.6642079006
 20
56.9288533255
 30
0.0
 11
28.6051527825
 21
56.9879084436
 31
0.0
  0
LINE
  5
91
330
1F
100
AcDbEntity
  8
0
  6
Continuous
 62
     7
370
    25
100
AcDbLine
 10
11.1963992804
 20
34.460069594
 30
0.0
 11
11.1963992804
 21
34.086053846
 31
0.0
  0
LINE
  5
92
330
1F
100
AcDbEntity
  8
0
  6
Continuous
 62
     7
370
    25
100
AcDbLine
 10
11.3538795954
 20
34.086053846
 30
0.0
 11
11.3538795954
 21
34.460069594
 31
0.0
  0
LINE
  5
93
330
1F
100
AcDbEntity
  8
0
  6
Continuous
 62
     7
370
    25
100
AcDbLine
 10
39.2028826626
 20
34.086053846
 30
0.0
 11
39.2028826626
 21
34.460069594
 31
0.0
  0
LINE
  5
94
330
1F
100
AcDbEntity
  8
0
  6
Continuous
 62
     7
370
    25
100
AcDbLine
 10
39.0454023476
 20
34.460069594
 30
0.0
 11
39.0454023476
 21
34.086053846
 31
0.0
  0
ARC
  5
95
330
1F
100
AcDbEntity
  8
0
  6
Continuous
 62
   144
370
    18
100
AcDbCircle
 10
39.2547590817
 20
55.4971506231
 30
0.0
 40
0.1496062992126029
100
AcDbArc
 50
192.7995956615
 51
207.2828610693
  0
ARC
  5
96
330
1F
100
AcDbEntity
  8
0
  6
Continuous
 62
   144
370
    18
100
AcDbCircle
 10
39.2547590817
 20
32.8199852688
 30
0.0
 40
0.1496062992126029
100
AcDbArc
 50
192.7995956615
 51
207.2828610693
  0
LINE
  5
97
330
1F
100
AcDbEntity
  8
0
  6
Continuous
 62
     7
370
    25
100
AcDbLine
 10
39.2271473612
 20
57.0191247121
 30
0.0
 11
39.2271473612
 21
56.7632192003
 31
0.0
  0
LINE
  5
98
330
1F
100
AcDbEntity
  8
0
  6
Continuous
 62
     7
370
    25
100
AcDbLine
 10
39.2271473612
 20
34.460069594
 30
0.0
 11
39.2271473612
 21
34.086053846
 31
0.0
  0
LINE
  5
99
330
1F
100
AcDbEntity
  8
0
  6
Continuous
 62
     7
370
    25
100
AcDbLine
 10
39.2271473612
 20
11.7553451845
 30
0.0
 11
39.2271473612
 21
11.6960099581
 31
0.0
  0
ARC
  5
9A
330
1F
100
AcDbEntity
  8
0
  6
Continuous
 62
   144
370
    18
100
AcDbCircle
 10
37.133146177
 20
12.121471436
 30
0.0
 40
0.7318706769125569
100
AcDbArc
 50
258.2443423016
 51
272.7409946662
  0
ARC
  5
9B
330
1F
100
AcDbEntity
  8
0
  6
Continuous
 62
     7
370
    25
100
AcDbCircle
 10
37.527010496
 20
12.0294691551
 30
0.0
 40
0.639873377254075
100
AcDbArc
 50
266.9851002597
 51
282.5776025403
  0
LINE
  5
9C
330
1F
100
AcDbEntity
  8
0
  6
Continuous
 62
   144
370
    18
100
AcDbLine
 10
37.1681449085
 20
11.3902779544
 30
0.0
 11
37.4831055384
 21
11.3902779544
 31
0.0
  0
LINE
  5
9D
330
1F
100
AcDbEntity
  8
0
  6
Continuous
 62
     7
370
    25
100
AcDbLine
 10
31.2449686086
 20
10.8339786546
 30
0.0
 11
31.2792366583
 21
10.7581287493
 31
0.0
  0
LINE
  5
9E
330
1F
100
AcDbEntity
  8
0
  6
Continuous
 62
     7
370
    25
100
AcDbLine
 10
31.7184704815
 20
10.7581287493
 30
0.0
 11
31.7527385312
 21
10.8339786546
 31
0.0
  0
LINE
  5
9F
330
1F
100
AcDbEntity
  8
0
  6
Continuous
 62
     7
370
    25
100
AcDbLine
 10
24.9457560102
 20
10.8339786546
 30
0.0
 11
24.9800240599
 21
10.7581287493
 31
0.0
  0
LINE
  5
A0
330
1F
100
AcDbEntity
  8
0
  6
Continuous
 62
     7
370
    25
100
AcDbLine
 10
25.4192578831
 20
10.7581287493
 30
0.0
 11
25.4535259328
 21
10.8339786546
 31
0.0
  0
LINE
  5
A1
330
1F
100
AcDbEntity
  8
0
  6
Continuous
 62
     7
370
    25
100
AcDbLine
 10
18.6465434118
 20
10.8339786546
 30
0.0
 11
18.6808114615
 21
10.7581287493
 31
0.0
  0
LINE
  5
A2
330
1F
100
AcDbEntity
  8
0
  6
Continuous
 62
     7
370
    25
100
AcDbLine
 10
19.1200452847
 20
10.7581287493
 30
0.0
 11
19.1543133344
 21
10.8339786546
 31
0.0
  0
LINE
  5
A3
330
1F
100
AcDbEntity
  8
0
  6
Continuous
 62
     7
370
    25
100
AcDbLine
 10
34.7882756952
 20
10.8339786546
 30
0.0
 11
34.8225437449
 21
10.7581287493
 31
0.0
  0
LINE
  5
A4
330
1F
100
AcDbEntity
  8
0
  6
Continuous
 62
     7
370
    25
100
AcDbLine
 10
35.2617775681
 20
10.7581287493
 30
0.0
 11
35.2960456178
 21
10.8339786546
 31
0.0
  0
LINE
  5
A5
330
1F
100
AcDbEntity
  8
0
  6
Continuous
 62
     7
370
    25
100
AcDbLine
 10
15.1032363251
 20
10.8339786546
 30
0.0
 11
15.1375043748
 21
10.7581287493
 31
0.0
  0
LINE
  5
A6
330
1F
100
AcDbEntity
  8
0
  6
Continuous
 62
     7
370
    25
100
AcDbLine
 10
15.5767381981
 20
10.7581287493
 30
0.0
 11
15.6110062478
 21
10.8339786546
 31
0.0
  0
ARC
  5
A7
330
1F
100
AcDbEntity
  8
0
  6
Continuous
 62
     7
370
    25
100
AcDbCircle
 10
31.3689326089
 20
10.7986522712
 30
0.0
 40
0.0984251968503935
100
AcDbArc
 50
204.3128643906
 51
270.0
  0
ARC
  5
A8
330
1F
100
AcDbEntity
  8
0
  6
Continuous
 62
     7
370
    25
100
AcDbCircle
 10
31.6287745309
 20
10.7986522712
 30
0.0
 40
0.0984251968503926
100
AcDbArc
 50
270.0
 51
335.6871356094
  0
ARC
  5
A9
330
1F
100
AcDbEntity
  8
0
  6
Continuous
 62
     7
370
    25
100
AcDbCircle
 10
25.0697200105
 20
10.7986522712
 30
0.0
 40
0.0984251968503935
100
AcDbArc
 50
204.3128643906
 51
270.0
  0
ARC
  5
AA
330
1F
100
AcDbEntity
  8
0
  6
Continuous
 62
     7
370
    25
100
AcDbCircle
 10
25.3295619325
 20
10.7986522712
 30
0.0
 40
0.0984251968503935
100
AcDbArc
 50
270.0
 51
335.6871356094
  0
ARC
  5
AB
330
1F
100
AcDbEntity
  8
0
  6
Continuous
 62
     7
370
    25
100
AcDbCircle
 10
19.0303493341
 20
10.7986522712
 30
0.0
 40
0.0984251968503967
100
AcDbArc
 50
270.0
 51
335.6871356094
  0
ARC
  5
AC
330
1F
100
AcDbEntity
  8
0
  6
Continuous
 62
     7
370
    25
100
AcDbCircle
 10
18.770507412
 20
10.7986522712
 30
0.0
 40
0.0984251968503935
100
AcDbArc
 50
204.3128643906
 51
270.0
  0
ARC
  5
AD
330
1F
100
AcDbEntity
  8
0
  6
Continuous
 62
     7
370
    25
100
AcDbCircle
 10
34.9122396955
 20
10.7986522712
 30
0.0
 40
0.0984251968503935
100
AcDbArc
 50
204.3128643906
 51
270.0
  0
ARC
  5
AE
330
1F
100
AcDbEntity
  8
0
  6
Continuous
 62
     7
370
    25
100
AcDbCircle
 10
35.1720816175
 20
10.7986522712
 30
0.0
 40
0.0984251968503935
100
AcDbArc
 50
270.0
 51
335.6871356094
  0
ARC
  5
AF
330
1F
100
AcDbEntity
  8
0
  6
Continuous
 62
     7
370
    25
100
AcDbCircle
 10
15.4870422475
 20
10.7986522712
 30
0.0
 40
0.0984251968503926
100
AcDbArc
 50
270.0
 51
335.6871356094
  0
ARC
  5
B0
330
1F
100
AcDbEntity
  8
0
  6
Continuous
 62
     7
370
    25
100
AcDbCircle
 10
15.2272003254
 20
10.7986522712
 30
0.0
 40
0.0984251968503951
100
AcDbArc
 50
204.3128643906
 51
270.0
  0
LINE
  5
B1
330
1F
100
AcDbEntity
  8
0
  6
Continuous
 62
     7
370
    25
100
AcDbLine
 10
26.7232630187
 20
10.9166541499
 30
0.0
 11
26.7232630187
 21
10.9561325861
 31
0.0
  0
LINE
  5
B2
330
1F
100
AcDbEntity
  8
0
  6
Continuous
 62
     7
370
    25
100
AcDbLine
 10
26.620900814
 20
10.9561325861
 30
0.0
 11
26.620900814
 21
10.9166541499
 31
0.0
  0
LINE
  5
B3
330
1F
100
AcDbEntity
  8
0
  6
Continuous
 62
     7
370
    25
100
AcDbLine
 10
33.620900814
 20
10.9166541499
 30
0.0
 11
33.620900814
 21
10.9561325861
 31
0.0
  0
LINE
  5
B4
330
1F
100
AcDbEntity
  8
0
  6
Continuous
 62
     7
370
    25
100
AcDbLine
 10
33.5185386093
 20
10.9561325861
 30
0.0
 11
33.5185386093
 21
10.9166541499
 31
0.0
  0
LINE
  5
B5
330
1F
100
AcDbEntity
  8
0
  6
Continuous
 62
     7
370
    25
100
AcDbLine
 10
17.4791685305
 20
10.9166541499
 30
0.0
 11
17.4791685305
 21
10.9561325861
 31
0.0
  0
LINE
  5
B6
330
1F
100
AcDbEntity
  8
0
  6
Continuous
 62
     7
370
    25
100
AcDbLine
 10
17.3768063258
 20
10.9561325861
 30
0.0
 11
17.3768063258
 21
10.9166541499
 31
0.0
  0
LINE
  5
B7
330
1F
100
AcDbEntity
  8
0
  6
Continuous
 62
     7
370
    25
100
AcDbLine
 10
23.778381129
 20
10.9166541499
 30
0.0
 11
23.778381129
 21
10.9561325861
 31
0.0
  0
LINE
  5
B8
330
1F
100
AcDbEntity
  8
0
  6
Continuous
 62
     7
370
    25
100
AcDbLine
 10
23.6760189242
 20
10.9561325861
 30
0.0
 11
23.6760189242
 21
10.9166541499
 31
0.0
  0
LINE
  5
B9
330
1F
100
AcDbEntity
  8
0
  6
Continuous
 62
     7
370
    25
100
AcDbLine
 10
16.8807433337
 20
10.9166541499
 30
0.0
 11
16.8807433337
 21
10.9561325861
 31
0.0
  0
LINE
  5
BA
330
1F
100
AcDbEntity
  8
0
  6
Continuous
 62
     7
370
    25
100
AcDbLine
 10
16.778381129
 20
10.9561325861
 30
0.0
 11
16.778381129
 21
10.9166541499
 31
0.0
  0
LINE
  5
BB
330
1F
100
AcDbEntity
  8
0
  6
Continuous
 62
     7
370
    25
100
AcDbLine
 10
33.0224756172
 20
10.9166541499
 30
0.0
 11
33.0224756172
 21
10.9561325861
 31
0.0
  0
LINE
  5
BC
330
1F
100
AcDbEntity
  8
0
  6
Continuous
 62
     7
370
    25
100
AcDbLine
 10
32.9201134124
 20
10.9561325861
 30
0.0
 11
32.9201134124
 21
10.9166541499
 31
0.0
  0
LINE
  5
BD
330
1F
100
AcDbEntity
  8
0
  6
Continuous
 62
     7
370
    25
100
AcDbLine
 10
38.0166221519
 20
10.8339786546
 30
0.0
 11
38.0508902016
 21
10.7581287493
 31
0.0
  0
LINE
  5
BE
330
1F
100
AcDbEntity
  8
0
  6
Continuous
 62
     7
370
    25
100
AcDbLine
 10
38.4901240248
 20
10.7581287493
 30
0.0
 11
38.5243920745
 21
10.8339786546
 31
0.0
  0
LINE
  5
BF
330
1F
100
AcDbEntity
  8
0
  6
Continuous
 62
     7
370
    25
100
AcDbLine
 10
11.8748898684
 20
10.8339786546
 30
0.0
 11
11.9091579181
 21
10.7581287493
 31
0.0
  0
LINE
  5
C0
330
1F
100
AcDbEntity
  8
0
  6
Continuous
 62
     7
370
    25
100
AcDbLine
 10
12.3483917414
 20
10.7581287493
 30
0.0
 11
12.3826597911
 21
10.8339786546
 31
0.0
  0
ARC
  5
C1
330
1F
100
AcDbEntity
  8
0
  6
Continuous
 62
     7
370
    25
100
AcDbCircle
 10
12.2586957908
 20
10.7986522712
 30
0.0
 40
0.0984251968503951
100
AcDbArc
 50
270.0
 51
335.6871356094
  0
ARC
  5
C2
330
1F
100
AcDbEntity
  8
0
  6
Continuous
 62
     7
370
    25
100
AcDbCircle
 10
11.9988538687
 20
10.7986522712
 30
0.0
 40
0.0984251968503951
100
AcDbArc
 50
204.3128643906
 51
270.0
  0
ARC
  5
C3
330
1F
100
AcDbEntity
  8
0
  6
Continuous
 62
     7
370
    25
100
AcDbCircle
 10
38.1405861522
 20
10.7986522712
 30
0.0
 40
0.0984251968503999
100
AcDbArc
 50
204.3128643906
 51
270.0
  0
ARC
  5
C4
330
1F
100
AcDbEntity
  8
0
  6
Continuous
 62
     7
370
    25
100
AcDbCircle
 10
38.4004280742
 20
10.7986522712
 30
0.0
 40
0.0984251968503999
100
AcDbArc
 50
270.0
 51
335.6871356094
  0
ARC
  5
C5
330
1F
100
AcDbEntity
  8
0
  6
Continuous
 62
     7
370
    25
100
AcDbCircle
 10
36.5983757764
 20
11.2317231373
 30
0.0
 40
0.1574803149606314
100
AcDbArc
 50
270.0
 51
333.4349488229
  0
ARC
  5
C6
330
1F
100
AcDbEntity
  8
0
  6
Continuous
 62
     7
370
    25
100
AcDbCircle
 10
37.4229534107
 20
11.2317231373
 30
0.0
 40
0.1574803149606314
100
AcDbArc
 50
206.5650511771
 51
270.0
  0
LINE
  5
C7
330
1F
100
AcDbEntity
  8
0
  6
Continuous
 62
     7
370
    25
100
AcDbLine
 10
37.2820987349
 20
11.1612957994
 30
0.0
 11
37.2665701053
 21
11.1923530586
 31
0.0
  0
LINE
  5
C8
330
1F
100
AcDbEntity
  8
0
  6
Continuous
 62
     7
370
    25
100
AcDbLine
 10
36.7547590817
 20
11.1923530586
 30
0.0
 11
36.7392304522
 21
11.1612957994
 31
0.0
  0
LINE
  5
C9
330
1F
100
AcDbEntity
  8
0
  6
Continuous
 62
     7
370
    25
100
AcDbLine
 10
37.2665701053
 20
11.1923530586
 30
0.0
 11
37.2380816487
 21
11.2493299718
 31
0.0
  0
LINE
  5
CA
330
1F
100
AcDbEntity
  8
0
  6
Continuous
 62
     7
370
    25
100
AcDbLine
 10
36.7832475383
 20
11.2493299718
 30
0.0
 11
36.7547590817
 21
11.1923530586
 31
0.0
  0
ARC
  5
CB
330
1F
100
AcDbEntity
  8
0
  6
Continuous
 62
     7
370
    25
100
AcDbCircle
 10
37.2028679798
 20
11.2317231373
 30
0.0
 40
0.0393700787401574
100
AcDbArc
 50
26.5650511771
 51
90.0
  0
ARC
  5
CC
330
1F
100
AcDbEntity
  8
0
  6
Continuous
 62
     7
370
    25
100
AcDbCircle
 10
36.8184612073
 20
11.2317231373
 30
0.0
 40
0.0393700787401626
100
AcDbArc
 50
90.0
 51
153.4349488229
  0
ARC
  5
CD
330
1F
100
AcDbEntity
  8
0
  6
Continuous
 62
     7
370
    25
100
AcDbCircle
 10
11.1445228613
 20
55.4971506231
 30
0.0
 40
0.1496062992125991
100
AcDbArc
 50
333.4746479834
 51
347.2004043408
  0
ARC
  5
CE
330
1F
100
AcDbEntity
  8
0
  6
Continuous
 62
     7
370
    25
100
AcDbCircle
 10
11.1445228613
 20
32.8199852688
 30
0.0
 40
0.1496062992125991
100
AcDbArc
 50
332.7171389332
 51
347.2004043408
  0
LINE
  5
CF
330
1F
100
AcDbEntity
  8
0
  6
Continuous
 62
     7
370
    25
100
AcDbLine
 10
11.1721345818
 20
11.6960099581
 30
0.0
 11
11.1721345818
 21
11.7553451845
 31
0.0
  0
LINE
  5
D0
330
1F
100
AcDbEntity
  8
0
  6
Continuous
 62
     7
370
    25
100
AcDbLine
 10
11.1721345818
 20
34.086053846
 30
0.0
 11
11.1721345818
 21
34.460069594
 31
0.0
  0
LINE
  5
D1
330
1F
100
AcDbEntity
  8
0
  6
Continuous
 62
     7
370
    25
100
AcDbLine
 10
11.1721345818
 20
56.7632192003
 30
0.0
 11
11.1721345818
 21
57.0191247121
 31
0.0
  0
LINE
  5
D2
330
1F
100
AcDbEntity
  8
0
  6
Continuous
 62
   144
370
    18
100
AcDbLine
 10
10.9004283731
 20
34.086053846
 30
0.0
 11
10.3697208425
 21
34.086053846
 31
0.0
  0
LINE
  5
D3
330
1F
100
AcDbEntity
  8
0
  6
Continuous
 62
   144
370
    18
100
AcDbLine
 10
39.4988535699
 20
32.7868412475
 30
0.0
 11
40.0295611004
 21
32.7868412475
 31
0.0
  0
LWPOLYLINE
  5
D4
330
1F
100
AcDbEntity
  8
0
  6
Continuous
 62
   144
370
    18
100
AcDbPolyline
 90
        3
 70
   128
 43
0.0
 10
25.9439697587
 20
55.4620380979
 10
25.9384671164
 20
55.4534258261
 10
25.9195046906
 20
55.428573531
  0
LWPOLYLINE
  5
D5
330
1F
100
AcDbEntity
  8
0
  6
Continuous
 62
   144
370
    18
100
AcDbPolyline
 90
        3
 70
   128
 43
0.0
 10
24.086076465
 20
55.428573531
 10
24.0671140392
 20
55.4534258261
 10
24.0616113969
 20
55.4620380979
  0
LINE
  5
D6
330
1F
100
AcDbEntity
  8
0
  6
Continuous
 62
   144
370
    18
100
AcDbLine
 10
11.3571212864
 20
55.428573531
 30
0.0
 11
11.3571212864
 21
55.4640066019
 31
0.0
  0
LINE
  5
D7
330
1F
100
AcDbEntity
  8
0
  6
Continuous
 62
   144
370
    18
100
AcDbLine
 10
39.0421606565
 20
55.4640066019
 30
0.0
 11
39.0421606565
 21
55.428573531
 31
0.0
  0
LINE
  5
D8
330
1F
100
AcDbEntity
  8
0
  6
Continuous
 62
   144
370
    18
100
AcDbLine
 10
40.0736567195
 20
32.6726680192
 30
0.0
 11
40.0736567195
 21
32.6864475467
 31
0.0
  0
LINE
  5
D9
330
1F
100
AcDbEntity
  8
0
  6
Continuous
 62
   144
370
    18
100
AcDbLine
 10
39.120900814
 20
32.7868412475
 30
0.0
 11
39.120900814
 21
32.7531720296
 31
0.0
  0
LINE
  5
DA
330
1F
100
AcDbEntity
  8
0
  6
Continuous
 62
   144
370
    18
100
AcDbLine
 10
39.994916562
 20
32.7514081767
 30
0.0
 11
39.994916562
 21
32.7651877042
 31
0.0
  0
LINE
  5
DB
330
1F
100
AcDbEntity
  8
0
  6
Continuous
 62
   144
370
    18
100
AcDbLine
 10
39.278381129
 20
32.7651877042
 30
0.0
 11
39.278381129
 21
32.7514081767
 31
0.0
  0
LINE
  5
DC
330
1F
100
AcDbEntity
  8
0
  6
Continuous
 62
   144
370
    18
100
AcDbLine
 10
39.994916562
 20
32.7651877042
 30
0.0
 11
39.278381129
 21
32.7651877042
 31
0.0
  0
LINE
  5
DD
330
1F
100
AcDbEntity
  8
0
  6
Continuous
 62
   144
370
    18
100
AcDbLine
 10
40.0736567195
 20
32.6864475467
 30
0.0
 11
40.0317964715
 21
32.6864475467
 31
0.0
  0
LINE
  5
DE
330
1F
100
AcDbEntity
  8
0
  6
Continuous
 62
   144
370
    18
100
AcDbLine
 10
10.9004283731
 20
32.7868412475
 30
0.0
 11
10.3697208425
 21
32.7868412475
 31
0.0
  0
LINE
  5
DF
330
1F
100
AcDbEntity
  8
0
  6
Continuous
 62
     7
370
    25
100
AcDbLine
 10
10.8961436811
 20
34.086053846
 30
0.0
 11
10.9083023888
 21
34.086053846
 31
0.0
  0
LINE
  5
E0
330
1F
100
AcDbEntity
  8
0
  6
Continuous
 62
   144
370
    18
100
AcDbLine
 10
10.9083023888
 20
34.0781798302
 30
0.0
 11
10.8961436811
 21
34.0781798302
 31
0.0
  0
LINE
  5
E1
330
1F
100
AcDbEntity
  8
0
  6
Continuous
 62
   144
370
    18
100
AcDbLine
 10
39.4988535699
 20
34.086053846
 30
0.0
 11
40.0295611004
 21
34.086053846
 31
0.0
  0
LWPOLYLINE
  5
E2
330
1F
100
AcDbEntity
  8
0
  6
Continuous
 62
   144
370
    18
100
AcDbPolyline
 90
       15
 70
   128
 43
0.0
 10
10.9004283731
 20
34.0844429439
 10
10.8949177974
 20
34.0844429512
 10
10.8687939495
 20
34.0844433876
 10
10.8425846108
 20
34.0844433426
 10
10.8156284347
 20
34.0844439584
 10
10.7733353539
 20
34.0844434708
 10
10.6854432752
 20
34.0844429457
 10
10.5028539866
 20
34.0844429441
 10
10.4172572248
 20
34.0844429625
 10
10.3965137566
 20
34.0844431296
 10
10.3707759459
 20
34.0844361389
 10
10.3660343787
 20
34.0844412702
 10
10.3649487683
 20
34.0844429592
 10
10.3650112276
 20
34.0844429438
 10
10.3650118957
 20
34.0844429438
  0
LINE
  5
E3
330
1F
100
AcDbEntity
  8
0
  6
Continuous
 62
   144
370
    18
100
AcDbLine
 10
10.363874367
 20
34.0835770549
 30
0.0
 11
10.3290084358
 21
34.0570110559
 31
0.0
  0
ARC
  5
E4
330
1F
100
AcDbEntity
  8
0
  6
Continuous
 62
   144
370
    18
100
AcDbCircle
 10
10.3368229231
 20
34.3886186588
 30
0.0
 40
0.3317455629443553
100
AcDbArc
 50
268.6444385869
 51
272.3494997631
  0
LWPOLYLINE
  5
E5
330
1F
100
AcDbEntity
  8
0
  6
Continuous
 62
   144
370
    18
100
AcDbPolyline
 90
        3
 70
   128
 43
0.0
 10
10.3504228375
 20
34.0571519774
 10
10.6780994513
 20
34.0533049946
 10
10.7547349434
 20
34.0519627085
  0
LWPOLYLINE
  5
E6
330
1F
100
AcDbEntity
  8
0
  6
Continuous
 62
   144
370
    18
100
AcDbPolyline
 90
        3
 70
   128
 43
0.0
 10
10.7547349434
 20
34.0519627085
 10
10.759180434
 20
34.0514133113
 10
10.7788995294
 20
34.0499224995
  0
LWPOLYLINE
  5
E7
330
1F
100
AcDbEntity
  8
0
  6
Continuous
 62
   144
370
    18
100
AcDbPolyline
 90
        3
 70
   128
 43
0.0
 10
10.7788995294
 20
34.0499224995
 10
10.796683111
 20
34.0497370984
 10
10.8147587545
 20
34.0494204558
  0
LWPOLYLINE
  5
E8
330
1F
100
AcDbEntity
  8
0
  6
Continuous
 62
   144
370
    18
100
AcDbPolyline
 90
        3
 70
   128
 43
0.0
 10
10.8147587545
 20
34.0494204558
 10
10.8215275574
 20
34.0490115643
 10
10.8433537837
 20
34.0482963045
  0
LWPOLYLINE
  5
E9
330
1F
100
AcDbEntity
  8
0
  6
Continuous
 62
   144
370
    18
100
AcDbPolyline
 90
        3
 70
   128
 43
0.0
 10
10.8433537837
 20
34.0482963045
 10
10.8706694204
 20
34.0481750593
 10
10.9004283731
 20
34.0482335377
  0
LINE
  5
EA
330
1F
100
AcDbEntity
  8
0
  6
Continuous
 62
   144
370
    18
100
AcDbLine
 10
10.9004283731
 20
34.0482335377
 30
0.0
 11
10.9004283731
 21
34.0844429439
 31
0.0
  0
LINE
  5
EB
330
1F
100
AcDbEntity
  8
0
  6
Continuous
 62
   144
370
    18
100
AcDbLine
 10
10.5038617508
 20
32.7947152633
 30
0.0
 11
10.8404659818
 21
32.7947152633
 31
0.0
  0
LINE
  5
EC
330
1F
100
AcDbEntity
  8
0
  6
Continuous
 62
   144
370
    18
100
AcDbLine
 10
10.5038617508
 20
32.8228851261
 30
0.0
 11
10.5038617508
 21
32.8175445167
 31
0.0
  0
LINE
  5
ED
330
1F
100
AcDbEntity
  8
0
  6
Continuous
 62
   144
370
    18
100
AcDbLine
 10
39.8954201922
 20
32.8175445167
 30
0.0
 11
39.8954201922
 21
32.822885129
 31
0.0
  0
LINE
  5
EE
330
1F
100
AcDbEntity
  8
0
  6
Continuous
 62
   144
370
    18
100
AcDbLine
 10
39.5588159612
 20
32.7947152633
 30
0.0
 11
39.8954201922
 21
32.7947152633
 31
0.0
  0
LINE
  5
EF
330
1F
100
AcDbEntity
  8
0
  6
Continuous
 62
   144
370
    18
100
AcDbLine
 10
39.5588159612
 20
32.8285248996
 30
0.0
 11
39.5588159612
 21
32.8245041538
 31
0.0
  0
LWPOLYLINE
  5
F0
330
1F
100
AcDbEntity
  8
0
  6
Continuous
 62
   144
370
    18
100
AcDbPolyline
 90
       15
 70
   128
 43
0.0
 10
39.4988535699
 20
32.7884521496
 10
39.5043641456
 20
32.7884521423
 10
39.5304879935
 20
32.7884517059
 10
39.5566973321
 20
32.7884517509
 10
39.5836535083
 20
32.7884511351
 10
39.625946589
 20
32.7884516227
 10
39.7138386678
 20
32.7884521478
 10
39.8964279564
 20
32.7884521494
 10
39.9820247182
 20
32.788452131
 10
40.0027681864
 20
32.7884519639
 10
40.0285059971
 20
32.7884589546
 10
40.0332475642
 20
32.7884538233
 10
40.0343331747
 20
32.7884521343
 10
40.0342707154
 20
32.7884521497
 10
40.0342700473
 20
32.7884521497
  0
LINE
  5
F1
330
1F
100
AcDbEntity
  8
0
  6
Continuous
 62
   144
370
    18
100
AcDbLine
 10
40.0354075754
 20
32.7893180381
 30
0.0
 11
40.0703076381
 21
32.8159100436
 31
0.0
  0
LWPOLYLINE
  5
F2
330
1F
100
AcDbEntity
  8
0
  6
Continuous
 62
   144
370
    18
100
AcDbPolyline
 90
        8
 70
   128
 43
0.0
 10
40.0703076381
 20
32.8159100436
 10
40.0703076381
 20
32.8159100436
 10
40.0703076381
 20
32.8159100436
 10
40.0703076381
 20
32.8159100436
 10
40.0703076381
 20
32.8159100436
 10
40.0703076426
 20
32.8159101293
 10
40.070307713
 20
32.8159114779
 10
40.0703070592
 20
32.8159291549
  0
ARC
  5
F3
330
1F
100
AcDbEntity
  8
0
  6
Continuous
 62
   144
370
    18
100
AcDbCircle
 10
40.0624590199
 20
32.4842764347
 30
0.0
 40
0.331745562970843
100
AcDbArc
 50
88.6444385871
 51
92.349499763
  0
LWPOLYLINE
  5
F4
330
1F
100
AcDbEntity
  8
0
  6
Continuous
 62
   144
370
    18
100
AcDbPolyline
 90
        3
 70
   128
 43
0.0
 10
40.0488591054
 20
32.8157431161
 10
39.7211824917
 20
32.8195900989
 10
39.6445469996
 20
32.820932385
  0
LWPOLYLINE
  5
F5
330
1F
100
AcDbEntity
  8
0
  6
Continuous
 62
   144
370
    18
100
AcDbPolyline
 90
        3
 70
   128
 43
0.0
 10
39.6445469996
 20
32.820932385
 10
39.6401015089
 20
32.8214817822
 10
39.6203824136
 20
32.822972594
  0
LWPOLYLINE
  5
F6
330
1F
100
AcDbEntity
  8
0
  6
Continuous
 62
   144
370
    18
100
AcDbPolyline
 90
        3
 70
   128
 43
0.0
 10
39.6203824136
 20
32.822972594
 10
39.602598832
 20
32.8231579951
 10
39.5845231885
 20
32.8234746377
  0
LWPOLYLINE
  5
F7
330
1F
100
AcDbEntity
  8
0
  6
Continuous
 62
   144
370
    18
100
AcDbPolyline
 90
        3
 70
   128
 43
0.0
 10
39.5845231885
 20
32.8234746377
 10
39.5777543856
 20
32.8238835292
 10
39.5559281593
 20
32.824598789
  0
LWPOLYLINE
  5
F8
330
1F
100
AcDbEntity
  8
0
  6
Continuous
 62
   144
370
    18
100
AcDbPolyline
 90
        3
 70
   128
 43
0.0
 10
39.5559281593
 20
32.824598789
 10
39.5286125226
 20
32.8247200342
 10
39.4988535699
 20
32.8246615558
  0
LINE
  5
F9
330
1F
100
AcDbEntity
  8
0
  6
Continuous
 62
   144
370
    18
100
AcDbLine
 10
39.4988535699
 20
32.8246615558
 30
0.0
 11
39.4988535699
 21
32.7884521496
 31
0.0
  0
LINE
  5
FA
330
1F
100
AcDbEntity
  8
0
  6
Continuous
 62
   144
370
    18
100
AcDbLine
 10
10.3256252235
 20
55.3636129011
 30
0.0
 11
10.3256252235
 21
55.3498333735
 31
0.0
  0
LINE
  5
FB
330
1F
100
AcDbEntity
  8
0
  6
Continuous
 62
   144
370
    18
100
AcDbLine
 10
10.4043653809
 20
55.4423530586
 30
0.0
 11
10.4043653809
 21
55.428573531
 31
0.0
  0
LINE
  5
FC
330
1F
100
AcDbEntity
  8
0
  6
Continuous
 62
   144
370
    18
100
AcDbLine
 10
11.120900814
 20
55.4423530586
 30
0.0
 11
10.4043653809
 21
55.4423530586
 31
0.0
  0
LINE
  5
FD
330
1F
100
AcDbEntity
  8
0
  6
Continuous
 62
   144
370
    18
100
AcDbLine
 10
11.120900814
 20
55.428573531
 30
0.0
 11
11.120900814
 21
55.4423530586
 31
0.0
  0
LINE
  5
FE
330
1F
100
AcDbEntity
  8
0
  6
Continuous
 62
   144
370
    18
100
AcDbLine
 10
10.3674854715
 20
55.3636129011
 30
0.0
 11
10.3256252235
 21
55.3636129011
 31
0.0
  0
LINE
  5
FF
330
1F
100
AcDbEntity
  8
0
  6
Continuous
 62
   144
370
    18
100
AcDbLine
 10
10.3256252235
 20
32.6864475467
 30
0.0
 11
10.3256252235
 21
32.6726680192
 31
0.0
  0
LINE
  5
100
330
1F
100
AcDbEntity
  8
0
  6
Continuous
 62
   144
370
    18
100
AcDbLine
 10
11.278381129
 20
32.7531720296
 30
0.0
 11
11.278381129
 21
32.7868412475
 31
0.0
  0
LINE
  5
101
330
1F
100
AcDbEntity
  8
0
  6
Continuous
 62
   144
370
    18
100
AcDbLine
 10
10.3674854715
 20
32.6864475467
 30
0.0
 11
10.3256252235
 21
32.6864475467
 31
0.0
  0
LINE
  5
102
330
1F
100
AcDbEntity
  8
0
  6
Continuous
 62
   144
370
    18
100
AcDbLine
 10
10.4043653809
 20
32.7651877042
 30
0.0
 11
10.4043653809
 21
32.7514081767
 31
0.0
  0
LINE
  5
103
330
1F
100
AcDbEntity
  8
0
  6
Continuous
 62
   144
370
    18
100
AcDbLine
 10
11.120900814
 20
32.7651877042
 30
0.0
 11
10.4043653809
 21
32.7651877042
 31
0.0
  0
LINE
  5
104
330
1F
100
AcDbEntity
  8
0
  6
Continuous
 62
   144
370
    18
100
AcDbLine
 10
11.120900814
 20
32.7514081767
 30
0.0
 11
11.120900814
 21
32.7651877042
 31
0.0
  0
LINE
  5
105
330
1F
100
AcDbEntity
  8
0
  6
Continuous
 62
     7
370
    25
100
AcDbLine
 10
10.9083023888
 20
32.7868412475
 30
0.0
 11
10.8961436811
 21
32.7868412475
 31
0.0
  0
LINE
  5
106
330
1F
100
AcDbEntity
  8
0
  6
Continuous
 62
   144
370
    18
100
AcDbLine
 10
10.8961436811
 20
32.7947152633
 30
0.0
 11
10.9083023888
 21
32.7947152633
 31
0.0
  0
LINE
  5
107
330
1F
100
AcDbEntity
  8
0
  6
Continuous
 62
     7
370
    25
100
AcDbLine
 10
37.1484598691
 20
32.7848727436
 30
0.0
 11
13.2508220739
 21
32.7848727436
 31
0.0
  0
LINE
  5
108
330
1F
100
AcDbEntity
  8
0
  6
Continuous
 62
   144
370
    18
100
AcDbLine
 10
37.1484598691
 20
32.7868412475
 30
0.0
 11
37.1484598691
 21
32.7848727436
 31
0.0
  0
LINE
  5
109
330
1F
100
AcDbEntity
  8
0
  6
Continuous
 62
   144
370
    18
100
AcDbLine
 10
13.2508220739
 20
32.7848727436
 30
0.0
 11
13.2508220739
 21
32.7868412475
 31
0.0
  0
LINE
  5
10A
330
1F
100
AcDbEntity
  8
0
  6
Continuous
 62
     7
370
    25
100
AcDbLine
 10
10.9083023888
 20
34.0844429439
 30
0.0
 11
10.9083023888
 21
34.086053846
 31
0.0
  0
LINE
  5
10B
330
1F
100
AcDbEntity
  8
0
  6
Continuous
 62
     7
370
    25
100
AcDbLine
 10
10.9083023888
 20
34.0844429439
 30
0.0
 11
10.9083023888
 21
34.0482314987
 31
0.0
  0
LINE
  5
10C
330
1F
100
AcDbEntity
  8
0
  6
Continuous
 62
     7
370
    25
100
AcDbLine
 10
10.9083023888
 20
34.0442338873
 30
0.0
 11
10.9083023888
 21
34.0482314987
 31
0.0
  0
LINE
  5
10D
330
1F
100
AcDbEntity
  8
0
  6
Continuous
 62
     7
370
    25
100
AcDbLine
 10
10.9083023888
 20
34.0442338873
 30
0.0
 11
10.9083023888
 21
32.8286612062
 31
0.0
  0
LINE
  5
10E
330
1F
100
AcDbEntity
  8
0
  6
Continuous
 62
     7
370
    25
100
AcDbLine
 10
10.9083023888
 20
32.8246635948
 30
0.0
 11
10.9083023888
 21
32.8286612062
 31
0.0
  0
LINE
  5
10F
330
1F
100
AcDbEntity
  8
0
  6
Continuous
 62
     7
370
    25
100
AcDbLine
 10
10.9083023888
 20
32.8246635948
 30
0.0
 11
10.9083023888
 21
32.7884521496
 31
0.0
  0
LINE
  5
110
330
1F
100
AcDbEntity
  8
0
  6
Continuous
 62
     7
370
    25
100
AcDbLine
 10
10.9083023888
 20
32.7868412475
 30
0.0
 11
10.9083023888
 21
32.7884521496
 31
0.0
  0
LINE
  5
111
330
1F
100
AcDbEntity
  8
0
  6
Continuous
 62
     7
370
    25
100
AcDbLine
 10
39.4909795542
 20
32.7884521496
 30
0.0
 11
39.4909795542
 21
32.7868412475
 31
0.0
  0
LINE
  5
112
330
1F
100
AcDbEntity
  8
0
  6
Continuous
 62
     7
370
    25
100
AcDbLine
 10
39.4909795542
 20
32.7884521496
 30
0.0
 11
39.4909795542
 21
32.8246635948
 31
0.0
  0
LINE
  5
113
330
1F
100
AcDbEntity
  8
0
  6
Continuous
 62
     7
370
    25
100
AcDbLine
 10
39.4909795542
 20
32.8286612062
 30
0.0
 11
39.4909795542
 21
32.8246635948
 31
0.0
  0
LINE
  5
114
330
1F
100
AcDbEntity
  8
0
  6
Continuous
 62
     7
370
    25
100
AcDbLine
 10
39.4909795542
 20
32.8286612062
 30
0.0
 11
39.4909795542
 21
34.0442338873
 31
0.0
  0
LINE
  5
115
330
1F
100
AcDbEntity
  8
0
  6
Continuous
 62
     7
370
    25
100
AcDbLine
 10
39.4909795542
 20
34.0482314987
 30
0.0
 11
39.4909795542
 21
34.0442338873
 31
0.0
  0
LINE
  5
116
330
1F
100
AcDbEntity
  8
0
  6
Continuous
 62
     7
370
    25
100
AcDbLine
 10
39.4909795542
 20
34.0482314987
 30
0.0
 11
39.4909795542
 21
34.0844429439
 31
0.0
  0
LINE
  5
117
330
1F
100
AcDbEntity
  8
0
  6
Continuous
 62
     7
370
    25
100
AcDbLine
 10
39.4909795542
 20
34.086053846
 30
0.0
 11
39.4909795542
 21
34.0844429439
 31
0.0
  0
LINE
  5
118
330
1F
100
AcDbEntity
  8
0
  6
Continuous
 62
     7
370
    25
100
AcDbLine
 10
39.4909795542
 20
34.0442338873
 30
0.0
 11
10.9083023888
 21
34.0442338873
 31
0.0
  0
LINE
  5
119
330
1F
100
AcDbEntity
  8
0
  6
Continuous
 62
     7
370
    25
100
AcDbLine
 10
10.9083023888
 20
32.8286612062
 30
0.0
 11
39.4909795542
 21
32.8286612062
 31
0.0
  0
LINE
  5
11A
330
1F
100
AcDbEntity
  8
0
  6
Continuous
 62
     7
370
    25
100
AcDbLine
 10
39.4909795542
 20
32.8246635948
 30
0.0
 11
10.9083023888
 21
32.8246635948
 31
0.0
  0
LINE
  5
11B
330
1F
100
AcDbEntity
  8
0
  6
Continuous
 62
     7
370
    25
100
AcDbLine
 10
10.9083023888
 20
34.0482314987
 30
0.0
 11
39.4909795542
 21
34.0482314987
 31
0.0
  0
LINE
  5
11C
330
1F
100
AcDbEntity
  8
0
  6
Continuous
 62
     7
370
    25
100
AcDbLine
 10
10.9083023888
 20
32.7884521496
 30
0.0
 11
39.4909795542
 21
32.7884521496
 31
0.0
  0
LINE
  5
11D
330
1F
100
AcDbEntity
  8
0
  6
Continuous
 62
     7
370
    25
100
AcDbLine
 10
39.4909795542
 20
34.0844429439
 30
0.0
 11
10.9083023888
 21
34.0844429439
 31
0.0
  0
LINE
  5
11E
330
1F
100
AcDbEntity
  8
0
  6
Continuous
 62
     7
370
    25
100
AcDbLine
 10
10.9083023888
 20
34.086053846
 30
0.0
 11
39.4909795542
 21
34.086053846
 31
0.0
  0
LINE
  5
11F
330
1F
100
AcDbEntity
  8
0
  6
Continuous
 62
     7
370
    25
100
AcDbLine
 10
39.4909795542
 20
32.7868412475
 30
0.0
 11
10.9083023888
 21
32.7868412475
 31
0.0
  0
LINE
  5
120
330
1F
100
AcDbEntity
  8
0
  6
Continuous
 62
   144
370
    18
100
AcDbLine
 10
39.5031382619
 20
34.0781798302
 30
0.0
 11
39.4909795542
 21
34.0781798302
 31
0.0
  0
LINE
  5
121
330
1F
100
AcDbEntity
  8
0
  6
Continuous
 62
     7
370
    25
100
AcDbLine
 10
39.4909795542
 20
34.086053846
 30
0.0
 11
39.5031382619
 21
34.086053846
 31
0.0
  0
LWPOLYLINE
  5
122
330
1F
100
AcDbEntity
  8
0
  6
Continuous
 62
   144
370
    18
100
AcDbPolyline
 90
        4
 70
   128
 43
0.0
 10
39.5559052235
 20
34.0442967118
 10
39.5286088926
 20
34.0441762996
 10
39.5013135568
 20
34.0442343577
 10
39.4988535699
 20
34.0442353624
  0
ARC
  5
123
330
1F
100
AcDbEntity
  8
0
  6
Continuous
 62
     7
370
    25
100
AcDbCircle
 10
66.3216123851
 20
33.4601784538
 30
0.0
 40
26.77208012092359
100
AcDbArc
 50
178.7498107501
 51
180.050787275
  0
ARC
  5
124
330
1F
100
AcDbEntity
  8
0
  6
Continuous
 62
     7
370
    25
100
AcDbCircle
 10
66.3216123851
 20
33.4127166397
 30
0.0
 40
26.77208012093734
100
AcDbArc
 50
179.949212725
 51
181.2501892499
  0
ARC
  5
125
330
1F
100
AcDbEntity
  8
0
  6
Continuous
 62
   144
370
    18
100
AcDbCircle
 10
39.5150903426
 20
21.4004724989
 30
0.0
 40
11.42819876649091
100
AcDbArc
 50
89.7953723559
 51
90.0814038045
  0
LINE
  5
126
330
1F
100
AcDbEntity
  8
0
  6
Continuous
 62
   144
370
    18
100
AcDbLine
 10
39.4988535699
 20
34.0442353624
 30
0.0
 11
39.4988535699
 21
32.8286597311
 31
0.0
  0
ARC
  5
127
330
1F
100
AcDbEntity
  8
0
  6
Continuous
 62
     7
370
    25
100
AcDbCircle
 10
91.0847987655
 20
33.459872634
 30
0.0
 40
51.50215972725957
100
AcDbArc
 50
179.3488141077
 51
180.0260602407
  0
LINE
  5
128
330
1F
100
AcDbEntity
  8
0
  6
Continuous
 62
     7
370
    25
100
AcDbLine
 10
39.5826443655
 20
33.4364475467
 30
0.0
 11
39.5495427818
 21
33.4364475467
 31
0.0
  0
LWPOLYLINE
  5
129
330
1F
100
AcDbEntity
  8
0
  6
Continuous
 62
   144
370
    18
100
AcDbPolyline
 90
        3
 70
   128
 43
0.0
 10
39.5859652927
 20
34.0451994786
 10
39.5788528112
 20
34.0448760274
 10
39.5559052235
 20
34.0442967118
  0
ARC
  5
12A
330
1F
100
AcDbEntity
  8
0
  6
Continuous
 62
     7
370
    25
100
AcDbCircle
 10
91.0847987655
 20
33.4130224595
 30
0.0
 40
51.50215972726094
100
AcDbArc
 50
179.9739397593
 51
180.6511858923
  0
LWPOLYLINE
  5
12B
330
1F
100
AcDbEntity
  8
0
  6
Continuous
 62
   144
370
    18
100
AcDbPolyline
 90
        3
 70
   128
 43
0.0
 10
39.5559052235
 20
32.8285983817
 10
39.5788528112
 20
32.8280190661
 10
39.5859652927
 20
32.8276956149
  0
ARC
  5
12C
330
1F
100
AcDbEntity
  8
0
  6
Continuous
 62
     7
370
    25
100
AcDbCircle
 10
-216.7345107951
 20
33.510767115
 30
0.0
 40
256.3821111360458
100
AcDbArc
 50
359.9833912165
 51
0.1198844392
  0
LINE
  5
12D
330
1F
100
AcDbEntity
  8
0
  6
Continuous
 62
     7
370
    25
100
AcDbLine
 10
39.6475895691
 20
33.4364475467
 30
0.0
 11
39.6206221415
 21
33.4364475467
 31
0.0
  0
ARC
  5
12E
330
1F
100
AcDbEntity
  8
0
  6
Continuous
 62
     7
370
    25
100
AcDbCircle
 10
252.269248999
 20
33.4336403997
 30
0.0
 40
212.6486268759944
100
AcDbArc
 50
179.8350950901
 51
179.9992436333
  0
LWPOLYLINE
  5
12F
330
1F
100
AcDbEntity
  8
0
  6
Continuous
 62
   144
370
    18
100
AcDbPolyline
 90
        3
 70
   128
 43
0.0
 10
39.6470391147
 20
34.0472150602
 10
39.6424091172
 20
34.0467883771
 10
39.6215028761
 20
34.0456707193
  0
ARC
  5
130
330
1F
100
AcDbEntity
  8
0
  6
Continuous
 62
     7
370
    25
100
AcDbCircle
 10
-216.7848709197
 20
33.3621733656
 30
0.0
 40
256.4324712453788
100
AcDbArc
 50
359.8801289636
 51
0.0165953808
  0
ARC
  5
131
330
1F
100
AcDbEntity
  8
0
  6
Continuous
 62
     7
370
    25
100
AcDbCircle
 10
252.1340811592
 20
33.4390592859
 30
0.0
 40
212.5134590337487
100
AcDbArc
 50
180.0007041639
 51
180.1649571128
  0
LWPOLYLINE
  5
132
330
1F
100
AcDbEntity
  8
0
  6
Continuous
 62
   144
370
    18
100
AcDbPolyline
 90
        3
 70
   128
 43
0.0
 10
39.6215028761
 20
32.8272243742
 10
39.6424091172
 20
32.8261067164
 10
39.6470391147
 20
32.8256800333
  0
LINE
  5
133
330
1F
100
AcDbEntity
  8
0
  6
Continuous
 62
     7
370
    25
100
AcDbLine
 10
39.6206221415
 20
33.4364475467
 30
0.0
 11
39.5826443655
 21
33.4364475467
 31
0.0
  0
LWPOLYLINE
  5
134
330
1F
100
AcDbEntity
  8
0
  6
Continuous
 62
   144
370
    18
100
AcDbPolyline
 90
        3
 70
   128
 43
0.0
 10
39.5859652927
 20
32.8276956149
 10
39.603719442
 20
32.8273939164
 10
39.6215028761
 20
32.8272243742
  0
LWPOLYLINE
  5
135
330
1F
100
AcDbEntity
  8
0
  6
Continuous
 62
   144
370
    18
100
AcDbPolyline
 90
        3
 70
   128
 43
0.0
 10
39.6215028761
 20
34.0456707193
 10
39.603719442
 20
34.0455011771
 10
39.5859652927
 20
34.0451994786
  0
LWPOLYLINE
  5
136
330
1F
100
AcDbEntity
  8
0
  6
Continuous
 62
     7
370
    25
100
AcDbPolyline
 90
        3
 70
   128
 43
0.0
 10
40.050978583
 20
32.8216481833
 10
40.0707336049
 20
33.4364470788
 10
40.050978583
 20
34.0512469102
  0
ARC
  5
137
330
1F
100
AcDbEntity
  8
0
  6
Continuous
 62
   144
370
    18
100
AcDbCircle
 10
40.3158627708
 20
79.5964176973
 30
0.0
 40
46.7755195237514
100
AcDbArc
 50
269.1807236131
 51
269.6755391005
  0
ARC
  5
138
330
1F
100
AcDbEntity
  8
0
  6
Continuous
 62
   144
370
    18
100
AcDbCircle
 10
40.3158645166
 20
-12.7236975135
 30
0.0
 40
46.7756944405054
100
AcDbArc
 50
90.3244618246
 51
90.8192754617
  0
LWPOLYLINE
  5
139
330
1F
100
AcDbEntity
  8
0
  6
Continuous
 62
     7
370
    25
100
AcDbPolyline
 90
        3
 70
   128
 43
0.0
 10
40.0733997805
 20
34.0511133183
 10
40.089404751
 20
33.4364470784
 10
40.0733997805
 20
32.8217817752
  0
ARC
  5
13A
330
1F
100
AcDbEntity
  8
0
  6
Continuous
 62
   144
370
    18
100
AcDbCircle
 10
40.0656267801
 20
32.2447708008
 30
0.0
 40
0.577063327686606
100
AcDbArc
 50
89.2282067407
 51
91.4545544436
  0
ARC
  5
13B
330
1F
100
AcDbEntity
  8
0
  6
Continuous
 62
   144
370
    18
100
AcDbCircle
 10
40.0656267801
 20
34.6281242927
 30
0.0
 40
0.5770633276855618
100
AcDbArc
 50
268.5454455564
 51
270.7717932593
  0
LINE
  5
13C
330
1F
100
AcDbEntity
  8
0
  6
Continuous
 62
   144
370
    18
100
AcDbLine
 10
40.0733997805
 20
32.8217817752
 30
0.0
 11
40.073399728
 21
32.8217807677
 31
0.0
  0
LINE
  5
13D
330
1F
100
AcDbEntity
  8
0
  6
Continuous
 62
   144
370
    18
100
AcDbLine
 10
40.073399728
 20
34.0511143258
 30
0.0
 11
40.0733997805
 21
34.0511133183
 31
0.0
  0
LINE
  5
13E
330
1F
100
AcDbEntity
  8
0
  6
Continuous
 62
   144
370
    18
100
AcDbLine
 10
39.9319244361
 20
32.8171159503
 30
0.0
 11
39.9319244361
 21
32.8225948601
 31
0.0
  0
LINE
  5
13F
330
1F
100
AcDbEntity
  8
0
  6
Continuous
 62
   144
370
    18
100
AcDbLine
 10
39.9319244361
 20
34.0503002356
 30
0.0
 11
39.9319244361
 21
34.0557791432
 31
0.0
  0
LINE
  5
140
330
1F
100
AcDbEntity
  8
0
  6
Continuous
 62
   144
370
    18
100
AcDbLine
 10
40.0377791768
 20
34.057021897
 30
0.0
 11
40.0454164707
 21
34.0512026823
 31
0.0
  0
LINE
  5
141
330
1F
100
AcDbEntity
  8
0
  6
Continuous
 62
   144
370
    18
100
AcDbLine
 10
40.0454164708
 20
32.8216924113
 30
0.0
 11
40.0377791768
 21
32.8158731964
 31
0.0
  0
LINE
  5
142
330
1F
100
AcDbEntity
  8
0
  6
Continuous
 62
     7
370
    25
100
AcDbLine
 10
40.0736567195
 20
32.6726680192
 30
0.0
 11
40.0736567195
 21
15.7317231373
 31
0.0
  0
LINE
  5
143
330
1F
100
AcDbEntity
  8
0
  6
Continuous
 62
   144
370
    18
100
AcDbLine
 10
40.0736567195
 20
32.6726680192
 30
0.0
 11
40.0342866408
 21
32.6726680192
 31
0.0
  0
LINE
  5
144
330
1F
100
AcDbEntity
  8
0
  6
Continuous
 62
     7
370
    25
100
AcDbLine
 10
39.994916562
 20
32.7120380979
 30
0.0
 11
10.4043653809
 21
32.7120380979
 31
0.0
  0
LINE
  5
145
330
1F
100
AcDbEntity
  8
0
  6
Continuous
 62
   144
370
    18
100
AcDbLine
 10
39.994916562
 20
32.7514081767
 30
0.0
 11
39.994916562
 21
32.7120380979
 31
0.0
  0
LINE
  5
146
330
1F
100
AcDbEntity
  8
0
  6
Continuous
 62
   144
370
    18
100
AcDbLine
 10
10.4043653809
 20
32.7514081767
 30
0.0
 11
39.994916562
 21
32.7514081767
 31
0.0
  0
LINE
  5
147
330
1F
100
AcDbEntity
  8
0
  6
Continuous
 62
   144
370
    18
100
AcDbLine
 10
10.4043653809
 20
32.7120380979
 30
0.0
 11
10.4043653809
 21
32.7514081767
 31
0.0
  0
LINE
  5
148
330
1F
100
AcDbEntity
  8
0
  6
Continuous
 62
     7
370
    25
100
AcDbLine
 10
10.3256252235
 20
15.7317231373
 30
0.0
 11
10.3256252235
 21
32.6726680192
 31
0.0
  0
LINE
  5
149
330
1F
100
AcDbEntity
  8
0
  6
Continuous
 62
   144
370
    18
100
AcDbLine
 10
10.3649953022
 20
32.6726680192
 30
0.0
 11
10.3256252235
 21
32.6726680192
 31
0.0
  0
LINE
  5
14A
330
1F
100
AcDbEntity
  8
0
  6
Continuous
 62
     7
370
    25
100
AcDbLine
 10
14.8453102628
 20
16.8911719562
 30
0.0
 11
14.8453102628
 21
28.9817231373
 31
0.0
  0
LINE
  5
14B
330
1F
100
AcDbEntity
  8
0
  6
Continuous
 62
     7
370
    25
100
AcDbLine
 10
35.5539716801
 20
16.8911719562
 30
0.0
 11
14.8453102628
 21
16.8911719562
 31
0.0
  0
LINE
  5
14C
330
1F
100
AcDbEntity
  8
0
  6
Continuous
 62
     7
370
    25
100
AcDbLine
 10
35.5539716801
 20
28.9817231373
 30
0.0
 11
35.5539716801
 21
16.8911719562
 31
0.0
  0
LINE
  5
14D
330
1F
100
AcDbEntity
  8
0
  6
Continuous
 62
     7
370
    25
100
AcDbLine
 10
14.8453102628
 20
28.9817231373
 30
0.0
 11
35.5539716801
 21
28.9817231373
 31
0.0
  0
ARC
  5
14E
330
1F
100
AcDbEntity
  8
0
  6
Continuous
 62
   144
370
    18
100
AcDbCircle
 10
39.994916562
 20
32.6726680192
 30
0.0
 40
0.0393700787401556
100
AcDbArc
 50
0.0
 51
90.0
  0
ARC
  5
14F
330
1F
100
AcDbEntity
  8
0
  6
Continuous
 62
   144
370
    18
100
AcDbCircle
 10
10.4043653809
 20
32.6726680192
 30
0.0
 40
0.0393700787401574
100
AcDbArc
 50
90.0
 51
180.0
  0
LINE
  5
150
330
1F
100
AcDbEntity
  8
0
  6
Continuous
 62
   144
370
    18
100
AcDbLine
 10
39.120900814
 20
55.4640066019
 30
0.0
 11
39.120900814
 21
55.430337384
 31
0.0
  0
ARC
  5
151
330
1F
100
AcDbEntity
  8
0
  6
Continuous
 62
   144
370
    18
100
AcDbCircle
 10
10.3368229231
 20
32.484276435
 30
0.0
 40
0.3317455626451916
100
AcDbArc
 50
87.6505002354
 51
91.3555614149
  0
LWPOLYLINE
  5
152
330
1F
100
AcDbEntity
  8
0
  6
Continuous
 62
   144
370
    18
100
AcDbPolyline
 90
        3
 70
   128
 43
0.0
 10
10.7547349434
 20
32.820932385
 10
10.6780994513
 20
32.8195900989
 10
10.3504228375
 20
32.8157431161
  0
LWPOLYLINE
  5
153
330
1F
100
AcDbEntity
  8
0
  6
Continuous
 62
   144
370
    18
100
AcDbPolyline
 90
        3
 70
   128
 43
0.0
 10
10.7788995294
 20
32.822972594
 10
10.759180434
 20
32.8214817822
 10
10.7547349434
 20
32.820932385
  0
LWPOLYLINE
  5
154
330
1F
100
AcDbEntity
  8
0
  6
Continuous
 62
   144
370
    18
100
AcDbPolyline
 90
        3
 70
   128
 43
0.0
 10
10.8147587545
 20
32.8234746377
 10
10.796683111
 20
32.8231579951
 10
10.7788995294
 20
32.822972594
  0
LWPOLYLINE
  5
155
330
1F
100
AcDbEntity
  8
0
  6
Continuous
 62
   144
370
    18
100
AcDbPolyline
 90
        3
 70
   128
 43
0.0
 10
10.8433537837
 20
32.824598789
 10
10.8215275574
 20
32.8238835292
 10
10.8147587545
 20
32.8234746377
  0
LWPOLYLINE
  5
156
330
1F
100
AcDbEntity
  8
0
  6
Continuous
 62
   144
370
    18
100
AcDbPolyline
 90
        3
 70
   128
 43
0.0
 10
10.9004283731
 20
32.8246615558
 10
10.8706694204
 20
32.8247200342
 10
10.8433537837
 20
32.824598789
  0
LINE
  5
157
330
1F
100
AcDbEntity
  8
0
  6
Continuous
 62
   144
370
    18
100
AcDbLine
 10
10.9004283731
 20
32.7884521496
 30
0.0
 11
10.9004283731
 21
32.8246615558
 31
0.0
  0
LWPOLYLINE
  5
158
330
1F
100
AcDbEntity
  8
0
  6
Continuous
 62
   144
370
    18
100
AcDbPolyline
 90
       15
 70
   128
 43
0.0
 10
10.3650118957
 20
32.7884521497
 10
10.3650112276
 20
32.7884521497
 10
10.3649487683
 20
32.7884521343
 10
10.3660343787
 20
32.7884538233
 10
10.3707759459
 20
32.7884589546
 10
10.3965137566
 20
32.7884519639
 10
10.4172572248
 20
32.788452131
 10
10.5028539866
 20
32.7884521494
 10
10.6854432752
 20
32.7884521478
 10
10.7733353539
 20
32.7884516227
 10
10.8156284347
 20
32.7884511351
 10
10.8425846108
 20
32.7884517509
 10
10.8687939495
 20
32.7884517059
 10
10.8949177974
 20
32.7884521423
 10
10.9004283731
 20
32.7884521496
  0
LINE
  5
159
330
1F
100
AcDbEntity
  8
0
  6
Continuous
 62
   144
370
    18
100
AcDbLine
 10
10.3289743048
 20
32.8159100436
 30
0.0
 11
10.3638743671
 21
32.7893180385
 31
0.0
  0
LWPOLYLINE
  5
15A
330
1F
100
AcDbEntity
  8
0
  6
Continuous
 62
   144
370
    18
100
AcDbPolyline
 90
        8
 70
   128
 43
0.0
 10
10.3289748838
 20
32.8159291549
 10
10.3289742299
 20
32.8159114779
 10
10.3289743004
 20
32.8159101293
 10
10.3289743048
 20
32.8159100436
 10
10.3289743048
 20
32.8159100436
 10
10.3289743048
 20
32.8159100436
 10
10.3289743048
 20
32.8159100436
 10
10.3289743048
 20
32.8159100436
  0
LINE
  5
15B
330
1F
100
AcDbEntity
  8
0
  6
Continuous
 62
   144
370
    18
100
AcDbLine
 10
10.4831055384
 20
32.8227200804
 30
0.0
 11
10.4831055384
 21
32.817300835
 31
0.0
  0
LINE
  5
15C
330
1F
100
AcDbEntity
  8
0
  6
Continuous
 62
   144
370
    18
100
AcDbLine
 10
10.9004283731
 20
34.0663688066
 30
0.0
 11
10.9083023888
 21
34.0663688066
 31
0.0
  0
LINE
  5
15D
330
1F
100
AcDbEntity
  8
0
  6
Continuous
 62
     7
370
    25
100
AcDbLine
 10
39.5031382619
 20
32.7868412475
 30
0.0
 11
39.4909795542
 21
32.7868412475
 31
0.0
  0
LINE
  5
15E
330
1F
100
AcDbEntity
  8
0
  6
Continuous
 62
   144
370
    18
100
AcDbLine
 10
39.4909795542
 20
32.7947152633
 30
0.0
 11
39.5031382619
 21
32.7947152633
 31
0.0
  0
ARC
  5
15F
330
1F
100
AcDbEntity
  8
0
  6
Continuous
 62
   144
370
    18
100
AcDbCircle
 10
40.0624590199
 20
34.3886186585
 30
0.0
 40
0.3317455626531839
100
AcDbArc
 50
267.6505002355
 51
271.3555614149
  0
LWPOLYLINE
  5
160
330
1F
100
AcDbEntity
  8
0
  6
Continuous
 62
   144
370
    18
100
AcDbPolyline
 90
        3
 70
   128
 43
0.0
 10
39.6445469996
 20
34.0519627085
 10
39.7211824917
 20
34.0533049946
 10
40.0488591054
 20
34.0571519774
  0
LWPOLYLINE
  5
161
330
1F
100
AcDbEntity
  8
0
  6
Continuous
 62
   144
370
    18
100
AcDbPolyline
 90
        3
 70
   128
 43
0.0
 10
39.6203824136
 20
34.0499224995
 10
39.6401015089
 20
34.0514133113
 10
39.6445469996
 20
34.0519627085
  0
LWPOLYLINE
  5
162
330
1F
100
AcDbEntity
  8
0
  6
Continuous
 62
   144
370
    18
100
AcDbPolyline
 90
        3
 70
   128
 43
0.0
 10
39.5845231885
 20
34.0494204558
 10
39.602598832
 20
34.0497370984
 10
39.6203824136
 20
34.0499224995
  0
LWPOLYLINE
  5
163
330
1F
100
AcDbEntity
  8
0
  6
Continuous
 62
   144
370
    18
100
AcDbPolyline
 90
        3
 70
   128
 43
0.0
 10
39.5559281593
 20
34.0482963045
 10
39.5777543856
 20
34.0490115643
 10
39.5845231885
 20
34.0494204558
  0
LWPOLYLINE
  5
164
330
1F
100
AcDbEntity
  8
0
  6
Continuous
 62
   144
370
    18
100
AcDbPolyline
 90
        3
 70
   128
 43
0.0
 10
39.4988535699
 20
34.0482335377
 10
39.5286125226
 20
34.0481750593
 10
39.5559281593
 20
34.0482963045
  0
LINE
  5
165
330
1F
100
AcDbEntity
  8
0
  6
Continuous
 62
   144
370
    18
100
AcDbLine
 10
39.4988535699
 20
34.0844429439
 30
0.0
 11
39.4988535699
 21
34.0482335377
 31
0.0
  0
LWPOLYLINE
  5
166
330
1F
100
AcDbEntity
  8
0
  6
Continuous
 62
   144
370
    18
100
AcDbPolyline
 90
       15
 70
   128
 43
0.0
 10
40.0342700473
 20
34.0844429438
 10
40.0342707154
 20
34.0844429438
 10
40.0343331747
 20
34.0844429592
 10
40.0332475642
 20
34.0844412702
 10
40.0285059971
 20
34.0844361389
 10
40.0027681864
 20
34.0844431296
 10
39.9820247182
 20
34.0844429625
 10
39.8964279564
 20
34.0844429441
 10
39.7138386678
 20
34.0844429457
 10
39.625946589
 20
34.0844434708
 10
39.5836535083
 20
34.0844439584
 10
39.5566973321
 20
34.0844433426
 10
39.5304879935
 20
34.0844433876
 10
39.5043641456
 20
34.0844429512
 10
39.4988535699
 20
34.0844429439
  0
LINE
  5
167
330
1F
100
AcDbEntity
  8
0
  6
Continuous
 62
   144
370
    18
100
AcDbLine
 10
40.0702735072
 20
34.0570110559
 30
0.0
 11
40.0354075753
 21
34.0835770554
 31
0.0
  0
LWPOLYLINE
  5
168
330
1F
100
AcDbEntity
  8
0
  6
Continuous
 62
   144
370
    18
100
AcDbPolyline
 90
        4
 70
   128
 43
0.0
 10
10.8433767195
 20
32.8285983817
 10
10.8706730503
 20
32.8287187939
 10
10.8979683862
 20
32.8286607358
 10
10.9004283731
 20
32.8286597311
  0
ARC
  5
169
330
1F
100
AcDbEntity
  8
0
  6
Continuous
 62
     7
370
    25
100
AcDbCircle
 10
-15.9223304611
 20
33.4127166399
 30
0.0
 40
26.7720801398904
100
AcDbArc
 50
358.7498107505
 51
0.0507872746
  0
ARC
  5
16A
330
1F
100
AcDbEntity
  8
0
  6
Continuous
 62
     7
370
    25
100
AcDbCircle
 10
-15.9223304611
 20
33.4601784536
 30
0.0
 40
26.77208013990221
100
AcDbArc
 50
359.9492127254
 51
1.2501892495
  0
ARC
  5
16B
330
1F
100
AcDbEntity
  8
0
  6
Continuous
 62
   144
370
    18
100
AcDbCircle
 10
10.8841916004
 20
45.4724226126
 30
0.0
 40
11.4281987845736
100
AcDbArc
 50
269.7953723562
 51
270.0814038043
  0
LINE
  5
16C
330
1F
100
AcDbEntity
  8
0
  6
Continuous
 62
   144
370
    18
100
AcDbLine
 10
10.9004283731
 20
32.8286597311
 30
0.0
 11
10.9004283731
 21
34.0442353624
 31
0.0
  0
ARC
  5
16D
330
1F
100
AcDbEntity
  8
0
  6
Continuous
 62
     7
370
    25
100
AcDbCircle
 10
-40.6855167871
 20
33.4130224593
 30
0.0
 40
51.50215969187241
100
AcDbArc
 50
359.3488141074
 51
0.0260602409
  0
LINE
  5
16E
330
1F
100
AcDbEntity
  8
0
  6
Continuous
 62
     7
370
    25
100
AcDbLine
 10
10.8166375775
 20
33.4364475467
 30
0.0
 11
10.8497391612
 21
33.4364475467
 31
0.0
  0
LWPOLYLINE
  5
16F
330
1F
100
AcDbEntity
  8
0
  6
Continuous
 62
   144
370
    18
100
AcDbPolyline
 90
        3
 70
   128
 43
0.0
 10
10.8133166503
 20
32.8276956149
 10
10.8204291318
 20
32.8280190661
 10
10.8433767195
 20
32.8285983817
  0
ARC
  5
170
330
1F
100
AcDbEntity
  8
0
  6
Continuous
 62
     7
370
    25
100
AcDbCircle
 10
-46.4319248073
 20
33.4285242284
 30
0.0
 40
57.24856293308851
100
AcDbArc
 50
0.0079298533
 51
0.6171957984
  0
LWPOLYLINE
  5
171
330
1F
100
AcDbEntity
  8
0
  6
Continuous
 62
   144
370
    18
100
AcDbPolyline
 90
        3
 70
   128
 43
0.0
 10
10.8433767195
 20
34.0442967118
 10
10.8204291318
 20
34.0448760274
 10
10.8133166503
 20
34.0451994786
  0
LINE
  5
172
330
1F
100
AcDbEntity
  8
0
  6
Continuous
 62
     7
370
    25
100
AcDbLine
 10
10.7786598014
 20
33.4364475467
 30
0.0
 11
10.8166375775
 21
33.4364475467
 31
0.0
  0
ARC
  5
173
330
1F
100
AcDbEntity
  8
0
  6
Continuous
 62
     7
370
    25
100
AcDbCircle
 10
-201.7348001916
 20
33.4338358062
 30
0.0
 40
212.5134600091353
100
AcDbArc
 50
0.0007041642
 51
0.1649571124
  0
LWPOLYLINE
  5
174
330
1F
100
AcDbEntity
  8
0
  6
Continuous
 62
   144
370
    18
100
AcDbPolyline
 90
        3
 70
   128
 43
0.0
 10
10.8133166503
 20
34.0451994786
 10
10.795562501
 20
34.0455011771
 10
10.7777790668
 20
34.0456707193
  0
LINE
  5
175
330
1F
100
AcDbEntity
  8
0
  6
Continuous
 62
     7
370
    25
100
AcDbLine
 10
10.7516923738
 20
33.4364475467
 30
0.0
 11
10.7786598014
 21
33.4364475467
 31
0.0
  0
ARC
  5
176
330
1F
100
AcDbEntity
  8
0
  6
Continuous
 62
     7
370
    25
100
AcDbCircle
 10
267.184150326
 20
33.5107217302
 30
0.0
 40
256.4324687086367
100
AcDbArc
 50
179.8801289629
 51
180.0165953814
  0
LWPOLYLINE
  5
177
330
1F
100
AcDbEntity
  8
0
  6
Continuous
 62
   144
370
    18
100
AcDbPolyline
 90
        3
 70
   128
 43
0.0
 10
10.7777790668
 20
34.0456707193
 10
10.7568728258
 20
34.0467883771
 10
10.7522428282
 20
34.0472150602
  0
ARC
  5
178
330
1F
100
AcDbEntity
  8
0
  6
Continuous
 62
     7
370
    25
100
AcDbCircle
 10
-236.6994720425
 20
33.4896066074
 30
0.0
 40
247.4781375533379
100
AcDbArc
 50
359.8466460429
 51
359.9876926805
  0
LWPOLYLINE
  5
179
330
1F
100
AcDbEntity
  8
0
  6
Continuous
 62
   144
370
    18
100
AcDbPolyline
 90
        3
 70
   128
 43
0.0
 10
10.7777790668
 20
32.8272243742
 10
10.795562501
 20
32.8273939164
 10
10.8133166503
 20
32.8276956149
  0
ARC
  5
17A
330
1F
100
AcDbEntity
  8
0
  6
Continuous
 62
     7
370
    25
100
AcDbCircle
 10
267.133790204
 20
33.3621279762
 30
0.0
 40
256.3821086019978
100
AcDbArc
 50
179.9833912158
 51
180.1198844399
  0
LWPOLYLINE
  5
17B
330
1F
100
AcDbEntity
  8
0
  6
Continuous
 62
   144
370
    18
100
AcDbPolyline
 90
        3
 70
   128
 43
0.0
 10
10.7522428282
 20
32.8256800333
 10
10.7568728258
 20
32.8261067164
 10
10.7777790668
 20
32.8272243742
  0
LWPOLYLINE
  5
17C
330
1F
100
AcDbEntity
  8
0
  6
Continuous
 62
     7
370
    25
100
AcDbPolyline
 90
        3
 70
   128
 43
0.0
 10
10.34830336
 20
34.0512469102
 10
10.3285483381
 20
33.4364480147
 10
10.34830336
 20
32.8216481833
  0
ARC
  5
17D
330
1F
100
AcDbEntity
  8
0
  6
Continuous
 62
   144
370
    18
100
AcDbCircle
 10
10.0834191721
 20
-12.7235226058
 30
0.0
 40
46.77551952574593
100
AcDbArc
 50
89.1807236131
 51
89.6755391005
  0
ARC
  5
17E
330
1F
100
AcDbEntity
  8
0
  6
Continuous
 62
   144
370
    18
100
AcDbCircle
 10
10.0834174264
 20
79.5965926049
 30
0.0
 40
46.77569443850209
100
AcDbArc
 50
270.3244618246
 51
270.8192754617
  0
LWPOLYLINE
  5
17F
330
1F
100
AcDbEntity
  8
0
  6
Continuous
 62
     7
370
    25
100
AcDbPolyline
 90
        3
 70
   128
 43
0.0
 10
10.3258821625
 20
32.8217817752
 10
10.309877192
 20
33.436448015
 10
10.3258821625
 20
34.0511133183
  0
ARC
  5
180
330
1F
100
AcDbEntity
  8
0
  6
Continuous
 62
   144
370
    18
100
AcDbCircle
 10
10.3336551629
 20
34.6281242927
 30
0.0
 40
0.5770633276850288
100
AcDbArc
 50
269.2282067407
 51
271.4545544436
  0
ARC
  5
181
330
1F
100
AcDbEntity
  8
0
  6
Continuous
 62
   144
370
    18
100
AcDbCircle
 10
10.3336551629
 20
32.2447708008
 30
0.0
 40
0.5770633276860732
100
AcDbArc
 50
88.5454455564
 51
90.7717932593
  0
LINE
  5
182
330
1F
100
AcDbEntity
  8
0
  6
Continuous
 62
   144
370
    18
100
AcDbLine
 10
10.3258821625
 20
34.0511133183
 30
0.0
 11
10.325882215
 21
34.0511143258
 31
0.0
  0
LINE
  5
183
330
1F
100
AcDbEntity
  8
0
  6
Continuous
 62
   144
370
    18
100
AcDbLine
 10
10.325882215
 20
32.8217807677
 30
0.0
 11
10.3258821625
 21
32.8217817752
 31
0.0
  0
LINE
  5
184
330
1F
100
AcDbEntity
  8
0
  6
Continuous
 62
   144
370
    18
100
AcDbLine
 10
10.4673575069
 20
34.0557791432
 30
0.0
 11
10.4673575069
 21
34.0503002334
 31
0.0
  0
LINE
  5
185
330
1F
100
AcDbEntity
  8
0
  6
Continuous
 62
   144
370
    18
100
AcDbLine
 10
10.4673575069
 20
32.8225948579
 30
0.0
 11
10.4673575069
 21
32.8171159503
 31
0.0
  0
LINE
  5
186
330
1F
100
AcDbEntity
  8
0
  6
Continuous
 62
   144
370
    18
100
AcDbLine
 10
10.3615027661
 20
32.8158731964
 30
0.0
 11
10.3538654723
 21
32.8216924112
 31
0.0
  0
LINE
  5
187
330
1F
100
AcDbEntity
  8
0
  6
Continuous
 62
   144
370
    18
100
AcDbLine
 10
10.3538654722
 20
34.0512026822
 30
0.0
 11
10.3615027661
 21
34.057021897
 31
0.0
  0
LINE
  5
188
330
1F
100
AcDbEntity
  8
0
  6
Continuous
 62
   144
370
    18
100
AcDbLine
 10
39.9161764046
 20
32.817300835
 30
0.0
 11
39.9161764046
 21
32.8227200829
 31
0.0
  0
LINE
  5
189
330
1F
100
AcDbEntity
  8
0
  6
Continuous
 62
   144
370
    18
100
AcDbLine
 10
39.9161764046
 20
34.0501750131
 30
0.0
 11
39.9161764046
 21
34.0555942585
 31
0.0
  0
LINE
  5
18A
330
1F
100
AcDbEntity
  8
0
  6
Continuous
 62
   144
370
    18
100
AcDbLine
 10
39.4909795542
 20
34.0663688066
 30
0.0
 11
39.4988535699
 21
34.0663688066
 31
0.0
  0
LINE
  5
18B
330
1F
100
AcDbEntity
  8
0
  6
Continuous
 62
   144
370
    18
100
AcDbLine
 10
40.0736567195
 20
55.3498333735
 30
0.0
 11
40.0736567195
 21
55.3636129011
 31
0.0
  0
LINE
  5
18C
330
1F
100
AcDbEntity
  8
0
  6
Continuous
 62
   144
370
    18
100
AcDbLine
 10
39.994916562
 20
55.428573531
 30
0.0
 11
39.994916562
 21
55.4423530586
 31
0.0
  0
LINE
  5
18D
330
1F
100
AcDbEntity
  8
0
  6
Continuous
 62
   144
370
    18
100
AcDbLine
 10
39.278381129
 20
55.4423530586
 30
0.0
 11
39.278381129
 21
55.428573531
 31
0.0
  0
LINE
  5
18E
330
1F
100
AcDbEntity
  8
0
  6
Continuous
 62
   144
370
    18
100
AcDbLine
 10
39.994916562
 20
55.4423530586
 30
0.0
 11
39.278381129
 21
55.4423530586
 31
0.0
  0
LINE
  5
18F
330
1F
100
AcDbEntity
  8
0
  6
Continuous
 62
   144
370
    18
100
AcDbLine
 10
40.0736567195
 20
55.3636129011
 30
0.0
 11
40.0317964715
 21
55.3636129011
 31
0.0
  0
LINE
  5
190
330
1F
100
AcDbEntity
  8
0
  6
Continuous
 62
     7
370
    25
100
AcDbLine
 10
11.6642079006
 20
11.7041640822
 30
0.0
 11
11.6642079006
 21
11.7553451845
 31
0.0
  0
LINE
  5
191
330
1F
100
AcDbEntity
  8
0
  6
Continuous
 62
   144
370
    18
100
AcDbLine
 10
11.6642079006
 20
11.1914656698
 30
0.0
 11
11.6642079006
 21
11.4049514838
 31
0.0
  0
LINE
  5
192
330
1F
100
AcDbEntity
  8
0
  6
Continuous
 62
   144
370
    18
100
AcDbLine
 10
11.6642079006
 20
10.9561325861
 30
0.0
 11
11.6642079006
 21
11.1914656698
 31
0.0
  0
LINE
  5
193
330
1F
100
AcDbEntity
  8
0
  6
Continuous
 62
   144
370
    18
100
AcDbLine
 10
12.0382236487
 20
11.7435341609
 30
0.0
 11
12.0382236487
 21
11.7187730511
 31
0.0
  0
LINE
  5
194
330
1F
100
AcDbEntity
  8
0
  6
Continuous
 62
   144
370
    18
100
AcDbLine
 10
12.0382236487
 20
11.7435341609
 30
0.0
 11
12.0382236487
 21
11.7553451845
 31
0.0
  0
LINE
  5
195
330
1F
100
AcDbEntity
  8
0
  6
Continuous
 62
   144
370
    18
100
AcDbLine
 10
11.9874862407
 20
11.7187730511
 30
0.0
 11
11.9874862407
 21
11.7553451845
 31
0.0
  0
LINE
  5
196
330
1F
100
AcDbEntity
  8
0
  6
Continuous
 62
   144
370
    18
100
AcDbLine
 10
11.9874862407
 20
11.7187730511
 30
0.0
 11
12.0382236487
 21
11.7187730511
 31
0.0
  0
LINE
  5
197
330
1F
100
AcDbEntity
  8
0
  6
Continuous
 62
   144
370
    18
100
AcDbLine
 10
11.7218640461
 20
11.7553451845
 30
0.0
 11
11.7218640461
 21
11.7041640822
 31
0.0
  0
LINE
  5
198
330
1F
100
AcDbEntity
  8
0
  6
Continuous
 62
   144
370
    18
100
AcDbLine
 10
11.7586960896
 20
11.0506207751
 30
0.0
 11
11.7586960896
 21
11.4049514838
 31
0.0
  0
LINE
  5
199
330
1F
100
AcDbEntity
  8
0
  6
Continuous
 62
   144
370
    18
100
AcDbLine
 10
11.7586960896
 20
11.7041640822
 30
0.0
 11
11.7586960896
 21
11.7553451845
 31
0.0
  0
LINE
  5
19A
330
1F
100
AcDbEntity
  8
0
  6
Continuous
 62
   144
370
    18
100
AcDbLine
 10
11.7232630187
 20
11.2533766806
 30
0.0
 11
11.7232630187
 21
11.1313294365
 31
0.0
  0
LINE
  5
19B
330
1F
100
AcDbEntity
  8
0
  6
Continuous
 62
   144
370
    18
100
AcDbLine
 10
11.7218640461
 20
11.0022575025
 30
0.0
 11
11.6881269899
 21
10.9752678576
 31
0.0
  0
LINE
  5
19C
330
1F
100
AcDbEntity
  8
0
  6
Continuous
 62
   144
370
    18
100
AcDbLine
 10
11.7425523689
 20
11.0229458253
 30
0.0
 11
11.7218640461
 21
11.0022575025
 31
0.0
  0
LINE
  5
19D
330
1F
100
AcDbEntity
  8
0
  6
Continuous
 62
   144
370
    18
100
AcDbLine
 10
11.7586960896
 20
11.0506207751
 30
0.0
 11
11.7425523689
 21
11.0229458253
 31
0.0
  0
LINE
  5
19E
330
1F
100
AcDbEntity
  8
0
  6
Continuous
 62
   144
370
    18
100
AcDbLine
 10
11.7086935687
 20
10.9890870251
 30
0.0
 11
11.7218640461
 21
11.0022575025
 31
0.0
  0
ARC
  5
19F
330
1F
100
AcDbEntity
  8
0
  6
Continuous
 62
   144
370
    18
100
AcDbCircle
 10
11.809365608
 20
10.9561325861
 30
0.0
 40
0.0944881889763942
100
AcDbArc
 50
132.2753352532
 51
135.0
  0
CIRCLE
  5
1A0
330
1F
100
AcDbEntity
  8
0
  6
Continuous
 62
   144
370
    18
100
AcDbCircle
 10
12.0106645935
 20
11.1766050271
 30
0.0
 40
0.0846456692913389
  0
ARC
  5
1A1
330
1F
100
AcDbEntity
  8
0
  6
Continuous
 62
   144
370
    18
100
AcDbCircle
 10
12.1957039636
 20
11.0348727436
 30
0.0
 40
0.0787401574803148
100
AcDbArc
 50
270.0
 51
0.0
  0
LINE
  5
1A2
330
1F
100
AcDbEntity
  8
0
  6
Continuous
 62
   144
370
    18
100
AcDbLine
 10
12.2744441211
 20
11.7553451845
 30
0.0
 11
12.2744441211
 21
11.6451089641
 31
0.0
  0
LINE
  5
1A3
330
1F
100
AcDbEntity
  8
0
  6
Continuous
 62
   144
370
    18
100
AcDbLine
 10
12.2744441211
 20
11.4049514838
 30
0.0
 11
12.2744441211
 21
11.0348727436
 31
0.0
  0
LINE
  5
1A4
330
1F
100
AcDbEntity
  8
0
  6
Continuous
 62
   144
370
    18
100
AcDbLine
 10
12.0618456959
 20
11.7187730511
 30
0.0
 11
12.0618456959
 21
11.7435341609
 31
0.0
  0
LINE
  5
1A5
330
1F
100
AcDbEntity
  8
0
  6
Continuous
 62
   144
370
    18
100
AcDbLine
 10
12.0618456959
 20
11.7553451845
 30
0.0
 11
12.0618456959
 21
11.7435341609
 31
0.0
  0
LINE
  5
1A6
330
1F
100
AcDbEntity
  8
0
  6
Continuous
 62
   144
370
    18
100
AcDbLine
 10
11.7823181368
 20
11.7553451845
 30
0.0
 11
11.7823181368
 21
11.7041640822
 31
0.0
  0
LINE
  5
1A7
330
1F
100
AcDbEntity
  8
0
  6
Continuous
 62
   144
370
    18
100
AcDbLine
 10
11.7823181368
 20
11.4049514838
 30
0.0
 11
11.7823181368
 21
11.0506207751
 31
0.0
  0
LINE
  5
1A8
330
1F
100
AcDbEntity
  8
0
  6
Continuous
 62
     7
370
    25
100
AcDbLine
 10
11.6642079006
 20
34.1303162109
 30
0.0
 11
11.6642079006
 21
34.460069594
 31
0.0
  0
LINE
  5
1A9
330
1F
100
AcDbEntity
  8
0
  6
Continuous
 62
   144
370
    18
100
AcDbLine
 10
11.6642079006
 20
34.086053846
 30
0.0
 11
11.6642079006
 21
34.1303162109
 31
0.0
  0
LINE
  5
1AA
330
1F
100
AcDbEntity
  8
0
  6
Continuous
 62
   144
370
    18
100
AcDbLine
 10
12.0382236487
 20
34.4206995152
 30
0.0
 11
12.0382236487
 21
34.3959384055
 31
0.0
  0
LINE
  5
1AB
330
1F
100
AcDbEntity
  8
0
  6
Continuous
 62
   144
370
    18
100
AcDbLine
 10
12.0382236487
 20
34.4206995152
 30
0.0
 11
12.0382236487
 21
34.460069594
 31
0.0
  0
LINE
  5
1AC
330
1F
100
AcDbEntity
  8
0
  6
Continuous
 62
   144
370
    18
100
AcDbLine
 10
11.9874862407
 20
34.3959384055
 30
0.0
 11
11.9874862407
 21
34.460069594
 31
0.0
  0
LINE
  5
1AD
330
1F
100
AcDbEntity
  8
0
  6
Continuous
 62
   144
370
    18
100
AcDbLine
 10
11.9874862407
 20
34.3959384055
 30
0.0
 11
12.0382236487
 21
34.3959384055
 31
0.0
  0
LINE
  5
1AE
330
1F
100
AcDbEntity
  8
0
  6
Continuous
 62
   144
370
    18
100
AcDbLine
 10
11.7218640461
 20
34.460069594
 30
0.0
 11
11.7218640461
 21
34.1303162109
 31
0.0
  0
LINE
  5
1AF
330
1F
100
AcDbEntity
  8
0
  6
Continuous
 62
   144
370
    18
100
AcDbLine
 10
11.6642079006
 20
34.1303162109
 30
0.0
 11
11.7218640461
 21
34.1303162109
 31
0.0
  0
LINE
  5
1B0
330
1F
100
AcDbEntity
  8
0
  6
Continuous
 62
   144
370
    18
100
AcDbLine
 10
11.6872703588
 20
34.086053846
 30
0.0
 11
11.6872703588
 21
34.1303162109
 31
0.0
  0
LINE
  5
1B1
330
1F
100
AcDbEntity
  8
0
  6
Continuous
 62
     7
370
    25
100
AcDbLine
 10
11.7586960896
 20
34.1671482544
 30
0.0
 11
11.7586960896
 21
34.460069594
 31
0.0
  0
LINE
  5
1B2
330
1F
100
AcDbEntity
  8
0
  6
Continuous
 62
   144
370
    18
100
AcDbLine
 10
11.6878299479
 20
34.1303162109
 30
0.0
 11
11.6878299479
 21
34.086053846
 31
0.0
  0
LINE
  5
1B3
330
1F
100
AcDbEntity
  8
0
  6
Continuous
 62
   144
370
    18
100
AcDbLine
 10
12.2744441211
 20
34.460069594
 30
0.0
 11
12.2744441211
 21
34.086053846
 31
0.0
  0
LINE
  5
1B4
330
1F
100
AcDbEntity
  8
0
  6
Continuous
 62
   144
370
    18
100
AcDbLine
 10
11.7823181368
 20
34.460069594
 30
0.0
 11
11.7823181368
 21
34.1907703017
 31
0.0
  0
LINE
  5
1B5
330
1F
100
AcDbEntity
  8
0
  6
Continuous
 62
   144
370
    18
100
AcDbLine
 10
11.8000926196
 20
34.086053846
 30
0.0
 11
11.9874862407
 21
34.273447467
 31
0.0
  0
ARC
  5
1B6
330
1F
100
AcDbEntity
  8
0
  6
Continuous
 62
   144
370
    18
100
AcDbCircle
 10
11.8995521465
 20
34.3346929362
 30
0.0
 40
0.1071606850543282
100
AcDbArc
 50
325.1430638682
 51
34.8569361318
  0
LINE
  5
1B7
330
1F
100
AcDbEntity
  8
0
  6
Continuous
 62
   144
370
    18
100
AcDbLine
 10
11.7218640461
 20
34.1303162109
 30
0.0
 11
11.9874862407
 21
34.3959384055
 31
0.0
  0
ELLIPSE
  5
1B8
330
1F
100
AcDbEntity
  8
0
  6
Continuous
 62
   144
370
    18
100
AcDbEllipse
 10
11.8610582943
 20
34.3920013976
 30
0.0
 11
0.1547452846836776
 21
0.3921169644935958
 31
0.0
210
0.0
220
0.0
230
1.0
 40
0.1107905585
 41
2.344301104053
 42
2.50835964508301
  0
LINE
  5
1B9
330
1F
100
AcDbEntity
  8
0
  6
Continuous
 62
   144
370
    18
100
AcDbLine
 10
12.0618456959
 20
34.460069594
 30
0.0
 11
12.0618456959
 21
34.4206995152
 31
0.0
  0
LINE
  5
1BA
330
1F
100
AcDbEntity
  8
0
  6
Continuous
 62
   144
370
    18
100
AcDbLine
 10
12.0618456959
 20
34.3959384055
 30
0.0
 11
12.0618456959
 21
34.4206995152
 31
0.0
  0
LINE
  5
1BB
330
1F
100
AcDbEntity
  8
0
  6
Continuous
 62
   144
370
    18
100
AcDbLine
 10
38.7114519951
 20
11.1914656698
 30
0.0
 11
38.7114519951
 21
11.4049514838
 31
0.0
  0
LINE
  5
1BC
330
1F
100
AcDbEntity
  8
0
  6
Continuous
 62
   144
370
    18
100
AcDbLine
 10
38.7114519951
 20
11.1914656698
 30
0.0
 11
38.7114519951
 21
10.9561325861
 31
0.0
  0
LINE
  5
1BD
330
1F
100
AcDbEntity
  8
0
  6
Continuous
 62
     7
370
    25
100
AcDbLine
 10
38.7350740424
 20
11.7553451845
 30
0.0
 11
38.7350740424
 21
11.7041640822
 31
0.0
  0
LINE
  5
1BE
330
1F
100
AcDbEntity
  8
0
  6
Continuous
 62
   144
370
    18
100
AcDbLine
 10
38.7350740424
 20
11.4049514838
 30
0.0
 11
38.7350740424
 21
11.1914656698
 31
0.0
  0
LINE
  5
1BF
330
1F
100
AcDbEntity
  8
0
  6
Continuous
 62
   144
370
    18
100
AcDbLine
 10
38.7350740424
 20
11.1914656698
 30
0.0
 11
38.7350740424
 21
10.9561325861
 31
0.0
  0
LINE
  5
1C0
330
1F
100
AcDbEntity
  8
0
  6
Continuous
 62
   144
370
    18
100
AcDbLine
 10
38.3610582943
 20
11.7553451845
 30
0.0
 11
38.3610582943
 21
11.7435341609
 31
0.0
  0
LINE
  5
1C1
330
1F
100
AcDbEntity
  8
0
  6
Continuous
 62
   144
370
    18
100
AcDbLine
 10
38.3610582943
 20
11.7187730511
 30
0.0
 11
38.3610582943
 21
11.7435341609
 31
0.0
  0
LINE
  5
1C2
330
1F
100
AcDbEntity
  8
0
  6
Continuous
 62
   144
370
    18
100
AcDbLine
 10
38.3610582943
 20
11.7187730511
 30
0.0
 11
38.4117957023
 21
11.7187730511
 31
0.0
  0
LINE
  5
1C3
330
1F
100
AcDbEntity
  8
0
  6
Continuous
 62
   144
370
    18
100
AcDbLine
 10
38.4117957023
 20
11.7553451845
 30
0.0
 11
38.4117957023
 21
11.7187730511
 31
0.0
  0
LINE
  5
1C4
330
1F
100
AcDbEntity
  8
0
  6
Continuous
 62
   144
370
    18
100
AcDbLine
 10
38.6774178969
 20
11.7041640822
 30
0.0
 11
38.6774178969
 21
11.7553451845
 31
0.0
  0
LINE
  5
1C5
330
1F
100
AcDbEntity
  8
0
  6
Continuous
 62
     7
370
    25
100
AcDbLine
 10
38.6405858534
 20
11.7553451845
 30
0.0
 11
38.6405858534
 21
11.7041640822
 31
0.0
  0
LINE
  5
1C6
330
1F
100
AcDbEntity
  8
0
  6
Continuous
 62
     7
370
    25
100
AcDbLine
 10
38.6405858534
 20
11.4049514838
 30
0.0
 11
38.6405858534
 21
11.0506207751
 31
0.0
  0
LINE
  5
1C7
330
1F
100
AcDbEntity
  8
0
  6
Continuous
 62
   144
370
    18
100
AcDbLine
 10
38.6760189242
 20
11.1313294365
 30
0.0
 11
38.6760189242
 21
11.2533766806
 31
0.0
  0
LINE
  5
1C8
330
1F
100
AcDbEntity
  8
0
  6
Continuous
 62
   144
370
    18
100
AcDbLine
 10
38.7088882377
 20
10.9770812298
 30
0.0
 11
38.6774178969
 21
11.0022575025
 31
0.0
  0
LINE
  5
1C9
330
1F
100
AcDbEntity
  8
0
  6
Continuous
 62
   144
370
    18
100
AcDbLine
 10
38.6774178969
 20
11.0022575025
 30
0.0
 11
38.6567295741
 21
11.0229458253
 31
0.0
  0
LINE
  5
1CA
330
1F
100
AcDbEntity
  8
0
  6
Continuous
 62
   144
370
    18
100
AcDbLine
 10
38.6567295741
 20
11.0229458253
 30
0.0
 11
38.6405858534
 21
11.0506207751
 31
0.0
  0
LINE
  5
1CB
330
1F
100
AcDbEntity
  8
0
  6
Continuous
 62
   144
370
    18
100
AcDbLine
 10
38.6774178969
 20
11.0022575025
 30
0.0
 11
38.6905883743
 21
10.9890870251
 31
0.0
  0
ARC
  5
1CC
330
1F
100
AcDbEntity
  8
0
  6
Continuous
 62
   144
370
    18
100
AcDbCircle
 10
38.5899163349
 20
10.9561325861
 30
0.0
 40
0.0944881889763954
100
AcDbArc
 50
45.0
 51
47.7246647468
  0
CIRCLE
  5
1CD
330
1F
100
AcDbEntity
  8
0
  6
Continuous
 62
   144
370
    18
100
AcDbCircle
 10
38.3886173494
 20
11.1766050271
 30
0.0
 40
0.0846456692913389
  0
LINE
  5
1CE
330
1F
100
AcDbEntity
  8
0
  6
Continuous
 62
   144
370
    18
100
AcDbLine
 10
38.1248378219
 20
11.0348727436
 30
0.0
 11
38.1248378219
 21
11.4049514838
 31
0.0
  0
LINE
  5
1CF
330
1F
100
AcDbEntity
  8
0
  6
Continuous
 62
   144
370
    18
100
AcDbLine
 10
38.1248378219
 20
11.6451089641
 30
0.0
 11
38.1248378219
 21
11.7553451845
 31
0.0
  0
ARC
  5
1D0
330
1F
100
AcDbEntity
  8
0
  6
Continuous
 62
   144
370
    18
100
AcDbCircle
 10
38.2035779794
 20
11.0348727436
 30
0.0
 40
0.0787401574803184
100
AcDbArc
 50
180.0
 51
270.0
  0
LINE
  5
1D1
330
1F
100
AcDbEntity
  8
0
  6
Continuous
 62
   144
370
    18
100
AcDbLine
 10
38.6169638061
 20
11.0506207751
 30
0.0
 11
38.6169638061
 21
11.4049514838
 31
0.0
  0
LINE
  5
1D2
330
1F
100
AcDbEntity
  8
0
  6
Continuous
 62
   144
370
    18
100
AcDbLine
 10
38.6169638061
 20
11.7041640822
 30
0.0
 11
38.6169638061
 21
11.7553451845
 31
0.0
  0
LINE
  5
1D3
330
1F
100
AcDbEntity
  8
0
  6
Continuous
 62
     7
370
    25
100
AcDbLine
 10
38.7350740424
 20
34.460069594
 30
0.0
 11
38.7350740424
 21
34.1303162109
 31
0.0
  0
LINE
  5
1D4
330
1F
100
AcDbEntity
  8
0
  6
Continuous
 62
   144
370
    18
100
AcDbLine
 10
38.7350740424
 20
34.1303162109
 30
0.0
 11
38.7350740424
 21
34.086053846
 31
0.0
  0
LINE
  5
1D5
330
1F
100
AcDbEntity
  8
0
  6
Continuous
 62
   144
370
    18
100
AcDbLine
 10
38.3610582943
 20
34.460069594
 30
0.0
 11
38.3610582943
 21
34.4206995152
 31
0.0
  0
LINE
  5
1D6
330
1F
100
AcDbEntity
  8
0
  6
Continuous
 62
   144
370
    18
100
AcDbLine
 10
38.3610582943
 20
34.3959384055
 30
0.0
 11
38.3610582943
 21
34.4206995152
 31
0.0
  0
LINE
  5
1D7
330
1F
100
AcDbEntity
  8
0
  6
Continuous
 62
   144
370
    18
100
AcDbLine
 10
38.3610582943
 20
34.3959384055
 30
0.0
 11
38.4117957023
 21
34.3959384055
 31
0.0
  0
LINE
  5
1D8
330
1F
100
AcDbEntity
  8
0
  6
Continuous
 62
   144
370
    18
100
AcDbLine
 10
38.4117957023
 20
34.460069594
 30
0.0
 11
38.4117957023
 21
34.3959384055
 31
0.0
  0
LINE
  5
1D9
330
1F
100
AcDbEntity
  8
0
  6
Continuous
 62
   144
370
    18
100
AcDbLine
 10
38.6774178969
 20
34.1303162109
 30
0.0
 11
38.6774178969
 21
34.460069594
 31
0.0
  0
LINE
  5
1DA
330
1F
100
AcDbEntity
  8
0
  6
Continuous
 62
   144
370
    18
100
AcDbLine
 10
38.6774178969
 20
34.1303162109
 30
0.0
 11
38.7350740424
 21
34.1303162109
 31
0.0
  0
LINE
  5
1DB
330
1F
100
AcDbEntity
  8
0
  6
Continuous
 62
   144
370
    18
100
AcDbLine
 10
38.7120115842
 20
34.1303162109
 30
0.0
 11
38.7120115842
 21
34.086053846
 31
0.0
  0
LINE
  5
1DC
330
1F
100
AcDbEntity
  8
0
  6
Continuous
 62
     7
370
    25
100
AcDbLine
 10
38.6405858534
 20
34.460069594
 30
0.0
 11
38.6405858534
 21
34.1671482544
 31
0.0
  0
LINE
  5
1DD
330
1F
100
AcDbEntity
  8
0
  6
Continuous
 62
   144
370
    18
100
AcDbLine
 10
38.7114519951
 20
34.086053846
 30
0.0
 11
38.7114519951
 21
34.1303162109
 31
0.0
  0
LINE
  5
1DE
330
1F
100
AcDbEntity
  8
0
  6
Continuous
 62
   144
370
    18
100
AcDbLine
 10
38.1248378219
 20
34.086053846
 30
0.0
 11
38.1248378219
 21
34.460069594
 31
0.0
  0
LINE
  5
1DF
330
1F
100
AcDbEntity
  8
0
  6
Continuous
 62
   144
370
    18
100
AcDbLine
 10
38.4117957023
 20
34.273447467
 30
0.0
 11
38.5991893234
 21
34.086053846
 31
0.0
  0
ARC
  5
1E0
330
1F
100
AcDbEntity
  8
0
  6
Continuous
 62
   144
370
    18
100
AcDbCircle
 10
38.4997297965
 20
34.3346929362
 30
0.0
 40
0.1071606850542524
100
AcDbArc
 50
145.1430638682
 51
214.8569361318
  0
ELLIPSE
  5
1E1
330
1F
100
AcDbEntity
  8
0
  6
Continuous
 62
   144
370
    18
100
AcDbEllipse
 10
38.5382236487
 20
34.3920013976
 30
0.0
 11
-0.1547452846836776
 21
0.3921169644935958
 31
0.0
210
0.0
220
0.0
230
1.0
 40
0.1107905585
 41
3.774825662096642
 42
3.938884203126579
  0
LINE
  5
1E2
330
1F
100
AcDbEntity
  8
0
  6
Continuous
 62
   144
370
    18
100
AcDbLine
 10
38.4117957023
 20
34.3959384055
 30
0.0
 11
38.6774178969
 21
34.1303162109
 31
0.0
  0
LINE
  5
1E3
330
1F
100
AcDbEntity
  8
0
  6
Continuous
 62
   144
370
    18
100
AcDbLine
 10
38.6169638061
 20
34.1907703017
 30
0.0
 11
38.6169638061
 21
34.460069594
 31
0.0
  0
LINE
  5
1E4
330
1F
100
AcDbEntity
  8
0
  6
Continuous
 62
     7
370
    25
100
AcDbLine
 10
39.4909795542
 20
56.7213992416
 30
0.0
 11
10.9083023888
 21
56.7213992416
 31
0.0
  0
LINE
  5
1E5
330
1F
100
AcDbEntity
  8
0
  6
Continuous
 62
   144
370
    18
100
AcDbLine
 10
39.4909795542
 20
55.5058265605
 30
0.0
 11
39.4909795542
 21
56.7213992416
 31
0.0
  0
LINE
  5
1E6
330
1F
100
AcDbEntity
  8
0
  6
Continuous
 62
     7
370
    25
100
AcDbLine
 10
10.9083023888
 20
55.5058265605
 30
0.0
 11
39.4909795542
 21
55.5058265605
 31
0.0
  0
LINE
  5
1E7
330
1F
100
AcDbEntity
  8
0
  6
Continuous
 62
   144
370
    18
100
AcDbLine
 10
10.9083023888
 20
56.7213992416
 30
0.0
 11
10.9083023888
 21
55.5058265605
 31
0.0
  0
LINE
  5
1E8
330
1F
100
AcDbEntity
  8
0
  6
Continuous
 62
     7
370
    25
100
AcDbLine
 10
39.4909795542
 20
55.5018289491
 30
0.0
 11
10.9083023888
 21
55.5018289491
 31
0.0
  0
LINE
  5
1E9
330
1F
100
AcDbEntity
  8
0
  6
Continuous
 62
   144
370
    18
100
AcDbLine
 10
10.9083023888
 20
55.5018289491
 30
0.0
 11
10.9083023888
 21
55.5058265605
 31
0.0
  0
LINE
  5
1EA
330
1F
100
AcDbEntity
  8
0
  6
Continuous
 62
   144
370
    18
100
AcDbLine
 10
39.4909795542
 20
55.5058265605
 30
0.0
 11
39.4909795542
 21
55.5018289491
 31
0.0
  0
LINE
  5
1EB
330
1F
100
AcDbEntity
  8
0
  6
Continuous
 62
     7
370
    25
100
AcDbLine
 10
10.9083023888
 20
56.725396853
 30
0.0
 11
39.4909795542
 21
56.725396853
 31
0.0
  0
LINE
  5
1EC
330
1F
100
AcDbEntity
  8
0
  6
Continuous
 62
   144
370
    18
100
AcDbLine
 10
10.9083023888
 20
56.7213992416
 30
0.0
 11
10.9083023888
 21
56.725396853
 31
0.0
  0
LINE
  5
1ED
330
1F
100
AcDbEntity
  8
0
  6
Continuous
 62
   144
370
    18
100
AcDbLine
 10
39.4909795542
 20
56.725396853
 30
0.0
 11
39.4909795542
 21
56.7213992416
 31
0.0
  0
LINE
  5
1EE
330
1F
100
AcDbEntity
  8
0
  6
Continuous
 62
     7
370
    25
100
AcDbLine
 10
10.9083023888
 20
55.4656175039
 30
0.0
 11
39.4909795542
 21
55.4656175039
 31
0.0
  0
LINE
  5
1EF
330
1F
100
AcDbEntity
  8
0
  6
Continuous
 62
   144
370
    18
100
AcDbLine
 10
10.9083023888
 20
55.5018289491
 30
0.0
 11
10.9083023888
 21
55.4656175039
 31
0.0
  0
LINE
  5
1F0
330
1F
100
AcDbEntity
  8
0
  6
Continuous
 62
   144
370
    18
100
AcDbLine
 10
39.4909795542
 20
55.4656175039
 30
0.0
 11
39.4909795542
 21
55.5018289491
 31
0.0
  0
LINE
  5
1F1
330
1F
100
AcDbEntity
  8
0
  6
Continuous
 62
     7
370
    25
100
AcDbLine
 10
39.4909795542
 20
56.7616082983
 30
0.0
 11
10.9083023888
 21
56.7616082983
 31
0.0
  0
LINE
  5
1F2
330
1F
100
AcDbEntity
  8
0
  6
Continuous
 62
   144
370
    18
100
AcDbLine
 10
10.9083023888
 20
56.7616082983
 30
0.0
 11
10.9083023888
 21
56.725396853
 31
0.0
  0
LINE
  5
1F3
330
1F
100
AcDbEntity
  8
0
  6
Continuous
 62
   144
370
    18
100
AcDbLine
 10
39.4909795542
 20
56.725396853
 30
0.0
 11
39.4909795542
 21
56.7616082983
 31
0.0
  0
LINE
  5
1F4
330
1F
100
AcDbEntity
  8
0
  6
Continuous
 62
     7
370
    25
100
AcDbLine
 10
10.9083023888
 20
56.7632192003
 30
0.0
 11
39.4909795542
 21
56.7632192003
 31
0.0
  0
LINE
  5
1F5
330
1F
100
AcDbEntity
  8
0
  6
Continuous
 62
   144
370
    18
100
AcDbLine
 10
10.9083023888
 20
56.7616082983
 30
0.0
 11
10.9083023888
 21
56.7632192003
 31
0.0
  0
LINE
  5
1F6
330
1F
100
AcDbEntity
  8
0
  6
Continuous
 62
   144
370
    18
100
AcDbLine
 10
39.4909795542
 20
56.7632192003
 30
0.0
 11
39.4909795542
 21
56.7616082983
 31
0.0
  0
LINE
  5
1F7
330
1F
100
AcDbEntity
  8
0
  6
Continuous
 62
     7
370
    25
100
AcDbLine
 10
39.4909795542
 20
55.4640066019
 30
0.0
 11
10.9083023888
 21
55.4640066019
 31
0.0
  0
LINE
  5
1F8
330
1F
100
AcDbEntity
  8
0
  6
Continuous
 62
   144
370
    18
100
AcDbLine
 10
10.9083023888
 20
55.4640066019
 30
0.0
 11
10.9083023888
 21
55.4656175039
 31
0.0
  0
LINE
  5
1F9
330
1F
100
AcDbEntity
  8
0
  6
Continuous
 62
   144
370
    18
100
AcDbLine
 10
39.4909795542
 20
55.4656175039
 30
0.0
 11
39.4909795542
 21
55.4640066019
 31
0.0
  0
LINE
  5
1FA
330
1F
100
AcDbEntity
  8
0
  6
Continuous
 62
     7
370
    25
100
AcDbLine
 10
10.9004283731
 20
55.4656175039
 30
0.0
 11
10.9004283731
 21
55.5018269101
 31
0.0
  0
LINE
  5
1FB
330
1F
100
AcDbEntity
  8
0
  6
Continuous
 62
     7
370
    25
100
AcDbLine
 10
10.9004283731
 20
55.5058250854
 30
0.0
 11
10.9004283731
 21
56.7214007167
 31
0.0
  0
LINE
  5
1FC
330
1F
100
AcDbEntity
  8
0
  6
Continuous
 62
     7
370
    25
100
AcDbLine
 10
10.9004283731
 20
56.725398892
 30
0.0
 11
10.9004283731
 21
56.7616082983
 31
0.0
  0
LINE
  5
1FD
330
1F
100
AcDbEntity
  8
0
  6
Continuous
 62
   144
370
    18
100
AcDbLine
 10
10.9004283731
 20
56.7632192003
 30
0.0
 11
10.9004283731
 21
56.7616082983
 31
0.0
  0
LINE
  5
1FE
330
1F
100
AcDbEntity
  8
0
  6
Continuous
 62
   144
370
    18
100
AcDbLine
 10
10.9004283731
 20
56.725398892
 30
0.0
 11
10.9004283731
 21
56.7214007167
 31
0.0
  0
LINE
  5
1FF
330
1F
100
AcDbEntity
  8
0
  6
Continuous
 62
   144
370
    18
100
AcDbLine
 10
10.9004283731
 20
55.5058250854
 30
0.0
 11
10.9004283731
 21
55.5018269101
 31
0.0
  0
LINE
  5
200
330
1F
100
AcDbEntity
  8
0
  6
Continuous
 62
   144
370
    18
100
AcDbLine
 10
10.9004283731
 20
55.4656175039
 30
0.0
 11
10.9004283731
 21
55.4640066019
 31
0.0
  0
ARC
  5
201
330
1F
100
AcDbEntity
  8
0
  6
Continuous
 62
     7
370
    25
100
AcDbCircle
 10
-15.9223304611
 20
56.0898819942
 30
0.0
 40
26.77208013988985
100
AcDbArc
 50
358.7498107505
 51
0.0507872746
  0
ARC
  5
202
330
1F
100
AcDbEntity
  8
0
  6
Continuous
 62
     7
370
    25
100
AcDbCircle
 10
-15.9223304611
 20
56.1373438079
 30
0.0
 40
26.77208013990365
100
AcDbArc
 50
359.9492127254
 51
1.2501892495
  0
ARC
  5
203
330
1F
100
AcDbEntity
  8
0
  6
Continuous
 62
   144
370
    18
100
AcDbCircle
 10
10.8841916004
 20
68.149587948
 30
0.0
 40
11.4281987656305
100
AcDbArc
 50
269.7953723559
 51
270.0814038045
  0
LWPOLYLINE
  5
204
330
1F
100
AcDbEntity
  8
0
  6
Continuous
 62
   144
370
    18
100
AcDbPolyline
 90
        4
 70
   128
 43
0.0
 10
10.8433767195
 20
55.505763736
 10
10.8706730503
 20
55.5058841483
 10
10.8979683862
 20
55.5058260901
 10
10.9004283731
 20
55.5058250854
  0
ARC
  5
205
330
1F
100
AcDbEntity
  8
0
  6
Continuous
 62
     7
370
    25
100
AcDbCircle
 10
-40.6855167871
 20
56.0901878137
 30
0.0
 40
51.50215969186891
100
AcDbArc
 50
359.3488141074
 51
0.0260602409
  0
LINE
  5
206
330
1F
100
AcDbEntity
  8
0
  6
Continuous
 62
     7
370
    25
100
AcDbLine
 10
10.8166375775
 20
56.1136129011
 30
0.0
 11
10.8497391612
 21
56.1136129011
 31
0.0
  0
LWPOLYLINE
  5
207
330
1F
100
AcDbEntity
  8
0
  6
Continuous
 62
   144
370
    18
100
AcDbPolyline
 90
        3
 70
   128
 43
0.0
 10
10.8133166503
 20
55.5048609692
 10
10.8204291318
 20
55.5051844204
 10
10.8433767195
 20
55.505763736
  0
LWPOLYLINE
  5
208
330
1F
100
AcDbEntity
  8
0
  6
Continuous
 62
   144
370
    18
100
AcDbPolyline
 90
        3
 70
   128
 43
0.0
 10
10.8433767195
 20
56.7214620661
 10
10.8204291318
 20
56.7220413817
 10
10.8133166503
 20
56.7223648329
  0
ARC
  5
209
330
1F
100
AcDbEntity
  8
0
  6
Continuous
 62
   144
370
    18
100
AcDbCircle
 10
-40.6855167871
 20
56.1370379885
 30
0.0
 40
51.50215969186993
100
AcDbArc
 50
359.9739397591
 51
0.6511858926
  0
LINE
  5
20A
330
1F
100
AcDbEntity
  8
0
  6
Continuous
 62
     7
370
    25
100
AcDbLine
 10
10.7516923738
 20
56.1136129011
 30
0.0
 11
10.7786598014
 21
56.1136129011
 31
0.0
  0
ARC
  5
20B
330
1F
100
AcDbEntity
  8
0
  6
Continuous
 62
     7
370
    25
100
AcDbCircle
 10
267.1841503233
 20
56.1878870845
 30
0.0
 40
256.4324687059833
100
AcDbArc
 50
179.8801289629
 51
180.0165953814
  0
ARC
  5
20C
330
1F
100
AcDbEntity
  8
0
  6
Continuous
 62
   144
370
    18
100
AcDbCircle
 10
-201.7348001955
 20
56.1110011605
 30
0.0
 40
212.5134600129601
100
AcDbArc
 50
0.0007041642
 51
0.1649571124
  0
LWPOLYLINE
  5
20D
330
1F
100
AcDbEntity
  8
0
  6
Continuous
 62
   144
370
    18
100
AcDbPolyline
 90
        3
 70
   128
 43
0.0
 10
10.7777790668
 20
56.7228360736
 10
10.7568728258
 20
56.7239537314
 10
10.7522428282
 20
56.7243804145
  0
ARC
  5
20E
330
1F
100
AcDbEntity
  8
0
  6
Continuous
 62
     7
370
    25
100
AcDbCircle
 10
-236.6994720359
 20
56.1667719617
 30
0.0
 40
247.4781375467391
100
AcDbArc
 50
359.8466460429
 51
359.9876926805
  0
LINE
  5
20F
330
1F
100
AcDbEntity
  8
0
  6
Continuous
 62
   144
370
    18
100
AcDbLine
 10
10.7786598014
 20
56.1136129011
 30
0.0
 11
10.8166375775
 21
56.1136129011
 31
0.0
  0
LWPOLYLINE
  5
210
330
1F
100
AcDbEntity
  8
0
  6
Continuous
 62
   144
370
    18
100
AcDbPolyline
 90
        3
 70
   128
 43
0.0
 10
10.7777790668
 20
55.5043897285
 10
10.795562501
 20
55.5045592707
 10
10.8133166503
 20
55.5048609692
  0
ARC
  5
211
330
1F
100
AcDbEntity
  8
0
  6
Continuous
 62
   144
370
    18
100
AcDbCircle
 10
267.1337902047
 20
56.0392933305
 30
0.0
 40
256.3821086026708
100
AcDbArc
 50
179.9833912158
 51
180.1198844399
  0
LWPOLYLINE
  5
212
330
1F
100
AcDbEntity
  8
0
  6
Continuous
 62
   144
370
    18
100
AcDbPolyline
 90
        3
 70
   128
 43
0.0
 10
10.7522428282
 20
55.5028453876
 10
10.7568728258
 20
55.5032720707
 10
10.7777790668
 20
55.5043897285
  0
LWPOLYLINE
  5
213
330
1F
100
AcDbEntity
  8
0
  6
Continuous
 62
   144
370
    18
100
AcDbPolyline
 90
        3
 70
   128
 43
0.0
 10
10.34830336
 20
56.7284122645
 10
10.3285483381
 20
56.113613369
 10
10.34830336
 20
55.4988135376
  0
ARC
  5
214
330
1F
100
AcDbEntity
  8
0
  6
Continuous
 62
     7
370
    25
100
AcDbCircle
 10
10.0834191721
 20
9.9536427469
 30
0.0
 40
46.77551952744322
100
AcDbArc
 50
89.1807236132
 51
89.6755391005
  0
ARC
  5
215
330
1F
100
AcDbEntity
  8
0
  6
Continuous
 62
   144
370
    18
100
AcDbCircle
 10
10.0834174264
 20
102.2737579587
 30
0.0
 40
46.77569443797299
100
AcDbArc
 50
270.3244618246
 51
270.8192754617
  0
LWPOLYLINE
  5
216
330
1F
100
AcDbEntity
  8
0
  6
Continuous
 62
   144
370
    18
100
AcDbPolyline
 90
        3
 70
   128
 43
0.0
 10
10.3504228375
 20
56.7343173317
 10
10.6780994513
 20
56.7304703489
 10
10.7547349434
 20
56.7291280628
  0
LWPOLYLINE
  5
217
330
1F
100
AcDbEntity
  8
0
  6
Continuous
 62
   144
370
    18
100
AcDbPolyline
 90
       15
 70
   128
 43
0.0
 10
10.9004283731
 20
56.7616082983
 10
10.8949177974
 20
56.7616083055
 10
10.8687939495
 20
56.761608742
 10
10.8425846108
 20
56.7616086969
 10
10.8156284347
 20
56.7616093127
 10
10.7733353539
 20
56.7616088251
 10
10.6854432752
 20
56.7616083
 10
10.5028539866
 20
56.7616082984
 10
10.4172572248
 20
56.7616083168
 10
10.3965137566
 20
56.761608484
 10
10.3707759459
 20
56.7616014933
 10
10.3660343787
 20
56.7616066246
 10
10.3649487683
 20
56.7616083136
 10
10.3650112276
 20
56.7616082981
 10
10.3650125638
 20
56.7616082981
  0
LINE
  5
218
330
1F
100
AcDbEntity
  8
0
  6
Continuous
 62
   144
370
    18
100
AcDbLine
 10
10.363874367
 20
56.7607424092
 30
0.0
 11
10.3289743048
 21
56.7341504042
 31
0.0
  0
LWPOLYLINE
  5
219
330
1F
100
AcDbEntity
  8
0
  6
Continuous
 62
   144
370
    18
100
AcDbPolyline
 90
        8
 70
   128
 43
0.0
 10
10.3289743048
 20
56.7341504042
 10
10.3289743048
 20
56.7341504042
 10
10.3289743048
 20
56.7341504042
 10
10.3289743048
 20
56.7341504042
 10
10.3289743048
 20
56.7341504042
 10
10.3289743004
 20
56.7341503185
 10
10.3289742299
 20
56.7341489699
 10
10.3289748838
 20
56.7341312929
  0
ARC
  5
21A
330
1F
100
AcDbEntity
  8
0
  6
Continuous
 62
   144
370
    18
100
AcDbCircle
 10
10.3368229231
 20
57.0657840131
 30
0.0
 40
0.3317455629101237
100
AcDbArc
 50
268.6444385867
 51
272.3494997633
  0
LWPOLYLINE
  5
21B
330
1F
100
AcDbEntity
  8
0
  6
Continuous
 62
   144
370
    18
100
AcDbPolyline
 90
        3
 70
   128
 43
0.0
 10
10.7547349434
 20
56.7291280628
 10
10.759180434
 20
56.7285786656
 10
10.7788995294
 20
56.7270878538
  0
LWPOLYLINE
  5
21C
330
1F
100
AcDbEntity
  8
0
  6
Continuous
 62
   144
370
    18
100
AcDbPolyline
 90
        3
 70
   128
 43
0.0
 10
10.7788995294
 20
56.7270878538
 10
10.796683111
 20
56.7269024527
 10
10.8147587545
 20
56.7265858102
  0
LWPOLYLINE
  5
21D
330
1F
100
AcDbEntity
  8
0
  6
Continuous
 62
   144
370
    18
100
AcDbPolyline
 90
        3
 70
   128
 43
0.0
 10
10.8147587545
 20
56.7265858102
 10
10.8215275574
 20
56.7261769186
 10
10.8433537837
 20
56.7254616589
  0
LWPOLYLINE
  5
21E
330
1F
100
AcDbEntity
  8
0
  6
Continuous
 62
   144
370
    18
100
AcDbPolyline
 90
        3
 70
   128
 43
0.0
 10
10.8433537837
 20
56.7254616589
 10
10.8706694204
 20
56.7253404137
 10
10.9004283731
 20
56.725398892
  0
LWPOLYLINE
  5
21F
330
1F
100
AcDbEntity
  8
0
  6
Continuous
 62
   144
370
    18
100
AcDbPolyline
 90
        8
 70
   128
 43
0.0
 10
10.3289748838
 20
55.4930945092
 10
10.3289742299
 20
55.4930768322
 10
10.3289743004
 20
55.4930754836
 10
10.3289743048
 20
55.4930753979
 10
10.3289743048
 20
55.4930753979
 10
10.3289743048
 20
55.4930753979
 10
10.3289743048
 20
55.4930753979
 10
10.3289743048
 20
55.4930753979
  0
LINE
  5
220
330
1F
100
AcDbEntity
  8
0
  6
Continuous
 62
   144
370
    18
100
AcDbLine
 10
10.3289743048
 20
55.4930753979
 30
0.0
 11
10.3638743677
 21
55.4664833924
 31
0.0
  0
LWPOLYLINE
  5
221
330
1F
100
AcDbEntity
  8
0
  6
Continuous
 62
   144
370
    18
100
AcDbPolyline
 90
       15
 70
   128
 43
0.0
 10
10.3650118957
 20
55.465617504
 10
10.3650112276
 20
55.465617504
 10
10.3649487683
 20
55.4656174886
 10
10.3660343787
 20
55.4656191776
 10
10.3707759459
 20
55.4656243089
 10
10.3965137566
 20
55.4656173182
 10
10.4172572248
 20
55.4656174853
 10
10.5028539866
 20
55.4656175038
 10
10.6854432752
 20
55.4656175022
 10
10.7733353539
 20
55.465616977
 10
10.8156284347
 20
55.4656164895
 10
10.8425846108
 20
55.4656171052
 10
10.8687939495
 20
55.4656170602
 10
10.8949177974
 20
55.4656174967
 10
10.9004283731
 20
55.4656175039
  0
LWPOLYLINE
  5
222
330
1F
100
AcDbEntity
  8
0
  6
Continuous
 62
   144
370
    18
100
AcDbPolyline
 90
        3
 70
   128
 43
0.0
 10
10.9004283731
 20
55.5018269101
 10
10.8706694204
 20
55.5018853885
 10
10.8433537837
 20
55.5017641433
  0
LWPOLYLINE
  5
223
330
1F
100
AcDbEntity
  8
0
  6
Continuous
 62
   144
370
    18
100
AcDbPolyline
 90
        3
 70
   128
 43
0.0
 10
10.8433537837
 20
55.5017641433
 10
10.8215275574
 20
55.5010488836
 10
10.8147587545
 20
55.500639992
  0
LWPOLYLINE
  5
224
330
1F
100
AcDbEntity
  8
0
  6
Continuous
 62
   144
370
    18
100
AcDbPolyline
 90
        3
 70
   128
 43
0.0
 10
10.8147587545
 20
55.500639992
 10
10.796683111
 20
55.5003233494
 10
10.7788995294
 20
55.5001379483
  0
LWPOLYLINE
  5
225
330
1F
100
AcDbEntity
  8
0
  6
Continuous
 62
   144
370
    18
100
AcDbPolyline
 90
        3
 70
   128
 43
0.0
 10
10.7788995294
 20
55.5001379483
 10
10.759180434
 20
55.4986471365
 10
10.7547349434
 20
55.4980977394
  0
LWPOLYLINE
  5
226
330
1F
100
AcDbEntity
  8
0
  6
Continuous
 62
   144
370
    18
100
AcDbPolyline
 90
        3
 70
   128
 43
0.0
 10
10.7547349434
 20
55.4980977394
 10
10.6780994513
 20
55.4967554532
 10
10.3504228375
 20
55.4929084704
  0
ARC
  5
227
330
1F
100
AcDbEntity
  8
0
  6
Continuous
 62
   144
370
    18
100
AcDbCircle
 10
10.3368229231
 20
55.1614417893
 30
0.0
 40
0.3317455626723895
100
AcDbArc
 50
87.6505002356
 51
91.3555614148
  0
ARC
  5
228
330
1F
100
AcDbEntity
  8
0
  6
Continuous
 62
   144
370
    18
100
AcDbCircle
 10
10.7613120768
 20
56.7226477228
 30
0.0
 40
0.0092332816897385
100
AcDbArc
 50
135.4247190201
 51
169.1839079279
  0
ARC
  5
229
330
1F
100
AcDbEntity
  8
0
  6
Continuous
 62
   144
370
    18
100
AcDbCircle
 10
10.3572923105
 20
56.728518804
 30
0.0
 40
0.0089895818885588
100
AcDbArc
 50
139.8322612258
 51
180.6790537143
  0
LINE
  5
22A
330
1F
100
AcDbEntity
  8
0
  6
Continuous
 62
   144
370
    18
100
AcDbLine
 10
10.3697208425
 20
56.7632192003
 30
0.0
 11
10.9004283731
 21
56.7632192003
 31
0.0
  0
LINE
  5
22B
330
1F
100
AcDbEntity
  8
0
  6
Continuous
 62
   144
370
    18
100
AcDbLine
 10
10.9004283731
 20
55.4640066019
 30
0.0
 11
10.3697208425
 21
55.4640066019
 31
0.0
  0
LWPOLYLINE
  5
22C
330
1F
100
AcDbEntity
  8
0
  6
Continuous
 62
     7
370
    25
100
AcDbPolyline
 90
        3
 70
   128
 43
0.0
 10
10.3258821625
 20
55.4989471296
 10
10.309877192
 20
56.1136133694
 10
10.3258821625
 20
56.7282786726
  0
ARC
  5
22D
330
1F
100
AcDbEntity
  8
0
  6
Continuous
 62
   144
370
    18
100
AcDbCircle
 10
10.3336551629
 20
57.3052896469
 30
0.0
 40
0.5770633275389115
100
AcDbArc
 50
269.2282067404
 51
271.4545544439
  0
ARC
  5
22E
330
1F
100
AcDbEntity
  8
0
  6
Continuous
 62
   144
370
    18
100
AcDbCircle
 10
10.3336551629
 20
54.921936155
 30
0.0
 40
0.5770633277610983
100
AcDbArc
 50
88.5454455566
 51
90.7717932592
  0
LINE
  5
22F
330
1F
100
AcDbEntity
  8
0
  6
Continuous
 62
   144
370
    18
100
AcDbLine
 10
10.3258821625
 20
56.7282786726
 30
0.0
 11
10.325882215
 21
56.7282796801
 31
0.0
  0
LINE
  5
230
330
1F
100
AcDbEntity
  8
0
  6
Continuous
 62
   144
370
    18
100
AcDbLine
 10
10.325882215
 20
55.498946122
 30
0.0
 11
10.3258821625
 21
55.4989471296
 31
0.0
  0
LINE
  5
231
330
1F
100
AcDbEntity
  8
0
  6
Continuous
 62
   144
370
    18
100
AcDbLine
 10
10.4673575069
 20
55.4997602122
 30
0.0
 11
10.4673575069
 21
55.4942813046
 31
0.0
  0
LINE
  5
232
330
1F
100
AcDbEntity
  8
0
  6
Continuous
 62
   144
370
    18
100
AcDbLine
 10
10.3615027661
 20
55.4930385508
 30
0.0
 11
10.3538654723
 21
55.4988577655
 31
0.0
  0
LINE
  5
233
330
1F
100
AcDbEntity
  8
0
  6
Continuous
 62
   144
370
    18
100
AcDbLine
 10
39.4988535699
 20
56.7616082983
 30
0.0
 11
39.4988535699
 21
56.7632192003
 31
0.0
  0
LINE
  5
234
330
1F
100
AcDbEntity
  8
0
  6
Continuous
 62
     7
370
    25
100
AcDbLine
 10
39.4988535699
 20
56.7616082983
 30
0.0
 11
39.4988535699
 21
56.725398892
 31
0.0
  0
LINE
  5
235
330
1F
100
AcDbEntity
  8
0
  6
Continuous
 62
   144
370
    18
100
AcDbLine
 10
39.4988535699
 20
56.7214007167
 30
0.0
 11
39.4988535699
 21
56.725398892
 31
0.0
  0
LINE
  5
236
330
1F
100
AcDbEntity
  8
0
  6
Continuous
 62
     7
370
    25
100
AcDbLine
 10
39.4988535699
 20
56.7214007167
 30
0.0
 11
39.4988535699
 21
55.5058250854
 31
0.0
  0
LINE
  5
237
330
1F
100
AcDbEntity
  8
0
  6
Continuous
 62
   144
370
    18
100
AcDbLine
 10
39.4988535699
 20
55.5018269101
 30
0.0
 11
39.4988535699
 21
55.5058250854
 31
0.0
  0
LINE
  5
238
330
1F
100
AcDbEntity
  8
0
  6
Continuous
 62
     7
370
    25
100
AcDbLine
 10
39.4988535699
 20
55.5018269101
 30
0.0
 11
39.4988535699
 21
55.4656175039
 31
0.0
  0
LINE
  5
239
330
1F
100
AcDbEntity
  8
0
  6
Continuous
 62
   144
370
    18
100
AcDbLine
 10
39.4988535699
 20
55.4640066019
 30
0.0
 11
39.4988535699
 21
55.4656175039
 31
0.0
  0
LWPOLYLINE
  5
23A
330
1F
100
AcDbEntity
  8
0
  6
Continuous
 62
   144
370
    18
100
AcDbPolyline
 90
        4
 70
   128
 43
0.0
 10
39.5559052235
 20
56.7214620661
 10
39.5286088926
 20
56.7213416539
 10
39.5013135568
 20
56.721399712
 10
39.4988535699
 20
56.7214007167
  0
ARC
  5
23B
330
1F
100
AcDbEntity
  8
0
  6
Continuous
 62
   144
370
    18
100
AcDbCircle
 10
66.3216123851
 20
56.1373438081
 30
0.0
 40
26.77208012092216
100
AcDbArc
 50
178.7498107501
 51
180.050787275
  0
ARC
  5
23C
330
1F
100
AcDbEntity
  8
0
  6
Continuous
 62
     7
370
    25
100
AcDbCircle
 10
66.3216123851
 20
56.089881994
 30
0.0
 40
26.77208012095106
100
AcDbArc
 50
179.949212725
 51
181.2501892499
  0
ARC
  5
23D
330
1F
100
AcDbEntity
  8
0
  6
Continuous
 62
   144
370
    18
100
AcDbCircle
 10
39.5150903428
 20
44.0776380349
 30
0.0
 40
11.42819858482544
100
AcDbArc
 50
89.7953723537
 51
90.0814038068
  0
LINE
  5
23E
330
1F
100
AcDbEntity
  8
0
  6
Continuous
 62
     7
370
    25
100
AcDbLine
 10
39.5826443655
 20
56.1136129011
 30
0.0
 11
39.5495427818
 21
56.1136129011
 31
0.0
  0
ARC
  5
23F
330
1F
100
AcDbEntity
  8
0
  6
Continuous
 62
     7
370
    25
100
AcDbCircle
 10
91.0847987654
 20
56.0901878139
 30
0.0
 40
51.50215972722458
100
AcDbArc
 50
179.9739397593
 51
180.6511858923
  0
LWPOLYLINE
  5
240
330
1F
100
AcDbEntity
  8
0
  6
Continuous
 62
   144
370
    18
100
AcDbPolyline
 90
        3
 70
   128
 43
0.0
 10
39.5559052235
 20
55.505763736
 10
39.5788528112
 20
55.5051844204
 10
39.5859652927
 20
55.5048609692
  0
ARC
  5
241
330
1F
100
AcDbEntity
  8
0
  6
Continuous
 62
   144
370
    18
100
AcDbCircle
 10
91.0847987655
 20
56.1370379883
 30
0.0
 40
51.50215972726006
100
AcDbArc
 50
179.3488141077
 51
180.0260602407
  0
LWPOLYLINE
  5
242
330
1F
100
AcDbEntity
  8
0
  6
Continuous
 62
   144
370
    18
100
AcDbPolyline
 90
        3
 70
   128
 43
0.0
 10
39.5859652927
 20
56.7223648329
 10
39.5788528112
 20
56.7220413817
 10
39.5559052235
 20
56.7214620661
  0
ARC
  5
243
330
1F
100
AcDbEntity
  8
0
  6
Continuous
 62
     7
370
    25
100
AcDbCircle
 10
-216.7345108005
 20
56.1879324693
 30
0.0
 40
256.3821111413787
100
AcDbArc
 50
359.9833912165
 51
0.1198844392
  0
LINE
  5
244
330
1F
100
AcDbEntity
  8
0
  6
Continuous
 62
   144
370
    18
100
AcDbLine
 10
39.6475895691
 20
56.1136129011
 30
0.0
 11
39.6206221415
 21
56.1136129011
 31
0.0
  0
ARC
  5
245
330
1F
100
AcDbEntity
  8
0
  6
Continuous
 62
   144
370
    18
100
AcDbCircle
 10
252.2692490012
 20
56.110805754
 30
0.0
 40
212.6486268781904
100
AcDbArc
 50
179.8350950901
 51
179.9992436333
  0
LWPOLYLINE
  5
246
330
1F
100
AcDbEntity
  8
0
  6
Continuous
 62
   144
370
    18
100
AcDbPolyline
 90
        3
 70
   128
 43
0.0
 10
39.6470391147
 20
56.7243804145
 10
39.6424091172
 20
56.7239537314
 10
39.6215028761
 20
56.7228360736
  0
ARC
  5
247
330
1F
100
AcDbEntity
  8
0
  6
Continuous
 62
     7
370
    25
100
AcDbCircle
 10
252.1340811658
 20
56.1162246402
 30
0.0
 40
212.5134590403359
100
AcDbArc
 50
180.0007041639
 51
180.1649571128
  0
LWPOLYLINE
  5
248
330
1F
100
AcDbEntity
  8
0
  6
Continuous
 62
   144
370
    18
100
AcDbPolyline
 90
        3
 70
   128
 43
0.0
 10
39.5859652927
 20
55.5048609692
 10
39.603719442
 20
55.5045592707
 10
39.6215028761
 20
55.5043897285
  0
LINE
  5
249
330
1F
100
AcDbEntity
  8
0
  6
Continuous
 62
   144
370
    18
100
AcDbLine
 10
39.6206221415
 20
56.1136129011
 30
0.0
 11
39.5826443655
 21
56.1136129011
 31
0.0
  0
ARC
  5
24A
330
1F
100
AcDbEntity
  8
0
  6
Continuous
 62
     7
370
    25
100
AcDbCircle
 10
-216.7848709197
 20
56.0393387199
 30
0.0
 40
256.4324712454049
100
AcDbArc
 50
359.8801289636
 51
0.0165953808
  0
LWPOLYLINE
  5
24B
330
1F
100
AcDbEntity
  8
0
  6
Continuous
 62
   144
370
    18
100
AcDbPolyline
 90
        3
 70
   128
 43
0.0
 10
39.6215028761
 20
55.5043897285
 10
39.6424091172
 20
55.5032720707
 10
39.6470391147
 20
55.5028453876
  0
ARC
  5
24C
330
1F
100
AcDbEntity
  8
0
  6
Continuous
 62
     7
370
    25
100
AcDbCircle
 10
40.3158645166
 20
9.953467843
 30
0.0
 40
46.77569443841806
100
AcDbArc
 50
90.3244618246
 51
90.8192754617
  0
LWPOLYLINE
  5
24D
330
1F
100
AcDbEntity
  8
0
  6
Continuous
 62
     7
370
    25
100
AcDbPolyline
 90
        3
 70
   128
 43
0.0
 10
40.050978583
 20
55.4988135376
 10
40.0707336049
 20
56.1136124331
 10
40.050978583
 20
56.7284122645
  0
ARC
  5
24E
330
1F
100
AcDbEntity
  8
0
  6
Continuous
 62
   144
370
    18
100
AcDbCircle
 10
40.3158627709
 20
102.2735830568
 30
0.0
 40
46.77551952891105
100
AcDbArc
 50
269.1807236132
 51
269.6755391005
  0
LWPOLYLINE
  5
24F
330
1F
100
AcDbEntity
  8
0
  6
Continuous
 62
     7
370
    25
100
AcDbPolyline
 90
        3
 70
   128
 43
0.0
 10
39.6445469996
 20
56.7291280628
 10
39.7211824917
 20
56.7304703489
 10
40.0488591054
 20
56.7343173317
  0
LWPOLYLINE
  5
250
330
1F
100
AcDbEntity
  8
0
  6
Continuous
 62
   144
370
    18
100
AcDbPolyline
 90
        8
 70
   128
 43
0.0
 10
40.0703070592
 20
56.7341312929
 10
40.070307713
 20
56.7341489699
 10
40.0703076426
 20
56.7341503185
 10
40.0703076381
 20
56.7341504042
 10
40.0703076381
 20
56.7341504042
 10
40.0703076381
 20
56.7341504042
 10
40.0703076381
 20
56.7341504042
 10
40.0703076381
 20
56.7341504042
  0
LINE
  5
251
330
1F
100
AcDbEntity
  8
0
  6
Continuous
 62
   144
370
    18
100
AcDbLine
 10
40.0703076381
 20
56.7341504042
 30
0.0
 11
40.0354075719
 21
56.7607424124
 31
0.0
  0
LWPOLYLINE
  5
252
330
1F
100
AcDbEntity
  8
0
  6
Continuous
 62
   144
370
    18
100
AcDbPolyline
 90
       15
 70
   128
 43
0.0
 10
40.0342700473
 20
56.7616082981
 10
40.0342707154
 20
56.7616082981
 10
40.0343331747
 20
56.7616083136
 10
40.0332475642
 20
56.7616066246
 10
40.0285059971
 20
56.7616014933
 10
40.0027681864
 20
56.761608484
 10
39.9820247182
 20
56.7616083168
 10
39.8964279564
 20
56.7616082984
 10
39.7138386678
 20
56.7616083
 10
39.625946589
 20
56.7616088251
 10
39.5836535083
 20
56.7616093127
 10
39.5566973321
 20
56.7616086969
 10
39.5304879935
 20
56.761608742
 10
39.5043641456
 20
56.7616083055
 10
39.4988535699
 20
56.7616082983
  0
LWPOLYLINE
  5
253
330
1F
100
AcDbEntity
  8
0
  6
Continuous
 62
   144
370
    18
100
AcDbPolyline
 90
        3
 70
   128
 43
0.0
 10
39.4988535699
 20
56.725398892
 10
39.5286125226
 20
56.7253404137
 10
39.5559281593
 20
56.7254616589
  0
LWPOLYLINE
  5
254
330
1F
100
AcDbEntity
  8
0
  6
Continuous
 62
   144
370
    18
100
AcDbPolyline
 90
        3
 70
   128
 43
0.0
 10
39.5559281593
 20
56.7254616589
 10
39.5777543856
 20
56.7261769186
 10
39.5845231885
 20
56.7265858102
  0
LWPOLYLINE
  5
255
330
1F
100
AcDbEntity
  8
0
  6
Continuous
 62
   144
370
    18
100
AcDbPolyline
 90
        3
 70
   128
 43
0.0
 10
39.5845231885
 20
56.7265858102
 10
39.602598832
 20
56.7269024527
 10
39.6203824136
 20
56.7270878538
  0
LWPOLYLINE
  5
256
330
1F
100
AcDbEntity
  8
0
  6
Continuous
 62
   144
370
    18
100
AcDbPolyline
 90
        3
 70
   128
 43
0.0
 10
39.6203824136
 20
56.7270878538
 10
39.6401015089
 20
56.7285786656
 10
39.6445469996
 20
56.7291280628
  0
ARC
  5
257
330
1F
100
AcDbEntity
  8
0
  6
Continuous
 62
   144
370
    18
100
AcDbCircle
 10
40.0624590199
 20
57.0657840128
 30
0.0
 40
0.3317455626194328
100
AcDbArc
 50
267.6505002353
 51
271.3555614151
  0
LWPOLYLINE
  5
258
330
1F
100
AcDbEntity
  8
0
  6
Continuous
 62
   144
370
    18
100
AcDbPolyline
 90
       15
 70
   128
 43
0.0
 10
39.4988535699
 20
55.4656175039
 10
39.5043641456
 20
55.4656174967
 10
39.5304879935
 20
55.4656170602
 10
39.5566973321
 20
55.4656171052
 10
39.5836535083
 20
55.4656164895
 10
39.625946589
 20
55.465616977
 10
39.7138386678
 20
55.4656175022
 10
39.8964279564
 20
55.4656175038
 10
39.9820247182
 20
55.4656174853
 10
40.0027681864
 20
55.4656173182
 10
40.0285059971
 20
55.4656243089
 10
40.0332475642
 20
55.4656191776
 10
40.0343331747
 20
55.4656174886
 10
40.0342707154
 20
55.465617504
 10
40.0342700473
 20
55.465617504
  0
LINE
  5
259
330
1F
100
AcDbEntity
  8
0
  6
Continuous
 62
   144
370
    18
100
AcDbLine
 10
40.0354075753
 20
55.4664833924
 30
0.0
 11
40.0703076381
 21
55.4930753979
 31
0.0
  0
LWPOLYLINE
  5
25A
330
1F
100
AcDbEntity
  8
0
  6
Continuous
 62
   144
370
    18
100
AcDbPolyline
 90
        8
 70
   128
 43
0.0
 10
40.0703076381
 20
55.4930753979
 10
40.0703076381
 20
55.4930753979
 10
40.0703076381
 20
55.4930753979
 10
40.0703076381
 20
55.4930753979
 10
40.0703076381
 20
55.4930753979
 10
40.0703076426
 20
55.4930754836
 10
40.070307713
 20
55.4930768322
 10
40.0703070592
 20
55.4930945092
  0
ARC
  5
25B
330
1F
100
AcDbEntity
  8
0
  6
Continuous
 62
   144
370
    18
100
AcDbCircle
 10
40.0624590199
 20
55.161441789
 30
0.0
 40
0.331745562970843
100
AcDbArc
 50
88.6444385871
 51
92.349499763
  0
LWPOLYLINE
  5
25C
330
1F
100
AcDbEntity
  8
0
  6
Continuous
 62
   144
370
    18
100
AcDbPolyline
 90
        3
 70
   128
 43
0.0
 10
40.0488591054
 20
55.4929084704
 10
39.7211824917
 20
55.4967554532
 10
39.6445469996
 20
55.4980977394
  0
LWPOLYLINE
  5
25D
330
1F
100
AcDbEntity
  8
0
  6
Continuous
 62
   144
370
    18
100
AcDbPolyline
 90
        3
 70
   128
 43
0.0
 10
39.6445469996
 20
55.4980977394
 10
39.6401015089
 20
55.4986471365
 10
39.6203824136
 20
55.5001379483
  0
LWPOLYLINE
  5
25E
330
1F
100
AcDbEntity
  8
0
  6
Continuous
 62
   144
370
    18
100
AcDbPolyline
 90
        3
 70
   128
 43
0.0
 10
39.6203824136
 20
55.5001379483
 10
39.602598832
 20
55.5003233494
 10
39.5845231885
 20
55.500639992
  0
LWPOLYLINE
  5
25F
330
1F
100
AcDbEntity
  8
0
  6
Continuous
 62
   144
370
    18
100
AcDbPolyline
 90
        3
 70
   128
 43
0.0
 10
39.5845231885
 20
55.500639992
 10
39.5777543856
 20
55.5010488836
 10
39.5559281593
 20
55.5017641433
  0
LWPOLYLINE
  5
260
330
1F
100
AcDbEntity
  8
0
  6
Continuous
 62
   144
370
    18
100
AcDbPolyline
 90
        3
 70
   128
 43
0.0
 10
39.5559281593
 20
55.5017641433
 10
39.5286125226
 20
55.5018853885
 10
39.4988535699
 20
55.5018269101
  0
ARC
  5
261
330
1F
100
AcDbEntity
  8
0
  6
Continuous
 62
   144
370
    18
100
AcDbCircle
 10
39.6379698661
 20
56.7226477228
 30
0.0
 40
0.0092332816890101
100
AcDbArc
 50
10.8160920695
 51
44.5752809809
  0
ARC
  5
262
330
1F
100
AcDbEntity
  8
0
  6
Continuous
 62
   144
370
    18
100
AcDbCircle
 10
40.0419896325
 20
56.728518804
 30
0.0
 40
0.0089895818886577
100
AcDbArc
 50
359.320946286
 51
40.167738774
  0
LINE
  5
263
330
1F
100
AcDbEntity
  8
0
  6
Continuous
 62
   144
370
    18
100
AcDbLine
 10
39.4988535699
 20
56.7632192003
 30
0.0
 11
40.0295611004
 21
56.7632192003
 31
0.0
  0
LINE
  5
264
330
1F
100
AcDbEntity
  8
0
  6
Continuous
 62
   144
370
    18
100
AcDbLine
 10
40.0295611004
 20
55.4640066019
 30
0.0
 11
39.4988535699
 21
55.4640066019
 31
0.0
  0
LWPOLYLINE
  5
265
330
1F
100
AcDbEntity
  8
0
  6
Continuous
 62
     7
370
    25
100
AcDbPolyline
 90
        3
 70
   128
 43
0.0
 10
40.0733997805
 20
56.7282786726
 10
40.089404751
 20
56.1136124328
 10
40.0733997805
 20
55.4989471296
  0
ARC
  5
266
330
1F
100
AcDbEntity
  8
0
  6
Continuous
 62
   144
370
    18
100
AcDbCircle
 10
40.0656267801
 20
54.921936155
 30
0.0
 40
0.5770633277616241
100
AcDbArc
 50
89.2282067408
 51
91.4545544434
  0
ARC
  5
267
330
1F
100
AcDbEntity
  8
0
  6
Continuous
 62
   144
370
    18
100
AcDbCircle
 10
40.0656267801
 20
57.3052896469
 30
0.0
 40
0.5770633275394301
100
AcDbArc
 50
268.5454455561
 51
270.7717932596
  0
LINE
  5
268
330
1F
100
AcDbEntity
  8
0
  6
Continuous
 62
   144
370
    18
100
AcDbLine
 10
40.0733997805
 20
55.4989471296
 30
0.0
 11
40.073399728
 21
55.498946122
 31
0.0
  0
LINE
  5
269
330
1F
100
AcDbEntity
  8
0
  6
Continuous
 62
   144
370
    18
100
AcDbLine
 10
40.073399728
 20
56.7282796801
 30
0.0
 11
40.0733997805
 21
56.7282786726
 31
0.0
  0
LINE
  5
26A
330
1F
100
AcDbEntity
  8
0
  6
Continuous
 62
   144
370
    18
100
AcDbLine
 10
39.9319244361
 20
55.4942813046
 30
0.0
 11
39.9319244361
 21
55.4997602144
 31
0.0
  0
LINE
  5
26B
330
1F
100
AcDbEntity
  8
0
  6
Continuous
 62
   144
370
    18
100
AcDbLine
 10
40.0454164708
 20
55.4988577656
 30
0.0
 11
40.0377791768
 21
55.4930385508
 31
0.0
  0
LINE
  5
26C
330
1F
100
AcDbEntity
  8
0
  6
Continuous
 62
     7
370
    25
100
AcDbLine
 10
39.994916562
 20
55.3892034523
 30
0.0
 11
10.4043653809
 21
55.3892034523
 31
0.0
  0
LINE
  5
26D
330
1F
100
AcDbEntity
  8
0
  6
Continuous
 62
   144
370
    18
100
AcDbLine
 10
39.994916562
 20
55.428573531
 30
0.0
 11
39.994916562
 21
55.3892034523
 31
0.0
  0
LINE
  5
26E
330
1F
100
AcDbEntity
  8
0
  6
Continuous
 62
   144
370
    18
100
AcDbLine
 10
10.4043653809
 20
55.428573531
 30
0.0
 11
39.994916562
 21
55.428573531
 31
0.0
  0
LINE
  5
26F
330
1F
100
AcDbEntity
  8
0
  6
Continuous
 62
   144
370
    18
100
AcDbLine
 10
10.4043653809
 20
55.3892034523
 30
0.0
 11
10.4043653809
 21
55.428573531
 31
0.0
  0
LINE
  5
270
330
1F
100
AcDbEntity
  8
0
  6
Continuous
 62
     7
370
    25
100
AcDbLine
 10
10.3649953022
 20
55.3498333735
 30
0.0
 11
10.3649953022
 21
34.5388097515
 31
0.0
  0
LINE
  5
271
330
1F
100
AcDbEntity
  8
0
  6
Continuous
 62
     7
370
    25
100
AcDbLine
 10
10.3256252235
 20
34.5388097515
 30
0.0
 11
10.3256252235
 21
55.3498333735
 31
0.0
  0
LINE
  5
272
330
1F
100
AcDbEntity
  8
0
  6
Continuous
 62
   144
370
    18
100
AcDbLine
 10
10.3649953022
 20
55.3498333735
 30
0.0
 11
10.3256252235
 21
55.3498333735
 31
0.0
  0
LINE
  5
273
330
1F
100
AcDbEntity
  8
0
  6
Continuous
 62
   144
370
    18
100
AcDbLine
 10
10.3649953022
 20
34.5388097515
 30
0.0
 11
10.3256252235
 21
34.5388097515
 31
0.0
  0
LINE
  5
274
330
1F
100
AcDbEntity
  8
0
  6
Continuous
 62
     7
370
    25
100
AcDbLine
 10
40.0736567195
 20
55.3498333735
 30
0.0
 11
40.0736567195
 21
34.5388097515
 31
0.0
  0
LINE
  5
275
330
1F
100
AcDbEntity
  8
0
  6
Continuous
 62
     7
370
    25
100
AcDbLine
 10
40.0342866408
 20
34.5388097515
 30
0.0
 11
40.0342866408
 21
55.3498333735
 31
0.0
  0
LINE
  5
276
330
1F
100
AcDbEntity
  8
0
  6
Continuous
 62
   144
370
    18
100
AcDbLine
 10
40.0736567195
 20
55.3498333735
 30
0.0
 11
40.0342866408
 21
55.3498333735
 31
0.0
  0
LINE
  5
277
330
1F
100
AcDbEntity
  8
0
  6
Continuous
 62
   144
370
    18
100
AcDbLine
 10
40.0736567195
 20
34.5388097515
 30
0.0
 11
40.0342866408
 21
34.5388097515
 31
0.0
  0
LINE
  5
278
330
1F
100
AcDbEntity
  8
0
  6
Continuous
 62
     7
370
    25
100
AcDbLine
 10
10.4043653809
 20
34.4994396727
 30
0.0
 11
39.994916562
 21
34.4994396727
 31
0.0
  0
LINE
  5
279
330
1F
100
AcDbEntity
  8
0
  6
Continuous
 62
     7
370
    25
100
AcDbLine
 10
39.994916562
 20
34.460069594
 30
0.0
 11
10.4043653809
 21
34.460069594
 31
0.0
  0
LINE
  5
27A
330
1F
100
AcDbEntity
  8
0
  6
Continuous
 62
   144
370
    18
100
AcDbLine
 10
39.994916562
 20
34.4994396727
 30
0.0
 11
39.994916562
 21
34.460069594
 31
0.0
  0
LINE
  5
27B
330
1F
100
AcDbEntity
  8
0
  6
Continuous
 62
   144
370
    18
100
AcDbLine
 10
10.4043653809
 20
34.460069594
 30
0.0
 11
10.4043653809
 21
34.4994396727
 31
0.0
  0
LINE
  5
27C
330
1F
100
AcDbEntity
  8
0
  6
Continuous
 62
     7
370
    25
100
AcDbLine
 10
35.5539716801
 20
51.6588884916
 30
0.0
 11
35.5539716801
 21
39.5683373105
 31
0.0
  0
LINE
  5
27D
330
1F
100
AcDbEntity
  8
0
  6
Continuous
 62
     7
370
    25
100
AcDbLine
 10
14.8453102628
 20
39.5683373105
 30
0.0
 11
14.8453102628
 21
51.6588884916
 31
0.0
  0
LINE
  5
27E
330
1F
100
AcDbEntity
  8
0
  6
Continuous
 62
     7
370
    25
100
AcDbLine
 10
35.5539716801
 20
39.5683373105
 30
0.0
 11
14.8453102628
 21
39.5683373105
 31
0.0
  0
LINE
  5
27F
330
1F
100
AcDbEntity
  8
0
  6
Continuous
 62
     7
370
    25
100
AcDbLine
 10
14.8453102628
 20
51.6588884916
 30
0.0
 11
35.5539716801
 21
51.6588884916
 31
0.0
  0
ARC
  5
280
330
1F
100
AcDbEntity
  8
0
  6
Continuous
 62
   144
370
    18
100
AcDbCircle
 10
39.994916562
 20
55.3498333735
 30
0.0
 40
0.0393700787401556
100
AcDbArc
 50
0.0
 51
90.0
  0
ARC
  5
281
330
1F
100
AcDbEntity
  8
0
  6
Continuous
 62
   144
370
    18
100
AcDbCircle
 10
10.4043653809
 20
55.3498333735
 30
0.0
 40
0.0393700787401574
100
AcDbArc
 50
90.0
 51
180.0
  0
ARC
  5
282
330
1F
100
AcDbEntity
  8
0
  6
Continuous
 62
   144
370
    18
100
AcDbCircle
 10
10.4043653809
 20
34.5388097515
 30
0.0
 40
0.0393700787401574
100
AcDbArc
 50
180.0
 51
270.0
  0
ARC
  5
283
330
1F
100
AcDbEntity
  8
0
  6
Continuous
 62
   144
370
    18
100
AcDbCircle
 10
39.994916562
 20
34.5388097515
 30
0.0
 40
0.0393700787401556
100
AcDbArc
 50
270.0
 51
0.0
  0
ARC
  5
284
330
1F
100
AcDbEntity
  8
0
  6
Continuous
 62
   144
370
    18
100
AcDbCircle
 10
10.4043653809
 20
55.3498333735
 30
0.0
 40
0.0787401574803148
100
AcDbArc
 50
90.0
 51
180.0
  0
ARC
  5
285
330
1F
100
AcDbEntity
  8
0
  6
Continuous
 62
   144
370
    18
100
AcDbCircle
 10
39.994916562
 20
55.3498333735
 30
0.0
 40
0.0787401574803113
100
AcDbArc
 50
0.0
 51
90.0
  0
LINE
  5
286
330
1F
100
AcDbEntity
  8
0
  6
Continuous
 62
     7
370
    25
100
AcDbLine
 10
13.2508220739
 20
55.4620380979
 30
0.0
 11
13.2508220739
 21
55.4640066019
 31
0.0
  0
LINE
  5
287
330
1F
100
AcDbEntity
  8
0
  6
Continuous
 62
     7
370
    25
100
AcDbLine
 10
37.1484598691
 20
55.4640066019
 30
0.0
 11
37.1484598691
 21
55.4620380979
 31
0.0
  0
LINE
  5
288
330
1F
100
AcDbEntity
  8
0
  6
Continuous
 62
     7
370
    25
100
AcDbLine
 10
37.1484598691
 20
55.4620380979
 30
0.0
 11
13.2508220739
 21
55.4620380979
 31
0.0
  0
LINE
  5
289
330
1F
100
AcDbEntity
  8
0
  6
Continuous
 62
     7
370
    25
100
AcDbLine
 10
13.2586960896
 20
56.7612506964
 30
0.0
 11
37.1405858534
 21
56.7612506964
 31
0.0
  0
LINE
  5
28A
330
1F
100
AcDbEntity
  8
0
  6
Continuous
 62
   144
370
    18
100
AcDbLine
 10
39.4909795542
 20
55.4718806176
 30
0.0
 11
39.4988535699
 21
55.4718806176
 31
0.0
  0
LINE
  5
28B
330
1F
100
AcDbEntity
  8
0
  6
Continuous
 62
   144
370
    18
100
AcDbLine
 10
39.5031382619
 20
55.5939278617
 30
0.0
 11
39.4909795542
 21
55.5939278617
 31
0.0
  0
LINE
  5
28C
330
1F
100
AcDbEntity
  8
0
  6
Continuous
 62
   144
370
    18
100
AcDbLine
 10
39.4988535699
 20
56.7553451845
 30
0.0
 11
39.4909795542
 21
56.7553451845
 31
0.0
  0
LINE
  5
28D
330
1F
100
AcDbEntity
  8
0
  6
Continuous
 62
     7
370
    25
100
AcDbLine
 10
39.4909795542
 20
56.7632192003
 30
0.0
 11
39.4988535699
 21
56.7632192003
 31
0.0
  0
LINE
  5
28E
330
1F
100
AcDbEntity
  8
0
  6
Continuous
 62
   144
370
    18
100
AcDbLine
 10
39.4988535699
 20
55.4640066019
 30
0.0
 11
39.4909795542
 21
55.4640066019
 31
0.0
  0
LINE
  5
28F
330
1F
100
AcDbEntity
  8
0
  6
Continuous
 62
   144
370
    18
100
AcDbLine
 10
39.9083023888
 20
55.4836916412
 30
0.0
 11
39.9083023888
 21
55.4640066019
 31
0.0
  0
LINE
  5
290
330
1F
100
AcDbEntity
  8
0
  6
Continuous
 62
   144
370
    18
100
AcDbLine
 10
39.4909795542
 20
56.7435341609
 30
0.0
 11
39.4988535699
 21
56.7435341609
 31
0.0
  0
LINE
  5
291
330
1F
100
AcDbEntity
  8
0
  6
Continuous
 62
     7
370
    25
100
AcDbLine
 10
10.9004283731
 20
56.7632192003
 30
0.0
 11
10.9083023888
 21
56.7632192003
 31
0.0
  0
LINE
  5
292
330
1F
100
AcDbEntity
  8
0
  6
Continuous
 62
   144
370
    18
100
AcDbLine
 10
10.9083023888
 20
56.7553451845
 30
0.0
 11
10.9004283731
 21
56.7553451845
 31
0.0
  0
LINE
  5
293
330
1F
100
AcDbEntity
  8
0
  6
Continuous
 62
   144
370
    18
100
AcDbLine
 10
10.4831055384
 20
55.4944661894
 30
0.0
 11
10.4831055384
 21
55.4998854347
 31
0.0
  0
LINE
  5
294
330
1F
100
AcDbEntity
  8
0
  6
Continuous
 62
   144
370
    18
100
AcDbLine
 10
10.9083023888
 20
55.4640066019
 30
0.0
 11
10.9004283731
 21
55.4640066019
 31
0.0
  0
LINE
  5
295
330
1F
100
AcDbEntity
  8
0
  6
Continuous
 62
   144
370
    18
100
AcDbLine
 10
10.4909795542
 20
55.4640066019
 30
0.0
 11
10.4909795542
 21
55.4836916412
 31
0.0
  0
LINE
  5
296
330
1F
100
AcDbEntity
  8
0
  6
Continuous
 62
   144
370
    18
100
AcDbLine
 10
10.9004283731
 20
56.7435341609
 30
0.0
 11
10.9083023888
 21
56.7435341609
 31
0.0
  0
LINE
  5
297
330
1F
100
AcDbEntity
  8
0
  6
Continuous
 62
   144
370
    18
100
AcDbLine
 10
10.4909795542
 20
55.4945586317
 30
0.0
 11
10.4909795542
 21
55.499948046
 31
0.0
  0
LINE
  5
298
330
1F
100
AcDbEntity
  8
0
  6
Continuous
 62
   144
370
    18
100
AcDbLine
 10
10.9004283731
 20
55.4718806176
 30
0.0
 11
10.9083023888
 21
55.4718806176
 31
0.0
  0
LINE
  5
299
330
1F
100
AcDbEntity
  8
0
  6
Continuous
 62
   144
370
    18
100
AcDbLine
 10
10.9083023888
 20
55.5939278617
 30
0.0
 11
10.8961436811
 21
55.5939278617
 31
0.0
  0
ARC
  5
29A
330
1F
100
AcDbEntity
  8
0
  6
Continuous
 62
   144
370
    18
100
AcDbCircle
 10
30.8142017158
 20
57.9246365532
 30
0.0
 40
0.0866141732283481
100
AcDbArc
 50
270.0
 51
0.0
  0
LINE
  5
29B
330
1F
100
AcDbEntity
  8
0
  6
Continuous
 62
     7
370
    25
100
AcDbLine
 10
30.900815889
 20
61.3104640716
 30
0.0
 11
30.900815889
 21
57.9246365532
 31
0.0
  0
ARC
  5
29C
330
1F
100
AcDbEntity
  8
0
  6
Continuous
 62
   144
370
    18
100
AcDbCircle
 10
30.8142017158
 20
61.3104640716
 30
0.0
 40
0.0866141732283481
100
AcDbArc
 50
0.0
 51
90.0
  0
LINE
  5
29D
330
1F
100
AcDbEntity
  8
0
  6
Continuous
 62
     7
370
    25
100
AcDbLine
 10
19.5850937906
 20
61.3970782448
 30
0.0
 11
30.8142017158
 21
61.3970782448
 31
0.0
  0
ARC
  5
29E
330
1F
100
AcDbEntity
  8
0
  6
Continuous
 62
   144
370
    18
100
AcDbCircle
 10
19.5850937906
 20
61.3104640716
 30
0.0
 40
0.0866141732283481
100
AcDbArc
 50
90.0
 51
180.0
  0
LINE
  5
29F
330
1F
100
AcDbEntity
  8
0
  6
Continuous
 62
     7
370
    25
100
AcDbLine
 10
19.4984796174
 20
57.9246365532
 30
0.0
 11
19.4984796174
 21
61.3104640716
 31
0.0
  0
ARC
  5
2A0
330
1F
100
AcDbEntity
  8
0
  6
Continuous
 62
   144
370
    18
100
AcDbCircle
 10
19.5850937906
 20
57.9246365532
 30
0.0
 40
0.0866141732283481
100
AcDbArc
 50
180.0
 51
270.0
  0
LINE
  5
2A1
330
1F
100
AcDbEntity
  8
0
  6
Continuous
 62
     7
370
    25
100
AcDbLine
 10
30.8142017158
 20
57.83802238
 30
0.0
 11
19.5850937906
 21
57.83802238
 31
0.0
  0
LINE
  5
2A2
330
1F
100
AcDbEntity
  8
0
  6
Continuous
 62
     7
370
    25
100
AcDbLine
 10
10.3443260109
 20
62.1569199877
 30
0.0
 11
10.3443260109
 21
57.0388097515
 31
0.0
  0
LINE
  5
2A3
330
1F
100
AcDbEntity
  8
0
  6
Continuous
 62
     7
370
    25
100
AcDbLine
 10
40.0549559321
 20
62.1569199877
 30
0.0
 11
10.3443260109
 21
62.1569199877
 31
0.0
  0
LINE
  5
2A4
330
1F
100
AcDbEntity
  8
0
  6
Continuous
 62
     7
370
    25
100
AcDbLine
 10
40.0549559321
 20
57.0388097515
 30
0.0
 11
40.0549559321
 21
62.1569199877
 31
0.0
  0
LINE
  5
2A5
330
1F
100
AcDbEntity
  8
0
  6
Continuous
 62
     7
370
    25
100
AcDbLine
 10
10.3443260109
 20
57.0388097515
 30
0.0
 11
40.0549559321
 21
57.0388097515
 31
0.0
  0
LINE
  5
2A6
330
1F
100
AcDbEntity
  8
0
  6
Continuous
 62
   144
370
    18
100
AcDbLine
 10
10.3443260109
 20
57.0388097515
 30
0.0
 11
10.3246409715
 21
57.0388097515
 31
0.0
  0
LINE
  5
2A7
330
1F
100
AcDbEntity
  8
0
  6
Continuous
 62
     7
370
    25
100
AcDbLine
 10
10.3246409715
 20
57.0388097515
 30
0.0
 11
10.3246409715
 21
62.1569199877
 31
0.0
  0
LINE
  5
2A8
330
1F
100
AcDbEntity
  8
0
  6
Continuous
 62
   144
370
    18
100
AcDbLine
 10
10.3443260109
 20
62.1569199877
 30
0.0
 11
10.3246409715
 21
62.1569199877
 31
0.0
  0
LINE
  5
2A9
330
1F
100
AcDbEntity
  8
0
  6
Continuous
 62
     7
370
    25
100
AcDbLine
 10
40.0746409715
 20
62.1569199877
 30
0.0
 11
40.0746409715
 21
57.0388097515
 31
0.0
  0
LINE
  5
2AA
330
1F
100
AcDbEntity
  8
0
  6
Continuous
 62
   144
370
    18
100
AcDbLine
 10
40.0746409715
 20
62.1569199877
 30
0.0
 11
40.0549559321
 21
62.1569199877
 31
0.0
  0
LINE
  5
2AB
330
1F
100
AcDbEntity
  8
0
  6
Continuous
 62
   144
370
    18
100
AcDbLine
 10
40.0746409715
 20
57.0388097515
 30
0.0
 11
40.0549559321
 21
57.0388097515
 31
0.0
  0
LINE
  5
2AC
330
1F
100
AcDbEntity
  8
0
  6
Continuous
 62
     7
370
    25
100
AcDbLine
 10
40.0549559321
 20
57.0191247121
 30
0.0
 11
10.3443260109
 21
57.0191247121
 31
0.0
  0
LINE
  5
2AD
330
1F
100
AcDbEntity
  8
0
  6
Continuous
 62
   144
370
    18
100
AcDbLine
 10
10.3443260109
 20
57.0388097515
 30
0.0
 11
10.3443260109
 21
57.0191247121
 31
0.0
  0
LINE
  5
2AE
330
1F
100
AcDbEntity
  8
0
  6
Continuous
 62
   144
370
    18
100
AcDbLine
 10
40.0549559321
 20
57.0388097515
 30
0.0
 11
40.0549559321
 21
57.0191247121
 31
0.0
  0
LINE
  5
2AF
330
1F
100
AcDbEntity
  8
0
  6
Continuous
 62
     7
370
    25
100
AcDbLine
 10
19.5063536331
 20
61.3104640716
 30
0.0
 11
19.5063536331
 21
57.9246365532
 31
0.0
  0
LINE
  5
2B0
330
1F
100
AcDbEntity
  8
0
  6
Continuous
 62
   144
370
    18
100
AcDbLine
 10
19.5063536331
 20
61.3104640716
 30
0.0
 11
19.4984796174
 21
61.3104640716
 31
0.0
  0
LINE
  5
2B1
330
1F
100
AcDbEntity
  8
0
  6
Continuous
 62
   144
370
    18
100
AcDbLine
 10
19.5063536331
 20
57.9246365532
 30
0.0
 11
19.4984796174
 21
57.9246365532
 31
0.0
  0
LINE
  5
2B2
330
1F
100
AcDbEntity
  8
0
  6
Continuous
 62
     7
370
    25
100
AcDbLine
 10
30.8929418732
 20
57.9246365532
 30
0.0
 11
30.8929418732
 21
61.3104640716
 31
0.0
  0
LINE
  5
2B3
330
1F
100
AcDbEntity
  8
0
  6
Continuous
 62
   144
370
    18
100
AcDbLine
 10
30.900815889
 20
61.3104640716
 30
0.0
 11
30.8929418732
 21
61.3104640716
 31
0.0
  0
LINE
  5
2B4
330
1F
100
AcDbEntity
  8
0
  6
Continuous
 62
   144
370
    18
100
AcDbLine
 10
30.900815889
 20
57.9246365532
 30
0.0
 11
30.8929418732
 21
57.9246365532
 31
0.0
  0
LINE
  5
2B5
330
1F
100
AcDbEntity
  8
0
  6
Continuous
 62
     7
370
    25
100
AcDbLine
 10
30.8142017158
 20
61.389204229
 30
0.0
 11
19.5850937906
 21
61.389204229
 31
0.0
  0
LINE
  5
2B6
330
1F
100
AcDbEntity
  8
0
  6
Continuous
 62
   144
370
    18
100
AcDbLine
 10
30.8142017158
 20
61.389204229
 30
0.0
 11
30.8142017158
 21
61.3970782448
 31
0.0
  0
LINE
  5
2B7
330
1F
100
AcDbEntity
  8
0
  6
Continuous
 62
   144
370
    18
100
AcDbLine
 10
19.5850937906
 20
61.389204229
 30
0.0
 11
19.5850937906
 21
61.3970782448
 31
0.0
  0
LINE
  5
2B8
330
1F
100
AcDbEntity
  8
0
  6
Continuous
 62
     7
370
    25
100
AcDbLine
 10
19.5850937906
 20
57.8458963957
 30
0.0
 11
30.8142017158
 21
57.8458963957
 31
0.0
  0
LINE
  5
2B9
330
1F
100
AcDbEntity
  8
0
  6
Continuous
 62
   144
370
    18
100
AcDbLine
 10
30.8142017158
 20
57.83802238
 30
0.0
 11
30.8142017158
 21
57.8458963957
 31
0.0
  0
LINE
  5
2BA
330
1F
100
AcDbEntity
  8
0
  6
Continuous
 62
   144
370
    18
100
AcDbLine
 10
19.5850937906
 20
57.83802238
 30
0.0
 11
19.5850937906
 21
57.8458963957
 31
0.0
  0
LINE
  5
2BB
330
1F
100
AcDbEntity
  8
0
  6
Continuous
 62
     7
370
    25
100
AcDbLine
 10
10.3443260109
 20
62.1766050271
 30
0.0
 11
40.0549559321
 21
62.1766050271
 31
0.0
  0
LINE
  5
2BC
330
1F
100
AcDbEntity
  8
0
  6
Continuous
 62
   144
370
    18
100
AcDbLine
 10
10.3443260109
 20
62.1766050271
 30
0.0
 11
10.3443260109
 21
62.1569199877
 31
0.0
  0
LINE
  5
2BD
330
1F
100
AcDbEntity
  8
0
  6
Continuous
 62
   144
370
    18
100
AcDbLine
 10
40.0549559321
 20
62.1766050271
 30
0.0
 11
40.0549559321
 21
62.1569199877
 31
0.0
  0
ARC
  5
2BE
330
1F
100
AcDbEntity
  8
0
  6
Continuous
 62
   144
370
    18
100
AcDbCircle
 10
19.5850937906
 20
57.9246365532
 30
0.0
 40
0.0787401574803148
100
AcDbArc
 50
180.0
 51
270.0
  0
ARC
  5
2BF
330
1F
100
AcDbEntity
  8
0
  6
Continuous
 62
   144
370
    18
100
AcDbCircle
 10
30.8142017158
 20
57.9246365532
 30
0.0
 40
0.0787401574803148
100
AcDbArc
 50
270.0
 51
0.0
  0
ARC
  5
2C0
330
1F
100
AcDbEntity
  8
0
  6
Continuous
 62
   144
370
    18
100
AcDbCircle
 10
40.0549559321
 20
57.0388097515
 30
0.0
 40
0.0196850393700885
100
AcDbArc
 50
270.0
 51
0.0
  0
ARC
  5
2C1
330
1F
100
AcDbEntity
  8
0
  6
Continuous
 62
   144
370
    18
100
AcDbCircle
 10
10.3443260109
 20
57.0388097515
 30
0.0
 40
0.0196850393700885
100
AcDbArc
 50
180.0
 51
270.0
  0
ARC
  5
2C2
330
1F
100
AcDbEntity
  8
0
  6
Continuous
 62
   144
370
    18
100
AcDbCircle
 10
10.3443260109
 20
62.1569199877
 30
0.0
 40
0.0196850393700778
100
AcDbArc
 50
90.0
 51
180.0
  0
ARC
  5
2C3
330
1F
100
AcDbEntity
  8
0
  6
Continuous
 62
   144
370
    18
100
AcDbCircle
 10
40.0549559321
 20
62.1569199877
 30
0.0
 40
0.0196850393700743
100
AcDbArc
 50
0.0
 51
90.0
  0
LINE
  5
2C4
330
1F
100
AcDbEntity
  8
0
  6
Continuous
 62
     7
370
    25
100
AcDbLine
 10
22.1956971819
 20
57.8458971424
 30
0.0
 11
22.1956971819
 21
61.389204229
 31
0.0
  0
LINE
  5
2C5
330
1F
100
AcDbEntity
  8
0
  6
Continuous
 62
     7
370
    25
100
AcDbLine
 10
28.2035711977
 20
61.389204229
 30
0.0
 11
28.2035711977
 21
57.8458971424
 31
0.0
  0
LINE
  5
2C6
330
1F
100
AcDbEntity
  8
0
  6
Continuous
 62
   144
370
    18
100
AcDbLine
 10
28.5854677431
 20
56.8616443971
 30
0.0
 11
28.5854677431
 21
56.960069594
 31
0.0
  0
LINE
  5
2C7
330
1F
100
AcDbEntity
  8
0
  6
Continuous
 62
   144
370
    18
100
AcDbLine
 10
28.5854677431
 20
57.0191247121
 30
0.0
 11
28.5854677431
 21
56.960069594
 31
0.0
  0
ARC
  5
2C8
330
1F
100
AcDbEntity
  8
0
  6
Continuous
 62
     7
370
    25
100
AcDbCircle
 10
32.7575580858
 20
57.0584947908
 30
0.0
 40
0.1771653543112352
100
AcDbArc
 50
269.9999999989
 51
289.3299041281
  0
ARC
  5
2C9
330
1F
100
AcDbEntity
  8
0
  6
Continuous
 62
   144
370
    18
100
AcDbCircle
 10
32.7575580858
 20
57.0584947908
 30
0.0
 40
0.1771653542637112
100
AcDbArc
 50
289.3299041233
 51
308.6598082578
  0
LINE
  5
2CA
330
1F
100
AcDbEntity
  8
0
  6
Continuous
 62
   144
370
    18
100
AcDbLine
 10
28.6051527825
 20
56.960069594
 30
0.0
 11
28.6051527825
 21
57.0191247121
 31
0.0
  0
LINE
  5
2CB
330
1F
100
AcDbEntity
  8
0
  6
Continuous
 62
   144
370
    18
100
AcDbLine
 10
28.6051527825
 20
56.8813294365
 30
0.0
 11
28.6051527825
 21
56.960069594
 31
0.0
  0
LINE
  5
2CC
330
1F
100
AcDbEntity
  8
0
  6
Continuous
 62
     7
370
    25
100
AcDbLine
 10
32.8127991975
 20
56.9010144759
 30
0.0
 11
30.5539716802
 21
56.9010144759
 31
0.0
  0
LINE
  5
2CD
330
1F
100
AcDbEntity
  8
0
  6
Continuous
 62
     7
370
    25
100
AcDbLine
 10
30.5539716802
 20
56.8813294365
 30
0.0
 11
32.7575580858
 21
56.8813294365
 31
0.0
  0
LINE
  5
2CE
330
1F
100
AcDbEntity
  8
0
  6
Continuous
 62
   144
370
    18
100
AcDbLine
 10
32.8162010479
 20
56.8913165453
 30
0.0
 11
32.8127991975
 21
56.9010144759
 31
0.0
  0
LINE
  5
2CF
330
1F
100
AcDbEntity
  8
0
  6
Continuous
 62
   144
370
    18
100
AcDbLine
 10
30.5539716802
 20
56.9010144759
 30
0.0
 11
30.5539716802
 21
56.8813294365
 31
0.0
  0
LINE
  5
2D0
330
1F
100
AcDbEntity
  8
0
  6
Continuous
 62
   144
370
    18
100
AcDbLine
 10
32.9604369928
 20
57.0191247121
 30
0.0
 11
32.8127991975
 21
56.9010144759
 31
0.0
  0
LINE
  5
2D1
330
1F
100
AcDbEntity
  8
0
  6
Continuous
 62
   144
370
    18
100
AcDbLine
 10
30.5539716802
 20
56.9010144759
 30
0.0
 11
30.5539716802
 21
57.0191247121
 31
0.0
  0
LINE
  5
2D2
330
1F
100
AcDbEntity
  8
0
  6
Continuous
 62
   144
370
    18
100
AcDbLine
 10
38.6287748298
 20
56.9010144759
 30
0.0
 11
38.1614088966
 21
56.9010144759
 31
0.0
  0
ARC
  5
2D3
330
1F
100
AcDbEntity
  8
0
  6
Continuous
 62
   144
370
    18
100
AcDbCircle
 10
38.1614088966
 20
57.0584947908
 30
0.0
 40
0.1574803149606847
100
AcDbArc
 50
231.3401917459
 51
270.0
  0
LINE
  5
2D4
330
1F
100
AcDbEntity
  8
0
  6
Continuous
 62
   144
370
    18
100
AcDbLine
 10
38.0630317237
 20
56.9355233248
 30
0.0
 11
37.9585299896
 21
57.0191247121
 31
0.0
  0
LINE
  5
2D5
330
1F
100
AcDbEntity
  8
0
  6
Continuous
 62
   144
370
    18
100
AcDbLine
 10
32.8682324052
 20
56.9201518915
 30
0.0
 11
32.991948431
 21
57.0191247121
 31
0.0
  0
LINE
  5
2D6
330
1F
100
AcDbEntity
  8
0
  6
Continuous
 62
   144
370
    18
100
AcDbLine
 10
38.6287748298
 20
56.8616443971
 30
0.0
 11
38.1614088966
 21
56.8616443971
 31
0.0
  0
LINE
  5
2D7
330
1F
100
AcDbEntity
  8
0
  6
Continuous
 62
   144
370
    18
100
AcDbLine
 10
38.1614088966
 20
56.8616443971
 30
0.0
 11
37.5753354867
 21
56.8616443971
 31
0.0
  0
LINE
  5
2D8
330
1F
100
AcDbEntity
  8
0
  6
Continuous
 62
   144
370
    18
100
AcDbLine
 10
37.5753354867
 20
56.8616443971
 30
0.0
 11
37.5100475972
 21
56.8616443971
 31
0.0
  0
LINE
  5
2D9
330
1F
100
AcDbEntity
  8
0
  6
Continuous
 62
   144
370
    18
100
AcDbLine
 10
32.7828954447
 20
56.8616443971
 30
0.0
 11
32.7575580858
 21
56.8616443971
 31
0.0
  0
LINE
  5
2DA
330
1F
100
AcDbEntity
  8
0
  6
Continuous
 62
   144
370
    18
100
AcDbLine
 10
32.7575580858
 20
56.8616443971
 30
0.0
 11
30.5539716802
 21
56.8616443971
 31
0.0
  0
LINE
  5
2DB
330
1F
100
AcDbEntity
  8
0
  6
Continuous
 62
   144
370
    18
100
AcDbLine
 10
30.3632490176
 20
56.8616443971
 30
0.0
 11
30.5539716802
 21
56.8616443971
 31
0.0
  0
LINE
  5
2DC
330
1F
100
AcDbEntity
  8
0
  6
Continuous
 62
   144
370
    18
100
AcDbLine
 10
30.3632490176
 20
56.8616443971
 30
0.0
 11
30.3545149548
 21
56.8616443971
 31
0.0
  0
LINE
  5
2DD
330
1F
100
AcDbEntity
  8
0
  6
Continuous
 62
   144
370
    18
100
AcDbLine
 10
30.3545149548
 20
56.8616443971
 30
0.0
 11
30.2675346007
 21
56.8616443971
 31
0.0
  0
LINE
  5
2DE
330
1F
100
AcDbEntity
  8
0
  6
Continuous
 62
   144
370
    18
100
AcDbLine
 10
30.2675346007
 20
56.8616443971
 30
0.0
 11
30.2466658161
 21
56.8616443971
 31
0.0
  0
LINE
  5
2DF
330
1F
100
AcDbEntity
  8
0
  6
Continuous
 62
   144
370
    18
100
AcDbLine
 10
28.8927736072
 20
56.8616443971
 30
0.0
 11
28.8719048226
 21
56.8616443971
 31
0.0
  0
LINE
  5
2E0
330
1F
100
AcDbEntity
  8
0
  6
Continuous
 62
   144
370
    18
100
AcDbLine
 10
28.8719048226
 20
56.8616443971
 30
0.0
 11
28.7849244685
 21
56.8616443971
 31
0.0
  0
LINE
  5
2E1
330
1F
100
AcDbEntity
  8
0
  6
Continuous
 62
   144
370
    18
100
AcDbLine
 10
28.7849244685
 20
56.8616443971
 30
0.0
 11
28.7761904057
 21
56.8616443971
 31
0.0
  0
LINE
  5
2E2
330
1F
100
AcDbEntity
  8
0
  6
Continuous
 62
   144
370
    18
100
AcDbLine
 10
28.5854677431
 20
56.8616443971
 30
0.0
 11
28.7761904057
 21
56.8616443971
 31
0.0
  0
LINE
  5
2E3
330
1F
100
AcDbEntity
  8
0
  6
Continuous
 62
     7
370
    25
100
AcDbLine
 10
29.6036413182
 20
56.8813294365
 30
0.0
 11
30.2675346007
 21
56.8813294365
 31
0.0
  0
LINE
  5
2E4
330
1F
100
AcDbEntity
  8
0
  6
Continuous
 62
     7
370
    25
100
AcDbLine
 10
29.5519982794
 20
56.8813294365
 30
0.0
 11
29.6036413182
 21
56.8813294365
 31
0.0
  0
LINE
  5
2E5
330
1F
100
AcDbEntity
  8
0
  6
Continuous
 62
     7
370
    25
100
AcDbLine
 10
28.8719048226
 20
56.8813294365
 30
0.0
 11
29.5519982794
 21
56.8813294365
 31
0.0
  0
LINE
  5
2E6
330
1F
100
AcDbEntity
  8
0
  6
Continuous
 62
     7
370
    25
100
AcDbLine
 10
37.5753354867
 20
56.8813294365
 30
0.0
 11
38.1614088966
 21
56.8813294365
 31
0.0
  0
LINE
  5
2E7
330
1F
100
AcDbEntity
  8
0
  6
Continuous
 62
     7
370
    25
100
AcDbLine
 10
37.5195175428
 20
56.8813294365
 30
0.0
 11
37.5753354867
 21
56.8813294365
 31
0.0
  0
LINE
  5
2E8
330
1F
100
AcDbEntity
  8
0
  6
Continuous
 62
     7
370
    25
100
AcDbLine
 10
32.7824470886
 20
56.8813294365
 30
0.0
 11
32.894901099
 21
56.8813294365
 31
0.0
  0
LINE
  5
2E9
330
1F
100
AcDbEntity
  8
0
  6
Continuous
 62
   144
370
    18
100
AcDbLine
 10
38.1614088966
 20
56.8813294365
 30
0.0
 11
38.6287748298
 21
56.8813294365
 31
0.0
  0
LINE
  5
2EA
330
1F
100
AcDbEntity
  8
0
  6
Continuous
 62
   144
370
    18
100
AcDbLine
 10
28.7761904057
 20
56.8813294365
 30
0.0
 11
28.6051527825
 21
56.8813294365
 31
0.0
  0
LINE
  5
2EB
330
1F
100
AcDbEntity
  8
0
  6
Continuous
 62
   144
370
    18
100
AcDbLine
 10
30.3545149548
 20
56.8813294365
 30
0.0
 11
30.3632490176
 21
56.8813294365
 31
0.0
  0
LINE
  5
2EC
330
1F
100
AcDbEntity
  8
0
  6
Continuous
 62
   144
370
    18
100
AcDbLine
 10
30.5539716802
 20
56.8813294365
 30
0.0
 11
30.3632490176
 21
56.8813294365
 31
0.0
  0
LINE
  5
2ED
330
1F
100
AcDbEntity
  8
0
  6
Continuous
 62
   144
370
    18
100
AcDbLine
 10
37.9270185514
 20
57.0191247121
 30
0.0
 11
38.0507345771
 21
56.9201518915
 31
0.0
  0
ARC
  5
2EE
330
1F
100
AcDbEntity
  8
0
  6
Continuous
 62
   144
370
    18
100
AcDbCircle
 10
38.1614088966
 20
57.0584947908
 30
0.0
 40
0.1771653543307249
100
AcDbArc
 50
231.3401917459
 51
270.0
  0
ARC
  5
2EF
330
1F
100
AcDbEntity
  8
0
  6
Continuous
 62
   144
370
    18
100
AcDbCircle
 10
28.7761904057
 20
56.4876286491
 30
0.0
 40
0.3937007874015773
100
AcDbArc
 50
44.0272172097
 51
90.0
  0
LINE
  5
2F0
330
1F
100
AcDbEntity
  8
0
  6
Continuous
 62
     7
370
    25
100
AcDbLine
 10
11.7901921526
 20
57.0191247121
 30
0.0
 11
11.7901921526
 21
56.7632192003
 31
0.0
  0
LINE
  5
2F1
330
1F
100
AcDbEntity
  8
0
  6
Continuous
 62
     7
370
    25
100
AcDbLine
 10
11.9083023888
 20
57.0191247121
 30
0.0
 11
11.9083023888
 21
56.7632192003
 31
0.0
  0
ELLIPSE
  5
2F2
330
1F
100
AcDbEntity
  8
0
  6
Continuous
 62
     7
370
    25
100
AcDbEllipse
 10
36.6173484259
 20
57.0584947908
 30
0.0
 11
1.435250123704925
 21
-0.1413361772324677
 31
0.0
210
0.0
220
0.0
230
1.0
 40
0.0355345854
 41
5.436274009177891
 42
6.337774821831702
  0
LINE
  5
2F3
330
1F
100
AcDbEntity
  8
0
  6
Continuous
 62
   144
370
    18
100
AcDbLine
 10
37.5641523486
 20
56.9266758557
 30
0.0
 11
37.4868685268
 21
56.9196557032
 31
0.0
  0
ARC
  5
2F4
330
1F
100
AcDbEntity
  8
0
  6
Continuous
 62
   144
370
    18
100
AcDbCircle
 10
28.784682115
 20
56.4911855552
 30
0.0
 40
0.3901439566120964
100
AcDbArc
 50
43.8060362601
 51
89.9644084277
  0
ARC
  5
2F5
330
1F
100
AcDbEntity
  8
0
  6
Continuous
 62
   144
370
    18
100
AcDbCircle
 10
30.3547573083
 20
56.4911855552
 30
0.0
 40
0.3901439566114863
100
AcDbArc
 50
90.0355915723
 51
136.1939637399
  0
ARC
  5
2F6
330
1F
100
AcDbEntity
  8
0
  6
Continuous
 62
   144
370
    18
100
AcDbCircle
 10
37.6411737161
 20
56.9216183547
 30
0.0
 40
0.077187235820349
100
AcDbArc
 50
176.2431455794
 51
211.464050188
  0
LWPOLYLINE
  5
2F7
330
1F
100
AcDbEntity
  8
0
  6
Continuous
 62
     7
370
    25
100
AcDbPolyline
 90
        3
 70
   128
 43
0.0
 10
32.9287486383
 20
56.968564878
 10
32.9499753058
 20
56.9786902284
 10
32.976607873
 20
56.9798426828
  0
LWPOLYLINE
  5
2F8
330
1F
100
AcDbEntity
  8
0
  6
Continuous
 62
     7
370
    25
100
AcDbPolyline
 90
        3
 70
   128
 43
0.0
 10
32.976607873
 20
56.9798426828
 10
33.0070367618
 20
56.971952591
 10
33.0394229578
 20
56.9554968021
  0
LINE
  5
2F9
330
1F
100
AcDbEntity
  8
0
  6
Continuous
 62
     7
370
    25
100
AcDbLine
 10
33.0394229578
 20
56.9554968021
 30
0.0
 11
32.9106786599
 21
56.8525013638
 31
0.0
  0
LINE
  5
2FA
330
1F
100
AcDbEntity
  8
0
  6
Continuous
 62
   144
370
    18
100
AcDbLine
 10
30.9177651976
 20
56.8525013638
 30
0.0
 11
32.9106786599
 21
56.8525013638
 31
0.0
  0
LWPOLYLINE
  5
2FB
330
1F
100
AcDbEntity
  8
0
  6
Continuous
 62
   144
370
    18
100
AcDbPolyline
 90
        3
 70
   128
 43
0.0
 10
30.9177651976
 20
56.8525013638
 10
30.902454365
 20
56.8470043849
 10
30.901740709
 20
56.8467357492
  0
LINE
  5
2FC
330
1F
100
AcDbEntity
  8
0
  6
Continuous
 62
   144
370
    18
100
AcDbLine
 10
30.901740709
 20
56.8467357492
 30
0.0
 11
30.901740709
 21
56.8117323124
 31
0.0
  0
LINE
  5
2FD
330
1F
100
AcDbEntity
  8
0
  6
Continuous
 62
     7
370
    25
100
AcDbLine
 10
37.3315406775
 20
56.8117323124
 30
0.0
 11
30.901740709
 21
56.8117323124
 31
0.0
  0
ARC
  5
2FE
330
1F
100
AcDbEntity
  8
0
  6
Continuous
 62
     7
370
    25
100
AcDbCircle
 10
37.5753354867
 20
56.6379443768
 30
0.0
 40
0.2952755905512269
100
AcDbArc
 50
107.4340664824
 51
135.0
  0
LINE
  5
2FF
330
1F
100
AcDbEntity
  8
0
  6
Continuous
 62
   144
370
    18
100
AcDbLine
 10
37.3665441143
 20
56.8467357492
 30
0.0
 11
37.3315406775
 21
56.8117323124
 31
0.0
  0
LINE
  5
300
330
1F
100
AcDbEntity
  8
0
  6
Continuous
 62
   144
370
    18
100
AcDbLine
 10
11.9083023888
 20
56.9974711688
 30
0.0
 11
11.9279874282
 21
56.9974711688
 31
0.0
  0
LINE
  5
301
330
1F
100
AcDbEntity
  8
0
  6
Continuous
 62
   144
370
    18
100
AcDbLine
 10
11.9279874282
 20
56.7632192003
 30
0.0
 11
11.9279874282
 21
56.9974711688
 31
0.0
  0
ARC
  5
302
330
1F
100
AcDbEntity
  8
0
  6
Continuous
 62
   144
370
    18
100
AcDbCircle
 10
32.7891637937
 20
56.8034857675
 30
0.0
 40
0.1310282083691905
100
AcDbArc
 50
21.9677286249
 51
53.6691129468
  0
ARC
  5
303
330
1F
100
AcDbEntity
  8
0
  6
Continuous
 62
   144
370
    18
100
AcDbCircle
 10
32.7817162126
 20
57.025756656
 30
0.0
 40
0.144429068831511
100
AcDbArc
 50
270.2899436397
 51
306.0891213159
  0
LINE
  5
304
330
1F
100
AcDbEntity
  8
0
  6
Continuous
 62
     7
370
    25
100
AcDbLine
 10
30.6082504068
 20
56.8467357492
 30
0.0
 11
30.901740709
 21
56.8467357492
 31
0.0
  0
ARC
  5
305
330
1F
100
AcDbEntity
  8
0
  6
Continuous
 62
     7
370
    25
100
AcDbCircle
 10
31.0951728639
 20
56.5521988114
 30
0.0
 40
0.3487909158672129
100
AcDbArc
 50
109.3290905224
 51
120.5730265585
  0
ARC
  5
306
330
1F
100
AcDbEntity
  8
0
  6
Continuous
 62
   144
370
    18
100
AcDbCircle
 10
30.5247338578
 20
56.7632192003
 30
0.0
 40
0.1181102362204853
100
AcDbArc
 50
45.0
 51
90.0
  0
ARC
  5
307
330
1F
100
AcDbEntity
  8
0
  6
Continuous
 62
   144
370
    18
100
AcDbCircle
 10
32.7621100842
 20
56.4912567822
 30
0.0
 40
0.3906024441838786
100
AcDbArc
 50
67.6441701939
 51
87.0155035311
  0
LWPOLYLINE
  5
308
330
1F
100
AcDbEntity
  8
0
  6
Continuous
 62
   144
370
    18
100
AcDbPolyline
 90
        9
 70
   128
 43
0.0
 10
37.4868685268
 20
56.9196557032
 10
37.4943187186
 20
56.9084678101
 10
37.5016887222
 20
56.8987486987
 10
37.5088992123
 20
56.8906029782
 10
37.5158725808
 20
56.8841183231
 10
37.5225337716
 20
56.8793645291
 10
37.5288110885
 20
56.8763927626
 10
37.5346369674
 20
56.8752350095
 10
37.5399487028
 20
56.8759037308
  0
ARC
  5
309
330
1F
100
AcDbEntity
  8
0
  6
Continuous
 62
   144
370
    18
100
AcDbCircle
 10
37.5753354867
 20
56.7632192003
 30
0.0
 40
0.1181102362205422
100
AcDbArc
 50
107.4340664825
 51
135.0
  0
ARC
  5
30A
330
1F
100
AcDbEntity
  8
0
  6
Continuous
 62
   144
370
    18
100
AcDbCircle
 10
37.4291815261
 20
56.9366683456
 30
0.0
 40
0.1095961551691941
100
AcDbArc
 50
235.1430638682
 51
304.8569361318
  0
LINE
  5
30B
330
1F
100
AcDbEntity
  8
0
  6
Continuous
 62
     7
370
    25
100
AcDbLine
 10
30.901740709
 20
56.8117323124
 30
0.0
 11
30.6432538437
 21
56.8117323124
 31
0.0
  0
LINE
  5
30C
330
1F
100
AcDbEntity
  8
0
  6
Continuous
 62
     7
370
    25
100
AcDbLine
 10
30.6432538437
 20
56.8117323124
 30
0.0
 11
30.6082504068
 21
56.8467357492
 31
0.0
  0
LINE
  5
30D
330
1F
100
AcDbEntity
  8
0
  6
Continuous
 62
     7
370
    25
100
AcDbLine
 10
37.3315406775
 20
56.8117323124
 30
0.0
 11
37.3315406775
 21
56.7829042397
 31
0.0
  0
LINE
  5
30E
330
1F
100
AcDbEntity
  8
0
  6
Continuous
 62
     7
370
    25
100
AcDbLine
 10
37.3872183768
 20
56.7829042397
 30
0.0
 11
37.3315406775
 21
56.7829042397
 31
0.0
  0
ARC
  5
30F
330
1F
100
AcDbEntity
  8
0
  6
Continuous
 62
   144
370
    18
100
AcDbCircle
 10
37.3872183768
 20
56.8813294365
 30
0.0
 40
0.0984251968503997
100
AcDbArc
 50
270.0
 51
315.0
  0
ELLIPSE
  5
310
330
1F
100
AcDbEntity
  8
0
  6
Continuous
 62
   144
370
    18
100
AcDbEllipse
 10
37.2758629782
 20
56.8813294365
 30
0.0
 11
0.1845913298890878
 21
-0.06392779621987899
 31
0.0
210
0.0
220
0.0
230
1.0
 40
0.2638200976
 41
5.108588891199083
 42
6.155786442394676
  0
LINE
  5
311
330
1F
100
AcDbEntity
  8
0
  6
Continuous
 62
     7
370
    25
100
AcDbLine
 10
30.7128509678
 20
56.7829042397
 30
0.0
 11
30.901740709
 21
56.7829042397
 31
0.0
  0
LINE
  5
312
330
1F
100
AcDbEntity
  8
0
  6
Continuous
 62
     7
370
    25
100
AcDbLine
 10
30.901740709
 20
56.7829042397
 30
0.0
 11
30.901740709
 21
56.8117323124
 31
0.0
  0
ARC
  5
313
330
1F
100
AcDbEntity
  8
0
  6
Continuous
 62
   144
370
    18
100
AcDbCircle
 10
30.7128509678
 20
56.8813294365
 30
0.0
 40
0.0984251968503997
100
AcDbArc
 50
225.0
 51
270.0
  0
LINE
  5
314
330
1F
100
AcDbEntity
  8
0
  6
Continuous
 62
     7
370
    25
100
AcDbLine
 10
30.901740709
 20
56.7829042397
 30
0.0
 11
37.3315406775
 21
56.7829042397
 31
0.0
  0
LINE
  5
315
330
1F
100
AcDbEntity
  8
0
  6
Continuous
 62
   144
370
    18
100
AcDbLine
 10
37.4568155009
 20
56.8117323124
 30
0.0
 11
37.4918189378
 21
56.8467357492
 31
0.0
  0
LINE
  5
316
330
1F
100
AcDbEntity
  8
0
  6
Continuous
 62
   144
370
    18
100
AcDbLine
 10
11.9279874282
 20
57.0191247121
 30
0.0
 11
11.9279874282
 21
56.9974711688
 31
0.0
  0
ARC
  5
317
330
1F
100
AcDbEntity
  8
0
  6
Continuous
 62
   144
370
    18
100
AcDbCircle
 10
37.5753354867
 20
56.7632192003
 30
0.0
 40
0.1181102362205422
100
AcDbArc
 50
90.0
 51
107.4340664825
  0
LINE
  5
318
330
1F
100
AcDbEntity
  8
0
  6
Continuous
 62
   144
370
    18
100
AcDbLine
 10
37.3295622313
 20
56.8117323124
 30
0.0
 11
37.4568155009
 21
56.8117323124
 31
0.0
  0
LINE
  5
319
330
1F
100
AcDbEntity
  8
0
  6
Continuous
 62
   144
370
    18
100
AcDbLine
 10
38.5421606565
 20
56.8537703814
 30
0.0
 11
38.4004283731
 21
56.8537703814
 31
0.0
  0
LINE
  5
31A
330
1F
100
AcDbEntity
  8
0
  6
Continuous
 62
   144
370
    18
100
AcDbLine
 10
38.5421606565
 20
56.8537703814
 30
0.0
 11
38.6287748298
 21
56.8537703814
 31
0.0
  0
LINE
  5
31B
330
1F
100
AcDbEntity
  8
0
  6
Continuous
 62
   144
370
    18
100
AcDbLine
 10
38.2823181368
 20
56.8537703814
 30
0.0
 11
38.4004283731
 21
56.8537703814
 31
0.0
  0
LINE
  5
31C
330
1F
100
AcDbEntity
  8
0
  6
Continuous
 62
     7
370
    25
100
AcDbLine
 10
38.0933417589
 20
56.8813294365
 30
0.0
 11
38.0933417589
 21
56.8616443971
 31
0.0
  0
LINE
  5
31D
330
1F
100
AcDbEntity
  8
0
  6
Continuous
 62
   144
370
    18
100
AcDbLine
 10
38.2114519951
 20
56.8616443971
 30
0.0
 11
38.2114519951
 21
56.8813294365
 31
0.0
  0
LINE
  5
31E
330
1F
100
AcDbEntity
  8
0
  6
Continuous
 62
   144
370
    18
100
AcDbLine
 10
38.1720819164
 20
56.7868412475
 30
0.0
 11
38.1720819164
 21
56.7632192003
 31
0.0
  0
LINE
  5
31F
330
1F
100
AcDbEntity
  8
0
  6
Continuous
 62
   144
370
    18
100
AcDbLine
 10
38.2508220739
 20
56.7868412475
 30
0.0
 11
38.1720819164
 21
56.7868412475
 31
0.0
  0
LINE
  5
320
330
1F
100
AcDbEntity
  8
0
  6
Continuous
 62
   144
370
    18
100
AcDbLine
 10
38.2508220739
 20
56.7868412475
 30
0.0
 11
38.2823181368
 21
56.7868412475
 31
0.0
  0
LINE
  5
321
330
1F
100
AcDbEntity
  8
0
  6
Continuous
 62
   144
370
    18
100
AcDbLine
 10
38.2823181368
 20
56.7868412475
 30
0.0
 11
38.2823181368
 21
56.8537703814
 31
0.0
  0
LINE
  5
322
330
1F
100
AcDbEntity
  8
0
  6
Continuous
 62
     7
370
    25
100
AcDbLine
 10
12.2272000266
 20
56.7632192003
 30
0.0
 11
12.2272000266
 21
57.0191247121
 31
0.0
  0
LINE
  5
323
330
1F
100
AcDbEntity
  8
0
  6
Continuous
 62
   144
370
    18
100
AcDbLine
 10
38.0933417589
 20
56.8616443971
 30
0.0
 11
38.0933417589
 21
56.7632192003
 31
0.0
  0
LINE
  5
324
330
1F
100
AcDbEntity
  8
0
  6
Continuous
 62
   144
370
    18
100
AcDbLine
 10
38.1720819164
 20
56.7868412475
 30
0.0
 11
38.1720819164
 21
56.8537703814
 31
0.0
  0
LINE
  5
325
330
1F
100
AcDbEntity
  8
0
  6
Continuous
 62
   144
370
    18
100
AcDbLine
 10
28.6642079006
 20
56.9134643879
 30
0.0
 11
28.6051527825
 21
56.972519506
 31
0.0
  0
LINE
  5
326
330
1F
100
AcDbEntity
  8
0
  6
Continuous
 62
   144
370
    18
100
AcDbLine
 10
28.7232630187
 20
56.8616443971
 30
0.0
 11
28.7232630187
 21
56.8813294365
 31
0.0
  0
LINE
  5
327
330
1F
100
AcDbEntity
  8
0
  6
Continuous
 62
   144
370
    18
100
AcDbLine
 10
12.2744441211
 20
57.0191247121
 30
0.0
 11
12.2744441211
 21
56.7632192003
 31
0.0
  0
LINE
  5
328
330
1F
100
AcDbEntity
  8
0
  6
Continuous
 62
   144
370
    18
100
AcDbLine
 10
28.5382236487
 20
57.0191247121
 30
0.0
 11
28.5382236487
 21
56.9443215625
 31
0.0
  0
LINE
  5
329
330
1F
100
AcDbEntity
  8
0
  6
Continuous
 62
   144
370
    18
100
AcDbLine
 10
28.5382236487
 20
56.8813294365
 30
0.0
 11
28.5382236487
 21
56.7868412475
 31
0.0
  0
LINE
  5
32A
330
1F
100
AcDbEntity
  8
0
  6
Continuous
 62
   144
370
    18
100
AcDbLine
 10
28.7232630187
 20
56.8616443971
 30
0.0
 11
28.7232630187
 21
56.7868412475
 31
0.0
  0
LINE
  5
32B
330
1F
100
AcDbEntity
  8
0
  6
Continuous
 62
   144
370
    18
100
AcDbLine
 10
38.0933417589
 20
56.7868412475
 30
0.0
 11
38.1720819164
 21
56.7868412475
 31
0.0
  0
LINE
  5
32C
330
1F
100
AcDbEntity
  8
0
  6
Continuous
 62
   144
370
    18
100
AcDbLine
 10
11.809877192
 20
57.0191247121
 30
0.0
 11
11.809877192
 21
56.7632192003
 31
0.0
  0
LINE
  5
32D
330
1F
100
AcDbEntity
  8
0
  6
Continuous
 62
   144
370
    18
100
AcDbLine
 10
37.5057383626
 20
56.8328163244
 30
0.0
 11
37.4707349257
 21
56.7978128875
 31
0.0
  0
LINE
  5
32E
330
1F
100
AcDbEntity
  8
0
  6
Continuous
 62
   144
370
    18
100
AcDbLine
 10
33.0234598691
 20
57.0191247121
 30
0.0
 11
32.8805295518
 21
56.9047804583
 31
0.0
  0
LINE
  5
32F
330
1F
100
AcDbEntity
  8
0
  6
Continuous
 62
   144
370
    18
100
AcDbLine
 10
38.7966535435
 20
34.1844790428
 30
0.0
 11
38.7744441211
 21
34.10159235
 31
0.0
  0
LINE
  5
330
330
1F
100
AcDbEntity
  8
0
  6
Continuous
 62
   144
370
    18
100
AcDbLine
 10
38.8283010859
 20
34.302589279
 30
0.0
 11
38.7966535435
 21
34.1844790428
 31
0.0
  0
LINE
  5
331
330
1F
100
AcDbEntity
  8
0
  6
Continuous
 62
   144
370
    18
100
AcDbLine
 10
38.7744441211
 20
34.086053846
 30
0.0
 11
38.7744441211
 21
34.10159235
 31
0.0
  0
LINE
  5
332
330
1F
100
AcDbEntity
  8
0
  6
Continuous
 62
   144
370
    18
100
AcDbLine
 10
38.7429480581
 20
34.086053846
 30
0.0
 11
38.7429480581
 21
34.1057388853
 31
0.0
  0
LINE
  5
333
330
1F
100
AcDbEntity
  8
0
  6
Continuous
 62
   144
370
    18
100
AcDbLine
 10
38.7640464197
 20
34.1844790428
 30
0.0
 11
38.7429480581
 21
34.1057388853
 31
0.0
  0
LINE
  5
334
330
1F
100
AcDbEntity
  8
0
  6
Continuous
 62
   144
370
    18
100
AcDbLine
 10
38.7640464197
 20
34.1844790428
 30
0.0
 11
38.7966535435
 21
34.1844790428
 31
0.0
  0
LINE
  5
335
330
1F
100
AcDbEntity
  8
0
  6
Continuous
 62
   144
370
    18
100
AcDbLine
 10
11.6026283995
 20
34.1844790428
 30
0.0
 11
11.5709808571
 21
34.302589279
 31
0.0
  0
LINE
  5
336
330
1F
100
AcDbEntity
  8
0
  6
Continuous
 62
   144
370
    18
100
AcDbLine
 10
11.6248378219
 20
34.10159235
 30
0.0
 11
11.6026283995
 21
34.1844790428
 31
0.0
  0
LINE
  5
337
330
1F
100
AcDbEntity
  8
0
  6
Continuous
 62
   144
370
    18
100
AcDbLine
 10
11.6248378219
 20
34.10159235
 30
0.0
 11
11.6248378219
 21
34.086053846
 31
0.0
  0
LINE
  5
338
330
1F
100
AcDbEntity
  8
0
  6
Continuous
 62
   144
370
    18
100
AcDbLine
 10
12.2862551447
 20
11.6451089641
 30
0.0
 11
12.2862551447
 21
11.7553451845
 31
0.0
  0
LINE
  5
339
330
1F
100
AcDbEntity
  8
0
  6
Continuous
 62
   144
370
    18
100
AcDbLine
 10
38.1130267983
 20
11.7553451845
 30
0.0
 11
38.1130267983
 21
11.6451089641
 31
0.0
  0
LINE
  5
33A
330
1F
100
AcDbEntity
  8
0
  6
Continuous
 62
   144
370
    18
100
AcDbLine
 10
12.3059401841
 20
11.7553451845
 30
0.0
 11
12.3059401841
 21
11.6451089641
 31
0.0
  0
CIRCLE
  5
33B
330
1F
100
AcDbEntity
  8
0
  6
Continuous
 62
   144
370
    18
100
AcDbCircle
 10
37.4043653809
 20
11.2632192003
 30
0.0
 40
0.0610236220472373
  0
CIRCLE
  5
33C
330
1F
100
AcDbEntity
  8
0
  6
Continuous
 62
     7
370
    25
100
AcDbCircle
 10
37.4043653809
 20
11.2632192003
 30
0.0
 40
0.080708661417324
  0
LINE
  5
33D
330
1F
100
AcDbEntity
  8
0
  6
Continuous
 62
     7
370
    25
100
AcDbLine
 10
37.68389294
 20
11.4994396727
 30
0.0
 11
36.9673575069
 21
11.4994396727
 31
0.0
  0
LINE
  5
33E
330
1F
100
AcDbEntity
  8
0
  6
Continuous
 62
     7
370
    25
100
AcDbLine
 10
12.3256252235
 20
34.1214869168
 30
0.0
 11
12.4043653809
 21
34.1214869168
 31
0.0
  0
LINE
  5
33F
330
1F
100
AcDbEntity
  8
0
  6
Continuous
 62
     7
370
    25
100
AcDbLine
 10
37.9428348433
 20
34.1214869168
 30
0.0
 11
38.0736567195
 21
34.1214869168
 31
0.0
  0
LINE
  5
340
330
1F
100
AcDbEntity
  8
0
  6
Continuous
 62
   144
370
    18
100
AcDbLine
 10
38.0736567195
 20
34.1214869168
 30
0.0
 11
38.0736567195
 21
34.1018018775
 31
0.0
  0
LINE
  5
341
330
1F
100
AcDbEntity
  8
0
  6
Continuous
 62
   144
370
    18
100
AcDbLine
 10
12.3256252235
 20
34.1018018775
 30
0.0
 11
12.3256252235
 21
34.1214869168
 31
0.0
  0
LINE
  5
342
330
1F
100
AcDbEntity
  8
0
  6
Continuous
 62
   144
370
    18
100
AcDbLine
 10
38.0736567195
 20
34.1018018775
 30
0.0
 11
12.3256252235
 21
34.1018018775
 31
0.0
  0
CIRCLE
  5
343
330
1F
100
AcDbEntity
  8
0
  6
Continuous
 62
   144
370
    18
100
AcDbCircle
 10
19.6878299479
 20
11.1844790428
 30
0.0
 40
0.080708661417324
  0
CIRCLE
  5
344
330
1F
100
AcDbEntity
  8
0
  6
Continuous
 62
   144
370
    18
100
AcDbCircle
 10
31.8925543573
 20
11.1844790428
 30
0.0
 40
0.080708661417324
  0
CIRCLE
  5
345
330
1F
100
AcDbEntity
  8
0
  6
Continuous
 62
   144
370
    18
100
AcDbCircle
 10
26.3807433337
 20
11.1844790428
 30
0.0
 40
0.080708661417324
  0
CIRCLE
  5
346
330
1F
100
AcDbEntity
  8
0
  6
Continuous
 62
   144
370
    18
100
AcDbCircle
 10
12.994916562
 20
11.1844790428
 30
0.0
 40
0.080708661417324
  0
ARC
  5
347
330
1F
100
AcDbEntity
  8
0
  6
Continuous
 62
   144
370
    18
100
AcDbCircle
 10
38.0933417589
 20
34.0939278617
 30
0.0
 40
0.0196850393700821
100
AcDbArc
 50
180.0
 51
203.5781784782
  0
ARC
  5
348
330
1F
100
AcDbEntity
  8
0
  6
Continuous
 62
   144
370
    18
100
AcDbCircle
 10
12.3059401841
 20
34.0939278617
 30
0.0
 40
0.0196850393700796
100
AcDbArc
 50
336.4218215218
 51
0.0
  0
LINE
  5
349
330
1F
100
AcDbEntity
  8
0
  6
Continuous
 62
   144
370
    18
100
AcDbLine
 10
37.68389294
 20
11.5191247121
 30
0.0
 11
36.9673575069
 21
11.5191247121
 31
0.0
  0
LINE
  5
34A
330
1F
100
AcDbEntity
  8
0
  6
Continuous
 62
   144
370
    18
100
AcDbLine
 10
38.0933417589
 20
11.7553451845
 30
0.0
 11
38.0933417589
 21
11.6451089641
 31
0.0
  0
ARC
  5
34B
330
1F
100
AcDbEntity
  8
0
  6
Continuous
 62
   144
370
    18
100
AcDbCircle
 10
37.4043653809
 20
11.8144003027
 30
0.0
 40
0.1635459024745742
100
AcDbArc
 50
270.0
 51
338.8327249576
  0
LINE
  5
34C
330
1F
100
AcDbEntity
  8
0
  6
Continuous
 62
   144
370
    18
100
AcDbLine
 10
37.4043653809
 20
11.6508544002
 30
0.0
 11
37.1681449085
 21
11.6508544002
 31
0.0
  0
LINE
  5
34D
330
1F
100
AcDbEntity
  8
0
  6
Continuous
 62
   144
370
    18
100
AcDbLine
 10
37.0074512187
 20
11.6508544002
 30
0.0
 11
12.994916562
 21
11.6508544002
 31
0.0
  0
ARC
  5
34E
330
1F
100
AcDbEntity
  8
0
  6
Continuous
 62
   144
370
    18
100
AcDbCircle
 10
12.994916562
 20
11.8144003027
 30
0.0
 40
0.1635459024745742
100
AcDbArc
 50
201.1672750424
 51
270.0
  0
LINE
  5
34F
330
1F
100
AcDbEntity
  8
0
  6
Continuous
 62
     7
370
    25
100
AcDbLine
 10
12.994916562
 20
11.7056857008
 30
0.0
 11
12.994916562
 21
11.6508544002
 31
0.0
  0
ARC
  5
350
330
1F
100
AcDbEntity
  8
0
  6
Continuous
 62
   144
370
    18
100
AcDbCircle
 10
12.994916562
 20
11.8144003027
 30
0.0
 40
0.1087146018317355
100
AcDbArc
 50
212.902588709
 51
270.0
  0
LINE
  5
351
330
1F
100
AcDbEntity
  8
0
  6
Continuous
 62
     7
370
    25
100
AcDbLine
 10
37.4043653809
 20
11.6508544002
 30
0.0
 11
37.4043653809
 21
11.7056857008
 31
0.0
  0
ARC
  5
352
330
1F
100
AcDbEntity
  8
0
  6
Continuous
 62
   144
370
    18
100
AcDbCircle
 10
37.4043653809
 20
11.8144003027
 30
0.0
 40
0.10871460183174
100
AcDbArc
 50
270.0
 51
327.097411291
  0
LINE
  5
353
330
1F
100
AcDbEntity
  8
0
  6
Continuous
 62
     7
370
    25
100
AcDbLine
 10
37.4043653809
 20
11.7056857008
 30
0.0
 11
12.994916562
 21
11.7056857008
 31
0.0
  0
LINE
  5
354
330
1F
100
AcDbEntity
  8
0
  6
Continuous
 62
     7
370
    25
100
AcDbLine
 10
12.994916562
 20
11.7074836855
 30
0.0
 11
37.4043653809
 21
11.7074836855
 31
0.0
  0
LINE
  5
355
330
1F
100
AcDbEntity
  8
0
  6
Continuous
 62
   144
370
    18
100
AcDbLine
 10
37.4043653809
 20
11.7074836855
 30
0.0
 11
37.4043653809
 21
11.7056857008
 31
0.0
  0
LINE
  5
356
330
1F
100
AcDbEntity
  8
0
  6
Continuous
 62
   144
370
    18
100
AcDbLine
 10
12.994916562
 20
11.7074836855
 30
0.0
 11
12.994916562
 21
11.7056857008
 31
0.0
  0
LINE
  5
357
330
1F
100
AcDbEntity
  8
0
  6
Continuous
 62
   144
370
    18
100
AcDbLine
 10
12.994916562
 20
11.7074836855
 30
0.0
 11
12.994916562
 21
11.7553451845
 31
0.0
  0
LINE
  5
358
330
1F
100
AcDbEntity
  8
0
  6
Continuous
 62
   144
370
    18
100
AcDbLine
 10
37.4043653809
 20
11.7074836855
 30
0.0
 11
37.4043653809
 21
11.7553451845
 31
0.0
  0
CIRCLE
  5
359
330
1F
100
AcDbEntity
  8
0
  6
Continuous
 62
   144
370
    18
100
AcDbCircle
 10
31.8925543573
 20
11.1844790428
 30
0.0
 40
0.0610236220472409
  0
CIRCLE
  5
35A
330
1F
100
AcDbEntity
  8
0
  6
Continuous
 62
   144
370
    18
100
AcDbCircle
 10
26.3807433337
 20
11.1844790428
 30
0.0
 40
0.0610236220472444
  0
LINE
  5
35B
330
1F
100
AcDbEntity
  8
0
  6
Continuous
 62
   144
370
    18
100
AcDbLine
 10
12.3138141998
 20
11.0466837672
 30
0.0
 11
12.3138141998
 21
11.1254239247
 31
0.0
  0
LINE
  5
35C
330
1F
100
AcDbEntity
  8
0
  6
Continuous
 62
   144
370
    18
100
AcDbLine
 10
12.3138141998
 20
11.4049514838
 30
0.0
 11
12.3138141998
 21
11.1254239247
 31
0.0
  0
LINE
  5
35D
330
1F
100
AcDbEntity
  8
0
  6
Continuous
 62
   144
370
    18
100
AcDbLine
 10
38.0854677431
 20
11.4049514838
 30
0.0
 11
38.0854677431
 21
11.1254239247
 31
0.0
  0
LINE
  5
35E
330
1F
100
AcDbEntity
  8
0
  6
Continuous
 62
   144
370
    18
100
AcDbLine
 10
38.0854677431
 20
11.1254239247
 30
0.0
 11
38.0854677431
 21
11.0466837672
 31
0.0
  0
CIRCLE
  5
35F
330
1F
100
AcDbEntity
  8
0
  6
Continuous
 62
   144
370
    18
100
AcDbCircle
 10
12.994916562
 20
11.1844790428
 30
0.0
 40
0.0610236220472444
  0
LINE
  5
360
330
1F
100
AcDbEntity
  8
0
  6
Continuous
 62
   144
370
    18
100
AcDbLine
 10
38.0736567195
 20
34.086053846
 30
0.0
 11
38.0736567195
 21
34.1018018775
 31
0.0
  0
LINE
  5
361
330
1F
100
AcDbEntity
  8
0
  6
Continuous
 62
   144
370
    18
100
AcDbLine
 10
12.3256252235
 20
34.086053846
 30
0.0
 11
12.3256252235
 21
34.1018018775
 31
0.0
  0
LINE
  5
362
330
1F
100
AcDbEntity
  8
0
  6
Continuous
 62
   144
370
    18
100
AcDbLine
 10
12.2744441211
 20
34.1844790428
 30
0.0
 11
12.2862551447
 21
34.1844790428
 31
0.0
  0
LINE
  5
363
330
1F
100
AcDbEntity
  8
0
  6
Continuous
 62
   144
370
    18
100
AcDbLine
 10
12.2862551447
 20
34.1844790428
 30
0.0
 11
12.2862551447
 21
34.460069594
 31
0.0
  0
LINE
  5
364
330
1F
100
AcDbEntity
  8
0
  6
Continuous
 62
   144
370
    18
100
AcDbLine
 10
38.1130267983
 20
34.460069594
 30
0.0
 11
38.1130267983
 21
34.1844790428
 31
0.0
  0
LINE
  5
365
330
1F
100
AcDbEntity
  8
0
  6
Continuous
 62
   144
370
    18
100
AcDbLine
 10
38.1130267983
 20
34.1844790428
 30
0.0
 11
38.1248378219
 21
34.1844790428
 31
0.0
  0
LINE
  5
366
330
1F
100
AcDbEntity
  8
0
  6
Continuous
 62
   144
370
    18
100
AcDbLine
 10
12.3059401841
 20
34.460069594
 30
0.0
 11
12.3059401841
 21
34.1844790428
 31
0.0
  0
LINE
  5
367
330
1F
100
AcDbEntity
  8
0
  6
Continuous
 62
   144
370
    18
100
AcDbLine
 10
38.0933417589
 20
34.1844790428
 30
0.0
 11
38.1130267983
 21
34.1844790428
 31
0.0
  0
ARC
  5
368
330
1F
100
AcDbEntity
  8
0
  6
Continuous
 62
   144
370
    18
100
AcDbCircle
 10
38.0933417589
 20
34.2041640822
 30
0.0
 40
0.0196850393700814
100
AcDbArc
 50
270.0
 51
0.0
  0
ARC
  5
369
330
1F
100
AcDbEntity
  8
0
  6
Continuous
 62
   144
370
    18
100
AcDbCircle
 10
12.3059401841
 20
34.2041640822
 30
0.0
 40
0.0196850393700814
100
AcDbArc
 50
180.0
 51
270.0
  0
LINE
  5
36A
330
1F
100
AcDbEntity
  8
0
  6
Continuous
 62
   144
370
    18
100
AcDbLine
 10
12.2862551447
 20
34.1844790428
 30
0.0
 11
12.3059401841
 21
34.1844790428
 31
0.0
  0
LINE
  5
36B
330
1F
100
AcDbEntity
  8
0
  6
Continuous
 62
     7
370
    25
100
AcDbLine
 10
37.9428348433
 20
34.1844790428
 30
0.0
 11
12.4043653809
 21
34.1844790428
 31
0.0
  0
LINE
  5
36C
330
1F
100
AcDbEntity
  8
0
  6
Continuous
 62
   144
370
    18
100
AcDbLine
 10
37.994916562
 20
34.1844790428
 30
0.0
 11
37.9428348433
 21
34.1844790428
 31
0.0
  0
LINE
  5
36D
330
1F
100
AcDbEntity
  8
0
  6
Continuous
 62
   144
370
    18
100
AcDbLine
 10
12.4043653809
 20
34.086053846
 30
0.0
 11
12.4043653809
 21
34.1018018775
 31
0.0
  0
LINE
  5
36E
330
1F
100
AcDbEntity
  8
0
  6
Continuous
 62
   144
370
    18
100
AcDbLine
 10
12.4043653809
 20
34.1210891983
 30
0.0
 11
12.4043653809
 21
34.1844790428
 31
0.0
  0
LINE
  5
36F
330
1F
100
AcDbEntity
  8
0
  6
Continuous
 62
   144
370
    18
100
AcDbLine
 10
37.9428348433
 20
34.1844790428
 30
0.0
 11
37.9428348433
 21
34.1210891983
 31
0.0
  0
LINE
  5
370
330
1F
100
AcDbEntity
  8
0
  6
Continuous
 62
   144
370
    18
100
AcDbLine
 10
37.9428348433
 20
34.1018018775
 30
0.0
 11
37.9428348433
 21
34.086053846
 31
0.0
  0
ARC
  5
371
330
1F
100
AcDbEntity
  8
0
  6
Continuous
 62
   144
370
    18
100
AcDbCircle
 10
12.3649953022
 20
34.1844790428
 30
0.0
 40
0.0393700787400029
100
AcDbArc
 50
359.9999999999
 51
30.0000000001
  0
ARC
  5
372
330
1F
100
AcDbEntity
  8
0
  6
Continuous
 62
   144
370
    18
100
AcDbCircle
 10
38.0342866408
 20
34.1844790428
 30
0.0
 40
0.0393700787399851
100
AcDbArc
 50
150.0
 51
180.0000000001
  0
LINE
  5
373
330
1F
100
AcDbEntity
  8
0
  6
Continuous
 62
   144
370
    18
100
AcDbLine
 10
38.0933417589
 20
34.2238491215
 30
0.0
 11
38.1130267983
 21
34.2238491215
 31
0.0
  0
ARC
  5
374
330
1F
100
AcDbEntity
  8
0
  6
Continuous
 62
   144
370
    18
100
AcDbCircle
 10
38.0933417589
 20
56.7789672318
 30
0.0
 40
0.0196850393700814
100
AcDbArc
 50
180.0
 51
233.1301023541
  0
LINE
  5
375
330
1F
100
AcDbEntity
  8
0
  6
Continuous
 62
   144
370
    18
100
AcDbLine
 10
38.0736567195
 20
56.7789672318
 30
0.0
 11
38.0736567195
 21
56.7868412475
 31
0.0
  0
LINE
  5
376
330
1F
100
AcDbEntity
  8
0
  6
Continuous
 62
   144
370
    18
100
AcDbLine
 10
38.0736567195
 20
56.7868412475
 30
0.0
 11
37.4147774319
 21
56.7868412475
 31
0.0
  0
LINE
  5
377
330
1F
100
AcDbEntity
  8
0
  6
Continuous
 62
   144
370
    18
100
AcDbLine
 10
30.6852919127
 20
56.7868412475
 30
0.0
 11
30.1002262
 21
56.7868412475
 31
0.0
  0
LINE
  5
378
330
1F
100
AcDbEntity
  8
0
  6
Continuous
 62
   144
370
    18
100
AcDbLine
 10
29.0392132233
 20
56.7868412475
 30
0.0
 11
12.3256252235
 21
56.7868412475
 31
0.0
  0
LINE
  5
379
330
1F
100
AcDbEntity
  8
0
  6
Continuous
 62
   144
370
    18
100
AcDbLine
 10
12.3256252235
 20
56.7789672318
 30
0.0
 11
12.3256252235
 21
56.7868412475
 31
0.0
  0
ARC
  5
37A
330
1F
100
AcDbEntity
  8
0
  6
Continuous
 62
   144
370
    18
100
AcDbCircle
 10
12.3059401841
 20
56.7789672318
 30
0.0
 40
0.0196850393700796
100
AcDbArc
 50
306.8698976459
 51
0.0
  0
LINE
  5
37B
330
1F
100
AcDbEntity
  8
0
  6
Continuous
 62
   144
370
    18
100
AcDbLine
 10
12.3059401841
 20
34.2238491215
 30
0.0
 11
12.3649953022
 21
34.2238491215
 31
0.0
  0
ARC
  5
37C
330
1F
100
AcDbEntity
  8
0
  6
Continuous
 62
   144
370
    18
100
AcDbCircle
 10
12.3649953022
 20
34.1844790428
 30
0.0
 40
0.0393700787401627
100
AcDbArc
 50
30.0
 51
90.0
  0
LINE
  5
37D
330
1F
100
AcDbEntity
  8
0
  6
Continuous
 62
   144
370
    18
100
AcDbLine
 10
38.0001911524
 20
34.2041640822
 30
0.0
 11
12.3990907905
 21
34.2041640822
 31
0.0
  0
ARC
  5
37E
330
1F
100
AcDbEntity
  8
0
  6
Continuous
 62
   144
370
    18
100
AcDbCircle
 10
38.0342866408
 20
34.1844790428
 30
0.0
 40
0.0393700787401632
100
AcDbArc
 50
90.0
 51
150.0
  0
LINE
  5
37F
330
1F
100
AcDbEntity
  8
0
  6
Continuous
 62
   144
370
    18
100
AcDbLine
 10
38.0933417589
 20
34.2238491215
 30
0.0
 11
38.0342866408
 21
34.2238491215
 31
0.0
  0
LINE
  5
380
330
1F
100
AcDbEntity
  8
0
  6
Continuous
 62
   144
370
    18
100
AcDbLine
 10
38.0933417589
 20
34.460069594
 30
0.0
 11
38.0933417589
 21
34.2238491215
 31
0.0
  0
ARC
  5
381
330
1F
100
AcDbEntity
  8
0
  6
Continuous
 62
   144
370
    18
100
AcDbCircle
 10
37.4043653809
 20
34.4994396727
 30
0.0
 40
0.1635459024745742
100
AcDbArc
 50
270.0
 51
346.0704882537
  0
LINE
  5
382
330
1F
100
AcDbEntity
  8
0
  6
Continuous
 62
   144
370
    18
100
AcDbLine
 10
37.4043653809
 20
34.3358937703
 30
0.0
 11
12.994916562
 21
34.3358937703
 31
0.0
  0
ARC
  5
383
330
1F
100
AcDbEntity
  8
0
  6
Continuous
 62
   144
370
    18
100
AcDbCircle
 10
12.994916562
 20
34.4994396727
 30
0.0
 40
0.1635459024745742
100
AcDbArc
 50
193.9295117463
 51
270.0
  0
LINE
  5
384
330
1F
100
AcDbEntity
  8
0
  6
Continuous
 62
   144
370
    18
100
AcDbLine
 10
12.2862551447
 20
34.2238491215
 30
0.0
 11
12.3059401841
 21
34.2238491215
 31
0.0
  0
LINE
  5
385
330
1F
100
AcDbEntity
  8
0
  6
Continuous
 62
     7
370
    25
100
AcDbLine
 10
12.994916562
 20
34.3907250709
 30
0.0
 11
12.994916562
 21
34.3358937703
 31
0.0
  0
ARC
  5
386
330
1F
100
AcDbEntity
  8
0
  6
Continuous
 62
   144
370
    18
100
AcDbCircle
 10
12.994916562
 20
34.4994396727
 30
0.0
 40
0.1087146018317355
100
AcDbArc
 50
201.2317767657
 51
270.0
  0
LINE
  5
387
330
1F
100
AcDbEntity
  8
0
  6
Continuous
 62
     7
370
    25
100
AcDbLine
 10
37.4043653809
 20
34.3358937703
 30
0.0
 11
37.4043653809
 21
34.3907250709
 31
0.0
  0
ARC
  5
388
330
1F
100
AcDbEntity
  8
0
  6
Continuous
 62
   144
370
    18
100
AcDbCircle
 10
37.4043653809
 20
34.4994396727
 30
0.0
 40
0.1087146018317375
100
AcDbArc
 50
270.0
 51
338.7682232343
  0
LINE
  5
389
330
1F
100
AcDbEntity
  8
0
  6
Continuous
 62
     7
370
    25
100
AcDbLine
 10
37.4043653809
 20
34.3907250709
 30
0.0
 11
12.994916562
 21
34.3907250709
 31
0.0
  0
LINE
  5
38A
330
1F
100
AcDbEntity
  8
0
  6
Continuous
 62
     7
370
    25
100
AcDbLine
 10
12.994916562
 20
34.3925230556
 30
0.0
 11
37.4043653809
 21
34.3925230556
 31
0.0
  0
LINE
  5
38B
330
1F
100
AcDbEntity
  8
0
  6
Continuous
 62
   144
370
    18
100
AcDbLine
 10
37.4043653809
 20
34.3925230556
 30
0.0
 11
37.4043653809
 21
34.3907250709
 31
0.0
  0
LINE
  5
38C
330
1F
100
AcDbEntity
  8
0
  6
Continuous
 62
   144
370
    18
100
AcDbLine
 10
12.994916562
 20
34.3925230556
 30
0.0
 11
12.994916562
 21
34.3907250709
 31
0.0
  0
LINE
  5
38D
330
1F
100
AcDbEntity
  8
0
  6
Continuous
 62
     7
370
    25
100
AcDbLine
 10
37.4043653809
 20
34.4473543562
 30
0.0
 11
12.994916562
 21
34.4473543562
 31
0.0
  0
LINE
  5
38E
330
1F
100
AcDbEntity
  8
0
  6
Continuous
 62
   144
370
    18
100
AcDbLine
 10
12.994916562
 20
34.3925230556
 30
0.0
 11
12.994916562
 21
34.4473543562
 31
0.0
  0
LINE
  5
38F
330
1F
100
AcDbEntity
  8
0
  6
Continuous
 62
   144
370
    18
100
AcDbLine
 10
37.4043653809
 20
34.3925230556
 30
0.0
 11
37.4043653809
 21
34.4473543562
 31
0.0
  0
ARC
  5
390
330
1F
100
AcDbEntity
  8
0
  6
Continuous
 62
   144
370
    18
100
AcDbCircle
 10
37.4043653809
 20
34.4994396727
 30
0.0
 40
0.0520853164792659
100
AcDbArc
 50
270.0
 51
310.8979643586
  0
ARC
  5
391
330
1F
100
AcDbEntity
  8
0
  6
Continuous
 62
   144
370
    18
100
AcDbCircle
 10
12.994916562
 20
34.4994396727
 30
0.0
 40
0.0520853164792647
100
AcDbArc
 50
229.1020356414
 51
270.0
  0
LINE
  5
392
330
1F
100
AcDbEntity
  8
0
  6
Continuous
 62
   144
370
    18
100
AcDbLine
 10
12.3138141998
 20
34.1844790428
 30
0.0
 11
12.3138141998
 21
34.086053846
 31
0.0
  0
LINE
  5
393
330
1F
100
AcDbEntity
  8
0
  6
Continuous
 62
   144
370
    18
100
AcDbLine
 10
38.0854677431
 20
34.1844790428
 30
0.0
 11
38.0854677431
 21
34.086053846
 31
0.0
  0
LINE
  5
394
330
1F
100
AcDbEntity
  8
0
  6
Continuous
 62
     7
370
    25
100
AcDbLine
 10
10.3177512077
 20
15.6923530586
 30
0.0
 11
10.3177512077
 21
11.8458963656
 31
0.0
  0
LINE
  5
395
330
1F
100
AcDbEntity
  8
0
  6
Continuous
 62
     7
370
    25
100
AcDbLine
 10
10.2980661683
 20
11.8458963656
 30
0.0
 11
10.2980661683
 21
15.6923530586
 31
0.0
  0
LINE
  5
396
330
1F
100
AcDbEntity
  8
0
  6
Continuous
 62
   144
370
    18
100
AcDbLine
 10
10.2980661683
 20
15.6923530586
 30
0.0
 11
10.3177512077
 21
15.6923530586
 31
0.0
  0
LINE
  5
397
330
1F
100
AcDbEntity
  8
0
  6
Continuous
 62
   144
370
    18
100
AcDbLine
 10
10.3177512077
 20
11.8458963656
 30
0.0
 11
10.2980661683
 21
11.8458963656
 31
0.0
  0
LINE
  5
398
330
1F
100
AcDbEntity
  8
0
  6
Continuous
 62
     7
370
    25
100
AcDbLine
 10
40.0736567195
 20
15.7120380979
 30
0.0
 11
10.3256252235
 21
15.7120380979
 31
0.0
  0
LINE
  5
399
330
1F
100
AcDbEntity
  8
0
  6
Continuous
 62
     7
370
    25
100
AcDbLine
 10
10.3256252235
 20
15.7317231373
 30
0.0
 11
40.0736567195
 21
15.7317231373
 31
0.0
  0
LINE
  5
39A
330
1F
100
AcDbEntity
  8
0
  6
Continuous
 62
   144
370
    18
100
AcDbLine
 10
40.0736567195
 20
15.7317231373
 30
0.0
 11
40.0736567195
 21
15.7120380979
 31
0.0
  0
LINE
  5
39B
330
1F
100
AcDbEntity
  8
0
  6
Continuous
 62
   144
370
    18
100
AcDbLine
 10
10.3256252235
 20
15.7120380979
 30
0.0
 11
10.3256252235
 21
15.7317231373
 31
0.0
  0
LINE
  5
39C
330
1F
100
AcDbEntity
  8
0
  6
Continuous
 62
     7
370
    25
100
AcDbLine
 10
40.1012157746
 20
15.6923530586
 30
0.0
 11
40.1012157746
 21
11.8458963656
 31
0.0
  0
LINE
  5
39D
330
1F
100
AcDbEntity
  8
0
  6
Continuous
 62
     7
370
    25
100
AcDbLine
 10
40.0815307353
 20
11.8458963656
 30
0.0
 11
40.0815307353
 21
15.6923530586
 31
0.0
  0
LINE
  5
39E
330
1F
100
AcDbEntity
  8
0
  6
Continuous
 62
   144
370
    18
100
AcDbLine
 10
40.0815307353
 20
15.6923530586
 30
0.0
 11
40.1012157746
 21
15.6923530586
 31
0.0
  0
LINE
  5
39F
330
1F
100
AcDbEntity
  8
0
  6
Continuous
 62
   144
370
    18
100
AcDbLine
 10
40.1012157746
 20
11.8458963656
 30
0.0
 11
40.0815307353
 21
11.8458963656
 31
0.0
  0
LINE
  5
3A0
330
1F
100
AcDbEntity
  8
0
  6
Continuous
 62
     7
370
    25
100
AcDbLine
 10
10.3886173494
 20
11.7750302239
 30
0.0
 11
40.0106645935
 21
11.7750302239
 31
0.0
  0
LINE
  5
3A1
330
1F
100
AcDbEntity
  8
0
  6
Continuous
 62
   144
370
    18
100
AcDbLine
 10
10.3256252235
 20
15.7120380979
 30
0.0
 11
10.3256252235
 21
15.6923530586
 31
0.0
  0
LINE
  5
3A2
330
1F
100
AcDbEntity
  8
0
  6
Continuous
 62
   144
370
    18
100
AcDbLine
 10
10.3177512077
 20
15.6923530586
 30
0.0
 11
10.3256252235
 21
15.6923530586
 31
0.0
  0
ARC
  5
3A3
330
1F
100
AcDbEntity
  8
0
  6
Continuous
 62
   144
370
    18
100
AcDbCircle
 10
10.3886173494
 20
11.8458963656
 30
0.0
 40
0.0708661417322851
100
AcDbArc
 50
180.0
 51
270.0
  0
ARC
  5
3A4
330
1F
100
AcDbEntity
  8
0
  6
Continuous
 62
   144
370
    18
100
AcDbCircle
 10
40.0106645935
 20
11.8458963656
 30
0.0
 40
0.0708661417322816
100
AcDbArc
 50
270.0
 51
0.0
  0
LINE
  5
3A5
330
1F
100
AcDbEntity
  8
0
  6
Continuous
 62
   144
370
    18
100
AcDbLine
 10
40.0736567195
 20
15.6923530586
 30
0.0
 11
40.0815307353
 21
15.6923530586
 31
0.0
  0
LINE
  5
3A6
330
1F
100
AcDbEntity
  8
0
  6
Continuous
 62
   144
370
    18
100
AcDbLine
 10
40.0736567195
 20
15.6923530586
 30
0.0
 11
40.0736567195
 21
15.7120380979
 31
0.0
  0
LINE
  5
3A7
330
1F
100
AcDbEntity
  8
0
  6
Continuous
 62
     7
370
    25
100
AcDbLine
 10
40.0106645935
 20
11.7553451845
 30
0.0
 11
10.3886173494
 21
11.7553451845
 31
0.0
  0
LINE
  5
3A8
330
1F
100
AcDbEntity
  8
0
  6
Continuous
 62
   144
370
    18
100
AcDbLine
 10
40.0106645935
 20
11.7553451845
 30
0.0
 11
40.0106645935
 21
11.7750302239
 31
0.0
  0
LINE
  5
3A9
330
1F
100
AcDbEntity
  8
0
  6
Continuous
 62
   144
370
    18
100
AcDbLine
 10
10.3886173494
 20
11.7750302239
 30
0.0
 11
10.3886173494
 21
11.7553451845
 31
0.0
  0
ARC
  5
3AA
330
1F
100
AcDbEntity
  8
0
  6
Continuous
 62
   144
370
    18
100
AcDbCircle
 10
40.0106645935
 20
11.8458963656
 30
0.0
 40
0.0905511811023629
100
AcDbArc
 50
270.0
 51
0.0
  0
ARC
  5
3AB
330
1F
100
AcDbEntity
  8
0
  6
Continuous
 62
   144
370
    18
100
AcDbCircle
 10
10.3886173494
 20
11.8458963656
 30
0.0
 40
0.0905511811023665
100
AcDbArc
 50
180.0
 51
270.0
  0
LINE
  5
3AC
330
1F
100
AcDbEntity
  8
0
  6
Continuous
 62
   144
370
    18
100
AcDbLine
 10
28.7429480581
 20
56.9443215625
 30
0.0
 11
28.8391267183
 21
56.9443215625
 31
0.0
  0
LINE
  5
3AD
330
1F
100
AcDbEntity
  8
0
  6
Continuous
 62
   144
370
    18
100
AcDbLine
 10
28.6642079006
 20
56.9443215625
 30
0.0
 11
28.7429480581
 21
56.9443215625
 31
0.0
  0
LINE
  5
3AE
330
1F
100
AcDbEntity
  8
0
  6
Continuous
 62
   144
370
    18
100
AcDbLine
 10
28.6445228613
 20
56.9443215625
 30
0.0
 11
28.6642079006
 21
56.9443215625
 31
0.0
  0
LINE
  5
3AF
330
1F
100
AcDbEntity
  8
0
  6
Continuous
 62
   144
370
    18
100
AcDbLine
 10
28.6445228613
 20
56.9443215625
 30
0.0
 11
28.4870425463
 21
56.9443215625
 31
0.0
  0
LINE
  5
3B0
330
1F
100
AcDbEntity
  8
0
  6
Continuous
 62
   144
370
    18
100
AcDbLine
 10
28.4083023888
 20
56.9443215625
 30
0.0
 11
28.4870425463
 21
56.9443215625
 31
0.0
  0
LINE
  5
3B1
330
1F
100
AcDbEntity
  8
0
  6
Continuous
 62
   144
370
    18
100
AcDbLine
 10
30.3017300078
 20
56.9443215625
 30
0.0
 11
30.5539716802
 21
56.9443215625
 31
0.0
  0
ARC
  5
3B2
330
1F
100
AcDbEntity
  8
0
  6
Continuous
 62
   144
370
    18
100
AcDbCircle
 10
30.3017300078
 20
57.0781798302
 30
0.0
 40
0.1338582677165368
100
AcDbArc
 50
206.1789686994
 51
270.0
  0
LINE
  5
3B3
330
1F
100
AcDbEntity
  8
0
  6
Continuous
 62
   144
370
    18
100
AcDbLine
 10
28.6051527825
 20
56.8813294365
 30
0.0
 11
28.5067275857
 21
56.8813294365
 31
0.0
  0
LINE
  5
3B4
330
1F
100
AcDbEntity
  8
0
  6
Continuous
 62
   144
370
    18
100
AcDbLine
 10
28.5067275857
 20
56.8813294365
 30
0.0
 11
28.5067275857
 21
56.9443215625
 31
0.0
  0
LINE
  5
3B5
330
1F
100
AcDbEntity
  8
0
  6
Continuous
 62
   144
370
    18
100
AcDbLine
 10
28.6248378219
 20
56.8813294365
 30
0.0
 11
28.6248378219
 21
56.9443215625
 31
0.0
  0
LINE
  5
3B6
330
1F
100
AcDbEntity
  8
0
  6
Continuous
 62
     7
370
    25
100
AcDbLine
 10
28.7429480581
 20
56.8813294365
 30
0.0
 11
28.7429480581
 21
56.9443215625
 31
0.0
  0
LINE
  5
3B7
330
1F
100
AcDbEntity
  8
0
  6
Continuous
 62
   144
370
    18
100
AcDbLine
 10
28.6642079006
 20
56.9443215625
 30
0.0
 11
28.6642079006
 21
56.8813294365
 31
0.0
  0
LINE
  5
3B8
330
1F
100
AcDbEntity
  8
0
  6
Continuous
 62
   144
370
    18
100
AcDbLine
 10
28.8413955972
 20
56.8813294365
 30
0.0
 11
28.791814626
 21
56.8813294365
 31
0.0
  0
ARC
  5
3B9
330
1F
100
AcDbEntity
  8
0
  6
Continuous
 62
   144
370
    18
100
AcDbCircle
 10
28.8391267183
 20
57.0781798302
 30
0.0
 40
0.1338582677165334
100
AcDbArc
 50
270.0
 51
333.8210313006
  0
LINE
  5
3BA
330
1F
100
AcDbEntity
  8
0
  6
Continuous
 62
   144
370
    18
100
AcDbLine
 10
30.3476247973
 20
56.8813294365
 30
0.0
 11
30.3018667048
 21
56.8813294365
 31
0.0
  0
ARC
  5
3BB
330
1F
100
AcDbEntity
  8
0
  6
Continuous
 62
   144
370
    18
100
AcDbCircle
 10
30.3018667048
 20
57.0781798302
 30
0.0
 40
0.1968503937008289
100
AcDbArc
 50
199.2594143326
 51
270.0
  0
ARC
  5
3BC
330
1F
100
AcDbEntity
  8
0
  6
Continuous
 62
   144
370
    18
100
AcDbCircle
 10
28.8413955972
 20
57.0781798302
 30
0.0
 40
0.1968503937008204
100
AcDbArc
 50
270.0
 51
340.7405856592
  0
LWPOLYLINE
  5
3BD
330
1F
100
AcDbEntity
  8
0
  6
Continuous
 62
   144
370
    18
100
AcDbPolyline
 90
        2
 70
   128
 43
0.0
 10
30.5340964587
 20
56.9364475467
 10
30.5340964587
 20
56.9364475467
  0
LINE
  5
3BE
330
1F
100
AcDbEntity
  8
0
  6
Continuous
 62
   144
370
    18
100
AcDbLine
 10
30.5340964587
 20
56.9443215625
 30
0.0
 11
30.5340964587
 21
56.9364475467
 31
0.0
  0
LWPOLYLINE
  5
3BF
330
1F
100
AcDbEntity
  8
0
  6
Continuous
 62
   144
370
    18
100
AcDbPolyline
 90
        2
 70
   128
 43
0.0
 10
30.5340964587
 20
56.9443215625
 10
30.5340964587
 20
56.9443215625
  0
ARC
  5
3C0
330
1F
100
AcDbEntity
  8
0
  6
Continuous
 62
   144
370
    18
100
AcDbCircle
 10
39.7084992392
 20
11.1136129011
 30
0.0
 40
0.1574803149606296
100
AcDbArc
 50
270.0
 51
360.0
  0
LINE
  5
3C1
330
1F
100
AcDbEntity
  8
0
  6
Continuous
 62
   144
370
    18
100
AcDbLine
 10
39.7084992392
 20
10.9561325861
 30
0.0
 11
39.3256252235
 21
10.9561325861
 31
0.0
  0
LINE
  5
3C2
330
1F
100
AcDbEntity
  8
0
  6
Continuous
 62
   144
370
    18
100
AcDbLine
 10
39.3256252235
 20
10.9561325861
 30
0.0
 11
39.3256252235
 21
11.4049514838
 31
0.0
  0
LINE
  5
3C3
330
1F
100
AcDbEntity
  8
0
  6
Continuous
 62
   144
370
    18
100
AcDbLine
 10
39.3256252235
 20
11.6960099581
 30
0.0
 11
39.3256252235
 21
11.7553451845
 31
0.0
  0
LINE
  5
3C4
330
1F
100
AcDbEntity
  8
0
  6
Continuous
 62
   144
370
    18
100
AcDbLine
 10
39.3256252235
 20
32.7651877042
 30
0.0
 11
39.3256252235
 21
32.7868412475
 31
0.0
  0
LINE
  5
3C5
330
1F
100
AcDbEntity
  8
0
  6
Continuous
 62
   144
370
    18
100
AcDbLine
 10
39.3256252235
 20
34.086053846
 30
0.0
 11
39.3256252235
 21
34.460069594
 31
0.0
  0
LINE
  5
3C6
330
1F
100
AcDbEntity
  8
0
  6
Continuous
 62
   144
370
    18
100
AcDbLine
 10
39.3256252235
 20
55.4423530586
 30
0.0
 11
39.3256252235
 21
55.4640066019
 31
0.0
  0
LINE
  5
3C7
330
1F
100
AcDbEntity
  8
0
  6
Continuous
 62
   144
370
    18
100
AcDbLine
 10
39.3256252235
 20
56.7632192003
 30
0.0
 11
39.3256252235
 21
57.0191247121
 31
0.0
  0
LINE
  5
3C8
330
1F
100
AcDbEntity
  8
0
  6
Continuous
 62
   144
370
    18
100
AcDbLine
 10
39.8659795542
 20
11.1136129011
 30
0.0
 11
39.8659795542
 21
11.1529829798
 31
0.0
  0
LINE
  5
3C9
330
1F
100
AcDbEntity
  8
0
  6
Continuous
 62
   144
370
    18
100
AcDbLine
 10
39.9171606565
 20
11.1529829798
 30
0.0
 11
39.8659795542
 21
11.1529829798
 31
0.0
  0
LINE
  5
3CA
330
1F
100
AcDbEntity
  8
0
  6
Continuous
 62
   144
370
    18
100
AcDbLine
 10
39.964404751
 20
57.0191247121
 30
0.0
 11
39.964404751
 21
56.761608313
 31
0.0
  0
LINE
  5
3CB
330
1F
100
AcDbEntity
  8
0
  6
Continuous
 62
   144
370
    18
100
AcDbLine
 10
39.964404751
 20
55.4656174891
 30
0.0
 11
39.964404751
 21
55.4423530586
 31
0.0
  0
LINE
  5
3CC
330
1F
100
AcDbEntity
  8
0
  6
Continuous
 62
   144
370
    18
100
AcDbLine
 10
39.964404751
 20
34.460069594
 30
0.0
 11
39.964404751
 21
34.0844429587
 31
0.0
  0
LINE
  5
3CD
330
1F
100
AcDbEntity
  8
0
  6
Continuous
 62
   144
370
    18
100
AcDbLine
 10
39.964404751
 20
32.7884521348
 30
0.0
 11
39.964404751
 21
32.7651877042
 31
0.0
  0
LINE
  5
3CE
330
1F
100
AcDbEntity
  8
0
  6
Continuous
 62
   144
370
    18
100
AcDbLine
 10
39.964404751
 20
11.7553451845
 30
0.0
 11
39.964404751
 21
11.1529829798
 31
0.0
  0
LINE
  5
3CF
330
1F
100
AcDbEntity
  8
0
  6
Continuous
 62
   144
370
    18
100
AcDbLine
 10
39.964404751
 20
11.1529829798
 30
0.0
 11
39.9171606565
 21
11.1529829798
 31
0.0
  0
LINE
  5
3D0
330
1F
100
AcDbEntity
  8
0
  6
Continuous
 62
   144
370
    18
100
AcDbLine
 10
39.3256252235
 20
10.9246365231
 30
0.0
 11
39.3256252235
 21
10.9561325861
 31
0.0
  0
LINE
  5
3D1
330
1F
100
AcDbEntity
  8
0
  6
Continuous
 62
     7
370
    25
100
AcDbLine
 10
39.3728693179
 20
10.9166541499
 30
0.0
 11
39.3728693179
 21
10.9561325861
 31
0.0
  0
LINE
  5
3D2
330
1F
100
AcDbEntity
  8
0
  6
Continuous
 62
   144
370
    18
100
AcDbLine
 10
39.3256252235
 20
10.9246365231
 30
0.0
 11
39.2921606565
 21
10.9246365231
 31
0.0
  0
LINE
  5
3D3
330
1F
100
AcDbEntity
  8
0
  6
Continuous
 62
     7
370
    25
100
AcDbLine
 10
39.3013629365
 20
10.9561325861
 30
0.0
 11
39.3256252235
 21
10.9561325861
 31
0.0
  0
LINE
  5
3D4
330
1F
100
AcDbEntity
  8
0
  6
Continuous
 62
   144
370
    18
100
AcDbLine
 10
39.2921606565
 20
10.9584480381
 30
0.0
 11
39.3013629365
 21
10.9561325861
 31
0.0
  0
LINE
  5
3D5
330
1F
100
AcDbEntity
  8
0
  6
Continuous
 62
     7
370
    25
100
AcDbLine
 10
38.7272000266
 20
57.0191247121
 30
0.0
 11
38.7272000266
 21
56.7632192003
 31
0.0
  0
LINE
  5
3D6
330
1F
100
AcDbEntity
  8
0
  6
Continuous
 62
     7
370
    25
100
AcDbLine
 10
11.6563338849
 20
56.7632192003
 30
0.0
 11
11.6563338849
 21
57.0191247121
 31
0.0
  0
LINE
  5
3D7
330
1F
100
AcDbEntity
  8
0
  6
Continuous
 62
     7
370
    25
100
AcDbLine
 10
38.6287748298
 20
56.7632192003
 30
0.0
 11
38.6287748298
 21
57.0191247121
 31
0.0
  0
LINE
  5
3D8
330
1F
100
AcDbEntity
  8
0
  6
Continuous
 62
   144
370
    18
100
AcDbLine
 10
11.4594834912
 20
57.0191247121
 30
0.0
 11
11.4594834912
 21
56.7632192003
 31
0.0
  0
LINE
  5
3D9
330
1F
100
AcDbEntity
  8
0
  6
Continuous
 62
   144
370
    18
100
AcDbLine
 10
39.0815307353
 20
56.7632192003
 30
0.0
 11
39.0815307353
 21
57.0191247121
 31
0.0
  0
LINE
  5
3DA
330
1F
100
AcDbEntity
  8
0
  6
Continuous
 62
     7
370
    25
100
AcDbLine
 10
11.7547590817
 20
57.0191247121
 30
0.0
 11
11.7547590817
 21
56.7632192003
 31
0.0
  0
ARC
  5
3DB
330
1F
100
AcDbEntity
  8
0
  6
Continuous
 62
   144
370
    18
100
AcDbCircle
 10
30.3598190654
 20
57.0269987278
 30
0.0
 40
0.0196850393700765
100
AcDbArc
 50
203.5781784474
 51
270.0
  0
LINE
  5
3DC
330
1F
100
AcDbEntity
  8
0
  6
Continuous
 62
   144
370
    18
100
AcDbLine
 10
30.3598190654
 20
57.0073136885
 30
0.0
 11
30.5539716802
 21
57.0073136885
 31
0.0
  0
LINE
  5
3DD
330
1F
100
AcDbEntity
  8
0
  6
Continuous
 62
   144
370
    18
100
AcDbLine
 10
32.6167331784
 20
56.8813294365
 30
0.0
 11
31.4201134124
 21
56.8813294365
 31
0.0
  0
ARC
  5
3DE
330
1F
100
AcDbEntity
  8
0
  6
Continuous
 62
   144
370
    18
100
AcDbCircle
 10
38.2864857725
 20
57.0781798302
 30
0.0
 40
0.1968503937007924
100
AcDbArc
 50
244.1580672368
 51
270.0
  0
LINE
  5
3DF
330
1F
100
AcDbEntity
  8
0
  6
Continuous
 62
   144
370
    18
100
AcDbLine
 10
38.6287748298
 20
56.8813294365
 30
0.0
 11
38.2864857725
 21
56.8813294365
 31
0.0
  0
LINE
  5
3E0
330
1F
100
AcDbEntity
  8
0
  6
Continuous
 62
   144
370
    18
100
AcDbLine
 10
28.6248378219
 20
57.0191247121
 30
0.0
 11
28.6248378219
 21
57.0073136885
 31
0.0
  0
LINE
  5
3E1
330
1F
100
AcDbEntity
  8
0
  6
Continuous
 62
   144
370
    18
100
AcDbLine
 10
28.6248378219
 20
57.0073136885
 30
0.0
 11
28.7638723264
 21
57.0073136885
 31
0.0
  0
ARC
  5
3E2
330
1F
100
AcDbEntity
  8
0
  6
Continuous
 62
   144
370
    18
100
AcDbCircle
 10
28.7638723264
 20
57.0269987278
 30
0.0
 40
0.0196850393700798
100
AcDbArc
 50
270.0
 51
336.4218215526
  0
ARC
  5
3E3
330
1F
100
AcDbEntity
  8
0
  6
Continuous
 62
   144
370
    18
100
AcDbCircle
 10
28.8819825626
 20
57.2041640822
 30
0.0
 40
0.1968503937007925
100
AcDbArc
 50
270.0
 51
289.9484435971
  0
LINE
  5
3E4
330
1F
100
AcDbEntity
  8
0
  6
Continuous
 62
   144
370
    18
100
AcDbLine
 10
28.8229274445
 20
57.0073136885
 30
0.0
 11
28.8819825626
 21
57.0073136885
 31
0.0
  0
LINE
  5
3E5
330
1F
100
AcDbEntity
  8
0
  6
Continuous
 62
   144
370
    18
100
AcDbLine
 10
28.8229274445
 20
57.0073136885
 30
0.0
 11
28.8229274445
 21
57.0191247121
 31
0.0
  0
LINE
  5
3E6
330
1F
100
AcDbEntity
  8
0
  6
Continuous
 62
   144
370
    18
100
AcDbLine
 10
39.5888900132
 20
10.8733487333
 30
0.0
 11
39.8643486974
 21
10.8733487333
 31
0.0
  0
ARC
  5
3E7
330
1F
100
AcDbEntity
  8
0
  6
Continuous
 62
   144
370
    18
100
AcDbCircle
 10
39.8249667479
 20
10.8733606046
 30
0.0
 40
0.0393819513252824
100
AcDbArc
 50
269.9852761945
 51
359.9827287754
  0
LINE
  5
3E8
330
1F
100
AcDbEntity
  8
0
  6
Continuous
 62
     7
370
    25
100
AcDbLine
 10
39.8249566275
 20
10.8339786546
 30
0.0
 11
39.5888900132
 21
10.8339786546
 31
0.0
  0
LINE
  5
3E9
330
1F
100
AcDbEntity
  8
0
  6
Continuous
 62
     7
370
    25
100
AcDbLine
 10
39.5888900132
 20
10.8733487333
 30
0.0
 11
39.5888900132
 21
10.8339786546
 31
0.0
  0
LINE
  5
3EA
330
1F
100
AcDbEntity
  8
0
  6
Continuous
 62
     7
370
    25
100
AcDbLine
 10
10.8103955767
 20
10.8733487333
 30
0.0
 11
10.8103955767
 21
10.8339786546
 31
0.0
  0
LINE
  5
3EB
330
1F
100
AcDbEntity
  8
0
  6
Continuous
 62
     7
370
    25
100
AcDbLine
 10
10.8103955767
 20
10.8339786546
 30
0.0
 11
10.5743289624
 21
10.8339786546
 31
0.0
  0
ARC
  5
3EC
330
1F
100
AcDbEntity
  8
0
  6
Continuous
 62
   144
370
    18
100
AcDbCircle
 10
10.5743155305
 20
10.8733572913
 30
0.0
 40
0.0393786389682323
100
AcDbArc
 50
180.0124517684
 51
270.0195432617
  0
LINE
  5
3ED
330
1F
100
AcDbEntity
  8
0
  6
Continuous
 62
   144
370
    18
100
AcDbLine
 10
10.5349368925
 20
10.8733487333
 30
0.0
 11
10.8103955767
 21
10.8733487333
 31
0.0
  0
LINE
  5
3EE
330
1F
100
AcDbEntity
  8
0
  6
Continuous
 62
     7
370
    25
100
AcDbLine
 10
39.5888900132
 20
10.8772840712
 30
0.0
 11
10.8103955767
 21
10.8772840712
 31
0.0
  0
LINE
  5
3EF
330
1F
100
AcDbEntity
  8
0
  6
Continuous
 62
     7
370
    25
100
AcDbLine
 10
10.8103955767
 20
10.8733487333
 30
0.0
 11
39.5888900132
 21
10.8733487333
 31
0.0
  0
LINE
  5
3F0
330
1F
100
AcDbEntity
  8
0
  6
Continuous
 62
   144
370
    18
100
AcDbLine
 10
10.8103955767
 20
10.8733487333
 30
0.0
 11
10.8103955767
 21
10.8772840712
 31
0.0
  0
LINE
  5
3F1
330
1F
100
AcDbEntity
  8
0
  6
Continuous
 62
   144
370
    18
100
AcDbLine
 10
39.5888900132
 20
10.8772840712
 30
0.0
 11
39.5888900132
 21
10.8733487333
 31
0.0
  0
LINE
  5
3F2
330
1F
100
AcDbEntity
  8
0
  6
Continuous
 62
     7
370
    25
100
AcDbLine
 10
39.5888900132
 20
10.8339786546
 30
0.0
 11
10.8103955767
 21
10.8339786546
 31
0.0
  0
LINE
  5
3F3
330
1F
100
AcDbEntity
  8
0
  6
Continuous
 62
     7
370
    25
100
AcDbLine
 10
39.5888900132
 20
10.9166541499
 30
0.0
 11
39.5888900132
 21
10.8772840712
 31
0.0
  0
LINE
  5
3F4
330
1F
100
AcDbEntity
  8
0
  6
Continuous
 62
     7
370
    25
100
AcDbLine
 10
39.5888900132
 20
10.9166541499
 30
0.0
 11
39.8249566275
 21
10.9166541499
 31
0.0
  0
ARC
  5
3F5
330
1F
100
AcDbEntity
  8
0
  6
Continuous
 62
   144
370
    18
100
AcDbCircle
 10
39.8249700594
 20
10.8772755132
 30
0.0
 40
0.0393786389682057
100
AcDbArc
 50
0.0124517684
 51
90.0195432617
  0
LINE
  5
3F6
330
1F
100
AcDbEntity
  8
0
  6
Continuous
 62
   144
370
    18
100
AcDbLine
 10
39.8643486974
 20
10.8772840712
 30
0.0
 11
39.5888900132
 21
10.8772840712
 31
0.0
  0
LINE
  5
3F7
330
1F
100
AcDbEntity
  8
0
  6
Continuous
 62
     7
370
    25
100
AcDbLine
 10
10.5743289624
 20
10.9166541499
 30
0.0
 11
10.8103955767
 21
10.9166541499
 31
0.0
  0
LINE
  5
3F8
330
1F
100
AcDbEntity
  8
0
  6
Continuous
 62
     7
370
    25
100
AcDbLine
 10
10.8103955767
 20
10.9166541499
 30
0.0
 11
10.8103955767
 21
10.8772840712
 31
0.0
  0
ARC
  5
3F9
330
1F
100
AcDbEntity
  8
0
  6
Continuous
 62
   144
370
    18
100
AcDbCircle
 10
10.574318842
 20
10.8772721999
 30
0.0
 40
0.0393819513253001
100
AcDbArc
 50
89.9852761945
 51
179.9827287754
  0
LINE
  5
3FA
330
1F
100
AcDbEntity
  8
0
  6
Continuous
 62
   144
370
    18
100
AcDbLine
 10
10.8103955767
 20
10.8772840712
 30
0.0
 11
10.5349368925
 21
10.8772840712
 31
0.0
  0
LINE
  5
3FB
330
1F
100
AcDbEntity
  8
0
  6
Continuous
 62
     7
370
    25
100
AcDbLine
 10
10.8103955767
 20
10.9166541499
 30
0.0
 11
39.5888900132
 21
10.9166541499
 31
0.0
  0
LINE
  5
3FC
330
1F
100
AcDbEntity
  8
0
  6
Continuous
 62
   144
370
    18
100
AcDbLine
 10
39.8249566275
 20
10.9166541499
 30
0.0
 11
39.8253322368
 21
10.9166541499
 31
0.0
  0
LINE
  5
3FD
330
1F
100
AcDbEntity
  8
0
  6
Continuous
 62
   144
370
    18
100
AcDbLine
 10
39.8642986554
 20
10.9166541499
 30
0.0
 11
39.8253322368
 21
10.9166541499
 31
0.0
  0
LINE
  5
3FE
330
1F
100
AcDbEntity
  8
0
  6
Continuous
 62
   144
370
    18
100
AcDbLine
 10
10.5739533531
 20
10.9166541499
 30
0.0
 11
10.5349318436
 21
10.9166541499
 31
0.0
  0
LINE
  5
3FF
330
1F
100
AcDbEntity
  8
0
  6
Continuous
 62
   144
370
    18
100
AcDbLine
 10
10.5739533531
 20
10.9166541499
 30
0.0
 11
10.5743289624
 21
10.9166541499
 31
0.0
  0
LINE
  5
400
330
1F
100
AcDbEntity
  8
0
  6
Continuous
 62
   144
370
    18
100
AcDbLine
 10
11.1071249334
 20
10.9560242286
 30
0.0
 11
11.1071249334
 21
11.4049514838
 31
0.0
  0
LINE
  5
401
330
1F
100
AcDbEntity
  8
0
  6
Continuous
 62
   144
370
    18
100
AcDbLine
 10
11.1071249334
 20
10.9166541499
 30
0.0
 11
11.1071249334
 21
10.9560242286
 31
0.0
  0
LINE
  5
402
330
1F
100
AcDbEntity
  8
0
  6
Continuous
 62
   144
370
    18
100
AcDbLine
 10
39.2921606565
 20
11.4049514838
 30
0.0
 11
39.2921606565
 21
10.9560242286
 31
0.0
  0
LINE
  5
403
330
1F
100
AcDbEntity
  8
0
  6
Continuous
 62
   144
370
    18
100
AcDbLine
 10
39.2921606565
 20
10.9560242286
 30
0.0
 11
39.2921606565
 21
10.9166541499
 31
0.0
  0
LINE
  5
404
330
1F
100
AcDbEntity
  8
0
  6
Continuous
 62
   144
370
    18
100
AcDbLine
 10
38.8472787668
 20
11.4049514838
 30
0.0
 11
38.8472787668
 21
10.9560242286
 31
0.0
  0
LINE
  5
405
330
1F
100
AcDbEntity
  8
0
  6
Continuous
 62
   144
370
    18
100
AcDbLine
 10
38.8472787668
 20
10.9166541499
 30
0.0
 11
38.8472787668
 21
10.9560242286
 31
0.0
  0
LINE
  5
406
330
1F
100
AcDbEntity
  8
0
  6
Continuous
 62
   144
370
    18
100
AcDbLine
 10
11.5520068231
 20
10.9560242286
 30
0.0
 11
11.5520068231
 21
11.4049514838
 31
0.0
  0
LINE
  5
407
330
1F
100
AcDbEntity
  8
0
  6
Continuous
 62
   144
370
    18
100
AcDbLine
 10
11.5520068231
 20
10.9560242286
 30
0.0
 11
11.5520068231
 21
10.9166541499
 31
0.0
  0
LINE
  5
408
330
1F
100
AcDbEntity
  8
0
  6
Continuous
 62
     7
370
    25
100
AcDbLine
 10
11.1071249334
 20
10.9560242286
 30
0.0
 11
11.5520068231
 21
10.9560242286
 31
0.0
  0
LINE
  5
409
330
1F
100
AcDbEntity
  8
0
  6
Continuous
 62
     7
370
    25
100
AcDbLine
 10
38.8472787668
 20
10.9560242286
 30
0.0
 11
39.2921606565
 21
10.9560242286
 31
0.0
  0
ARC
  5
40A
330
1F
100
AcDbEntity
  8
0
  6
Continuous
 62
   144
370
    18
100
AcDbCircle
 10
11.3295658783
 20
11.2907782672
 30
0.0
 40
0.0846456692913407
100
AcDbArc
 50
0.0
 51
180.0
  0
LINE
  5
40B
330
1F
100
AcDbEntity
  8
0
  6
Continuous
 62
   144
370
    18
100
AcDbLine
 10
11.244920209
 20
11.2514081885
 30
0.0
 11
11.244920209
 21
11.2907782672
 31
0.0
  0
ARC
  5
40C
330
1F
100
AcDbEntity
  8
0
  6
Continuous
 62
   144
370
    18
100
AcDbCircle
 10
11.3295658783
 20
11.2514081885
 30
0.0
 40
0.0846456692913407
100
AcDbArc
 50
180.0
 51
0.0
  0
LINE
  5
40D
330
1F
100
AcDbEntity
  8
0
  6
Continuous
 62
   144
370
    18
100
AcDbLine
 10
11.4142115476
 20
11.2514081885
 30
0.0
 11
11.4142115476
 21
11.2907782672
 31
0.0
  0
ARC
  5
40E
330
1F
100
AcDbEntity
  8
0
  6
Continuous
 62
   144
370
    18
100
AcDbCircle
 10
39.0697197116
 20
11.2907782672
 30
0.0
 40
0.0846456692913407
100
AcDbArc
 50
0.0
 51
180.0
  0
LINE
  5
40F
330
1F
100
AcDbEntity
  8
0
  6
Continuous
 62
   144
370
    18
100
AcDbLine
 10
38.9850740424
 20
11.2514081885
 30
0.0
 11
38.9850740424
 21
11.2907782672
 31
0.0
  0
ARC
  5
410
330
1F
100
AcDbEntity
  8
0
  6
Continuous
 62
   144
370
    18
100
AcDbCircle
 10
39.0697197116
 20
11.2514081885
 30
0.0
 40
0.0846456692913407
100
AcDbArc
 50
180.0
 51
0.0
  0
LINE
  5
411
330
1F
100
AcDbEntity
  8
0
  6
Continuous
 62
   144
370
    18
100
AcDbLine
 10
39.1543653809
 20
11.2514081885
 30
0.0
 11
39.1543653809
 21
11.2907782672
 31
0.0
  0
LINE
  5
412
330
1F
100
AcDbEntity
  8
0
  6
Continuous
 62
   144
370
    18
100
AcDbLine
 10
32.9043708513
 20
11.6226051374
 30
0.0
 11
32.9043708513
 21
11.6433662139
 31
0.0
  0
LWPOLYLINE
  5
413
330
1F
100
AcDbEntity
  8
0
  6
Continuous
 62
   144
370
    18
100
AcDbPolyline
 90
        3
 70
   128
 43
0.0
 10
32.5303551033
 20
11.6226051374
 10
32.5347464062
 20
11.6129118941
 10
32.5442326919
 20
11.6047465392
  0
ELLIPSE
  5
414
330
1F
100
AcDbEntity
  8
0
  6
Continuous
 62
   144
370
    18
100
AcDbEllipse
 10
32.6090952608
 20
11.6254176487
 30
0.0
 11
0.07874015748031127
 21
0.0
 31
0.0
210
0.0
220
0.0
230
1.0
 40
0.4630473898
 41
3.744386934630803
 42
4.712388980384696
  0
LINE
  5
415
330
1F
100
AcDbEntity
  8
0
  6
Continuous
 62
   144
370
    18
100
AcDbLine
 10
17.4949147386
 20
11.6226051374
 30
0.0
 11
17.4949147386
 21
11.6433662139
 31
0.0
  0
ELLIPSE
  5
416
330
1F
100
AcDbEntity
  8
0
  6
Continuous
 62
   144
370
    18
100
AcDbEllipse
 10
17.7901903291
 20
11.6254176487
 30
0.0
 11
0.07874015748031837
 21
0.0
 31
0.0
210
0.0
220
0.0
230
1.0
 40
0.4630473898
 41
4.712388980384696
 42
5.680391023743902
  0
LWPOLYLINE
  5
417
330
1F
100
AcDbEntity
  8
0
  6
Continuous
 62
   144
370
    18
100
AcDbPolyline
 90
        3
 70
   128
 43
0.0
 10
17.8689304866
 20
11.6226051374
 10
17.8645391838
 20
11.6129118941
 10
17.8550528979
 20
11.6047465392
  0
LWPOLYLINE
  5
418
330
1F
100
AcDbEntity
  8
0
  6
Continuous
 62
   144
370
    18
100
AcDbPolyline
 90
        3
 70
   128
 43
0.0
 10
33.6505282577
 20
11.6047465391
 10
33.6394345547
 20
11.6149957792
 10
33.636650669
 20
11.6226051374
  0
ELLIPSE
  5
419
330
1F
100
AcDbEntity
  8
0
  6
Continuous
 62
   144
370
    18
100
AcDbEllipse
 10
33.7153908264
 20
11.6254176487
 30
0.0
 11
0.07874015748031837
 21
0.0
 31
0.0
210
0.0
220
0.0
230
1.0
 40
0.4630473898
 41
3.74438693901044
 42
4.712388980384696
  0
LWPOLYLINE
  5
41A
330
1F
100
AcDbEntity
  8
0
  6
Continuous
 62
   144
370
    18
100
AcDbPolyline
 90
        3
 70
   128
 43
0.0
 10
36.4337967025
 20
11.6047465392
 10
36.4448904054
 20
11.6149957793
 10
36.447674291
 20
11.6226051374
  0
ELLIPSE
  5
41B
330
1F
100
AcDbEntity
  8
0
  6
Continuous
 62
   144
370
    18
100
AcDbEllipse
 10
36.3689341335
 20
11.6254176487
 30
0.0
 11
0.07874015748031127
 21
0.0
 31
0.0
210
0.0
220
0.0
230
1.0
 40
0.4630473898
 41
4.712388980384696
 42
5.680391026788628
  0
ELLIPSE
  5
41C
330
1F
100
AcDbEntity
  8
0
  6
Continuous
 62
   144
370
    18
100
AcDbEllipse
 10
23.8728711414
 20
11.6254176487
 30
0.0
 11
0.07874015748031482
 21
0.0
 31
0.0
210
0.0
220
0.0
230
1.0
 40
0.4630473898
 41
3.744386939010368
 42
4.712388980384696
  0
LWPOLYLINE
  5
41D
330
1F
100
AcDbEntity
  8
0
  6
Continuous
 62
   144
370
    18
100
AcDbPolyline
 90
        3
 70
   128
 43
0.0
 10
23.8080085727
 20
11.6047465391
 10
23.7969148697
 20
11.6149957792
 10
23.7941309839
 20
11.6226051374
  0
LINE
  5
41E
330
1F
100
AcDbEntity
  8
0
  6
Continuous
 62
   144
370
    18
100
AcDbLine
 10
24.168146732
 20
11.6395419768
 30
0.0
 11
24.168146732
 21
11.6226051374
 31
0.0
  0
LWPOLYLINE
  5
41F
330
1F
100
AcDbEntity
  8
0
  6
Continuous
 62
   144
370
    18
100
AcDbPolyline
 90
        3
 70
   128
 43
0.0
 10
26.5912770174
 20
11.6047465392
 10
26.6023707204
 20
11.6149957793
 10
26.605154606
 20
11.6226051374
  0
ELLIPSE
  5
420
330
1F
100
AcDbEntity
  8
0
  6
Continuous
 62
   144
370
    18
100
AcDbEllipse
 10
26.5264144485
 20
11.6254176487
 30
0.0
 11
0.07874015748031482
 21
0.0
 31
0.0
210
0.0
220
0.0
230
1.0
 40
0.4630473898
 41
4.712388980384696
 42
5.68039102678858
  0
LINE
  5
421
330
1F
100
AcDbEntity
  8
0
  6
Continuous
 62
   144
370
    18
100
AcDbLine
 10
26.2311388579
 20
11.6395419768
 30
0.0
 11
26.2311388579
 21
11.6226051374
 31
0.0
  0
LWPOLYLINE
  5
422
330
1F
100
AcDbEntity
  8
0
  6
Continuous
 62
   144
370
    18
100
AcDbPolyline
 90
        3
 70
   128
 43
0.0
 10
16.7487573324
 20
11.6047465392
 10
16.7598510353
 20
11.6149957793
 10
16.7626349209
 20
11.6226051374
  0
ELLIPSE
  5
423
330
1F
100
AcDbEntity
  8
0
  6
Continuous
 62
   144
370
    18
100
AcDbEllipse
 10
16.6838947635
 20
11.6254176487
 30
0.0
 11
0.07874015748031482
 21
0.0
 31
0.0
210
0.0
220
0.0
230
1.0
 40
0.4630473898
 41
4.712388980384696
 42
5.68039102678858
  0
ELLIPSE
  5
424
330
1F
100
AcDbEntity
  8
0
  6
Continuous
 62
   144
370
    18
100
AcDbEllipse
 10
14.0303514564
 20
11.6254176487
 30
0.0
 11
0.0787401574803166
 21
0.0
 31
0.0
210
0.0
220
0.0
230
1.0
 40
0.4630473898
 41
3.744386939010429
 42
4.712388980384696
  0
LWPOLYLINE
  5
425
330
1F
100
AcDbEntity
  8
0
  6
Continuous
 62
   144
370
    18
100
AcDbPolyline
 90
        3
 70
   128
 43
0.0
 10
13.9654888877
 20
11.6047465391
 10
13.9543951846
 20
11.6149957792
 10
13.9516112989
 20
11.6226051374
  0
LINE
  5
426
330
1F
100
AcDbEntity
  8
0
  6
Continuous
 62
     7
370
    25
100
AcDbLine
 10
39.8256252235
 20
11.4049514838
 30
0.0
 11
39.8256252235
 21
11.4443215625
 31
0.0
  0
LINE
  5
427
330
1F
100
AcDbEntity
  8
0
  6
Continuous
 62
     7
370
    25
100
AcDbLine
 10
39.8256252235
 20
11.4049514838
 30
0.0
 11
10.5736567195
 21
11.4049514838
 31
0.0
  0
LINE
  5
428
330
1F
100
AcDbEntity
  8
0
  6
Continuous
 62
     7
370
    25
100
AcDbLine
 10
10.5736567195
 20
11.4049514838
 30
0.0
 11
10.5736567195
 21
11.4443215625
 31
0.0
  0
LINE
  5
429
330
1F
100
AcDbEntity
  8
0
  6
Continuous
 62
     7
370
    25
100
AcDbLine
 10
10.5736567195
 20
11.4443215625
 30
0.0
 11
39.8256252235
 21
11.4443215625
 31
0.0
  0
LINE
  5
42A
330
1F
100
AcDbEntity
  8
0
  6
Continuous
 62
   144
370
    18
100
AcDbLine
 10
39.8256252235
 20
11.4482585704
 30
0.0
 11
39.8256252235
 21
11.4443215625
 31
0.0
  0
LINE
  5
42B
330
1F
100
AcDbEntity
  8
0
  6
Continuous
 62
   144
370
    18
100
AcDbLine
 10
10.5736567195
 20
11.4482585704
 30
0.0
 11
10.5736567195
 21
11.4443215625
 31
0.0
  0
LINE
  5
42C
330
1F
100
AcDbEntity
  8
0
  6
Continuous
 62
     7
370
    25
100
AcDbLine
 10
39.8256252235
 20
11.4482585704
 30
0.0
 11
10.5736567195
 21
11.4482585704
 31
0.0
  0
LINE
  5
42D
330
1F
100
AcDbEntity
  8
0
  6
Continuous
 62
     7
370
    25
100
AcDbLine
 10
10.4752315227
 20
11.4049514838
 30
0.0
 11
10.5736567195
 21
11.4049514838
 31
0.0
  0
ARC
  5
42E
330
1F
100
AcDbEntity
  8
0
  6
Continuous
 62
   144
370
    18
100
AcDbCircle
 10
10.4752315227
 20
11.4443215625
 30
0.0
 40
0.0393700787401574
100
AcDbArc
 50
180.0
 51
270.0
  0
LINE
  5
42F
330
1F
100
AcDbEntity
  8
0
  6
Continuous
 62
   144
370
    18
100
AcDbLine
 10
10.4910679934
 20
11.4443215625
 30
0.0
 11
10.4417586591
 21
11.4443215625
 31
0.0
  0
LINE
  5
430
330
1F
100
AcDbEntity
  8
0
  6
Continuous
 62
   144
370
    18
100
AcDbLine
 10
10.5736567195
 20
11.4443215625
 30
0.0
 11
10.4910679934
 21
11.4443215625
 31
0.0
  0
LINE
  5
431
330
1F
100
AcDbEntity
  8
0
  6
Continuous
 62
     7
370
    25
100
AcDbLine
 10
39.8256252235
 20
11.4482585704
 30
0.0
 11
39.8256252235
 21
11.4876286491
 31
0.0
  0
LINE
  5
432
330
1F
100
AcDbEntity
  8
0
  6
Continuous
 62
     7
370
    25
100
AcDbLine
 10
10.5736567195
 20
11.4482585704
 30
0.0
 11
10.5736567195
 21
11.4876286491
 31
0.0
  0
LINE
  5
433
330
1F
100
AcDbEntity
  8
0
  6
Continuous
 62
     7
370
    25
100
AcDbLine
 10
10.5736567195
 20
11.4876286491
 30
0.0
 11
39.8256252235
 21
11.4876286491
 31
0.0
  0
LINE
  5
434
330
1F
100
AcDbEntity
  8
0
  6
Continuous
 62
     7
370
    25
100
AcDbLine
 10
39.9240504203
 20
11.4049514838
 30
0.0
 11
39.8256252235
 21
11.4049514838
 31
0.0
  0
ARC
  5
435
330
1F
100
AcDbEntity
  8
0
  6
Continuous
 62
   144
370
    18
100
AcDbCircle
 10
39.9240504203
 20
11.4443215625
 30
0.0
 40
0.0393700787401627
100
AcDbArc
 50
270.0
 51
0.0
  0
LINE
  5
436
330
1F
100
AcDbEntity
  8
0
  6
Continuous
 62
   144
370
    18
100
AcDbLine
 10
39.9082139495
 20
11.4443215625
 30
0.0
 11
39.9575232838
 21
11.4443215625
 31
0.0
  0
LINE
  5
437
330
1F
100
AcDbEntity
  8
0
  6
Continuous
 62
   144
370
    18
100
AcDbLine
 10
39.8256252235
 20
11.4443215625
 30
0.0
 11
39.9082139495
 21
11.4443215625
 31
0.0
  0
LINE
  5
438
330
1F
100
AcDbEntity
  8
0
  6
Continuous
 62
     7
370
    25
100
AcDbLine
 10
10.5736567195
 20
11.4876286491
 30
0.0
 11
10.4752315227
 21
11.4876286491
 31
0.0
  0
ARC
  5
439
330
1F
100
AcDbEntity
  8
0
  6
Continuous
 62
   144
370
    18
100
AcDbCircle
 10
10.4752315227
 20
11.4482585704
 30
0.0
 40
0.0393700787401574
100
AcDbArc
 50
90.0
 51
180.0
  0
LINE
  5
43A
330
1F
100
AcDbEntity
  8
0
  6
Continuous
 62
   144
370
    18
100
AcDbLine
 10
10.4910679934
 20
11.4482585704
 30
0.0
 11
10.4417586591
 21
11.4482585704
 31
0.0
  0
LINE
  5
43B
330
1F
100
AcDbEntity
  8
0
  6
Continuous
 62
   144
370
    18
100
AcDbLine
 10
10.5736567195
 20
11.4482585704
 30
0.0
 11
10.4910679934
 21
11.4482585704
 31
0.0
  0
LINE
  5
43C
330
1F
100
AcDbEntity
  8
0
  6
Continuous
 62
     7
370
    25
100
AcDbLine
 10
39.8256252235
 20
11.4876286491
 30
0.0
 11
39.9240504203
 21
11.4876286491
 31
0.0
  0
LINE
  5
43D
330
1F
100
AcDbEntity
  8
0
  6
Continuous
 62
   144
370
    18
100
AcDbLine
 10
39.8256252235
 20
11.4482585704
 30
0.0
 11
39.9082139495
 21
11.4482585704
 31
0.0
  0
LINE
  5
43E
330
1F
100
AcDbEntity
  8
0
  6
Continuous
 62
   144
370
    18
100
AcDbLine
 10
39.9082139495
 20
11.4482585704
 30
0.0
 11
39.9575232838
 21
11.4482585704
 31
0.0
  0
ARC
  5
43F
330
1F
100
AcDbEntity
  8
0
  6
Continuous
 62
   144
370
    18
100
AcDbCircle
 10
39.9240504203
 20
11.4482585704
 30
0.0
 40
0.0393700787401627
100
AcDbArc
 50
0.0
 51
90.0
  0
LINE
  5
440
330
1F
100
AcDbEntity
  8
0
  6
Continuous
 62
   144
370
    18
100
AcDbLine
 10
10.4358614439
 20
11.4876286491
 30
0.0
 11
10.4752315227
 21
11.4876286491
 31
0.0
  0
LINE
  5
441
330
1F
100
AcDbEntity
  8
0
  6
Continuous
 62
   144
370
    18
100
AcDbLine
 10
39.9240504203
 20
11.4876286491
 30
0.0
 11
39.963420499
 21
11.4876286491
 31
0.0
  0
LINE
  5
442
330
1F
100
AcDbEntity
  8
0
  6
Continuous
 62
     7
370
    25
100
AcDbLine
 10
10.4358614439
 20
11.6542981751
 30
0.0
 11
10.4358614439
 21
11.618715122
 31
0.0
  0
LINE
  5
443
330
1F
100
AcDbEntity
  8
0
  6
Continuous
 62
     7
370
    25
100
AcDbLine
 10
10.4358614439
 20
11.618715122
 30
0.0
 11
10.4358614439
 21
11.4876286491
 31
0.0
  0
LINE
  5
444
330
1F
100
AcDbEntity
  8
0
  6
Continuous
 62
   144
370
    18
100
AcDbLine
 10
10.4358614439
 20
11.4482585704
 30
0.0
 11
10.4358614439
 21
11.4876286491
 31
0.0
  0
LINE
  5
445
330
1F
100
AcDbEntity
  8
0
  6
Continuous
 62
     7
370
    25
100
AcDbLine
 10
39.963420499
 20
11.618715122
 30
0.0
 11
39.963420499
 21
11.4876286491
 31
0.0
  0
LINE
  5
446
330
1F
100
AcDbEntity
  8
0
  6
Continuous
 62
     7
370
    25
100
AcDbLine
 10
39.963420499
 20
11.6542981751
 30
0.0
 11
39.963420499
 21
11.618715122
 31
0.0
  0
LINE
  5
447
330
1F
100
AcDbEntity
  8
0
  6
Continuous
 62
   144
370
    18
100
AcDbLine
 10
39.963420499
 20
11.4876286491
 30
0.0
 11
39.963420499
 21
11.4482585704
 31
0.0
  0
LINE
  5
448
330
1F
100
AcDbEntity
  8
0
  6
Continuous
 62
     7
370
    25
100
AcDbLine
 10
10.4358614439
 20
11.618715122
 30
0.0
 11
11.8077008662
 21
11.618715122
 31
0.0
  0
ARC
  5
449
330
1F
100
AcDbEntity
  8
0
  6
Continuous
 62
   144
370
    18
100
AcDbCircle
 10
37.544124098
 20
11.2604459878
 30
0.0
 40
25.7387495793127
100
AcDbArc
 50
179.2224799694
 51
179.4942731522
  0
LINE
  5
44A
330
1F
100
AcDbEntity
  8
0
  6
Continuous
 62
   144
370
    18
100
AcDbLine
 10
11.8077091471
 20
11.6183721183
 30
0.0
 11
11.8077444114
 21
11.6097174231
 31
0.0
  0
LINE
  5
44B
330
1F
100
AcDbEntity
  8
0
  6
Continuous
 62
   144
370
    18
100
AcDbLine
 10
11.8077008662
 20
11.618715122
 30
0.0
 11
11.8077091471
 21
11.6183721183
 31
0.0
  0
LINE
  5
44C
330
1F
100
AcDbEntity
  8
0
  6
Continuous
 62
     7
370
    25
100
AcDbLine
 10
39.963420499
 20
11.618715122
 30
0.0
 11
38.5915810768
 21
11.618715122
 31
0.0
  0
LINE
  5
44D
330
1F
100
AcDbEntity
  8
0
  6
Continuous
 62
   144
370
    18
100
AcDbLine
 10
38.5915810768
 20
11.618715122
 30
0.0
 11
38.5915727958
 21
11.6183721183
 31
0.0
  0
LINE
  5
44E
330
1F
100
AcDbEntity
  8
0
  6
Continuous
 62
   144
370
    18
100
AcDbLine
 10
38.5915727958
 20
11.6183721183
 30
0.0
 11
38.5915375316
 21
11.6097174231
 31
0.0
  0
ARC
  5
44F
330
1F
100
AcDbEntity
  8
0
  6
Continuous
 62
   144
370
    18
100
AcDbCircle
 10
12.8551578411
 20
11.2604459878
 30
0.0
 40
25.7387495832456
100
AcDbArc
 50
0.5057268478
 51
0.7775200306
  0
ARC
  5
450
330
1F
100
AcDbEntity
  8
0
  6
Continuous
 62
     7
370
    25
100
AcDbCircle
 10
11.8653702445
 20
11.6643277822
 30
0.0
 40
0.0930171327556662
100
AcDbArc
 50
242.465930261
 51
270.3238012715
  0
LWPOLYLINE
  5
451
330
1F
100
AcDbEntity
  8
0
  6
Continuous
 62
   144
370
    18
100
AcDbPolyline
 90
        4
 70
   128
 43
0.0
 10
11.8223706588
 20
11.581846132
 10
11.8223739315
 20
11.5505451888
 10
11.822373487
 20
11.4963018493
 10
11.8223736762
 20
11.4876286491
  0
ARC
  5
452
330
1F
100
AcDbEntity
  8
0
  6
Continuous
 62
     7
370
    25
100
AcDbCircle
 10
38.5339116985
 20
11.6643277822
 30
0.0
 40
0.093017132755629
100
AcDbArc
 50
269.6761987285
 51
297.534069739
  0
LWPOLYLINE
  5
453
330
1F
100
AcDbEntity
  8
0
  6
Continuous
 62
   144
370
    18
100
AcDbPolyline
 90
        4
 70
   128
 43
0.0
 10
38.5769112841
 20
11.581846132
 10
38.5769080115
 20
11.5505451888
 10
38.576908456
 20
11.4963018493
 10
38.5769082668
 20
11.4876286491
  0
LINE
  5
454
330
1F
100
AcDbEntity
  8
0
  6
Continuous
 62
     7
370
    25
100
AcDbLine
 10
37.6996409715
 20
11.5713121349
 30
0.0
 11
38.5333860244
 21
11.5713121349
 31
0.0
  0
LINE
  5
455
330
1F
100
AcDbEntity
  8
0
  6
Continuous
 62
     7
370
    25
100
AcDbLine
 10
11.8658959186
 20
11.5713121349
 30
0.0
 11
36.9516094754
 21
11.5713121349
 31
0.0
  0
LINE
  5
456
330
1F
100
AcDbEntity
  8
0
  6
Continuous
 62
   144
370
    18
100
AcDbLine
 10
36.9516094754
 20
11.5065807998
 30
0.0
 11
36.9516094754
 21
11.5713121349
 31
0.0
  0
LINE
  5
457
330
1F
100
AcDbEntity
  8
0
  6
Continuous
 62
   144
370
    18
100
AcDbLine
 10
36.9516094754
 20
11.5065807998
 30
0.0
 11
36.9588262603
 21
11.4876286491
 31
0.0
  0
LINE
  5
458
330
1F
100
AcDbEntity
  8
0
  6
Continuous
 62
   144
370
    18
100
AcDbLine
 10
37.6940127842
 20
11.4876286491
 30
0.0
 11
37.6996409715
 21
11.5065807998
 31
0.0
  0
LINE
  5
459
330
1F
100
AcDbEntity
  8
0
  6
Continuous
 62
   144
370
    18
100
AcDbLine
 10
37.6996409715
 20
11.5713121349
 30
0.0
 11
37.6996409715
 21
11.5065807998
 31
0.0
  0
LWPOLYLINE
  5
45A
330
1F
100
AcDbEntity
  8
0
  6
Continuous
 62
   144
370
    18
100
AcDbPolyline
 90
        6
 70
   128
 43
0.0
 10
39.963420499
 20
11.6542981751
 10
39.9589795164
 20
11.6695432961
 10
39.9434798599
 20
11.6822284545
 10
39.9176123418
 20
11.6903886571
 10
39.8836184797
 20
11.6947030994
 10
39.8453102628
 20
11.6960099581
  0
LINE
  5
45B
330
1F
100
AcDbEntity
  8
0
  6
Continuous
 62
   144
370
    18
100
AcDbLine
 10
39.215389003
 20
11.6960099581
 30
0.0
 11
39.8453102628
 21
11.6960099581
 31
0.0
  0
ARC
  5
45C
330
1F
100
AcDbEntity
  8
0
  6
Continuous
 62
   144
370
    18
100
AcDbCircle
 10
39.3363027756
 20
14.1578057596
 30
0.0
 40
2.464763418351362
100
AcDbArc
 50
264.554975487
 51
267.188115272
  0
LINE
  5
45D
330
1F
100
AcDbEntity
  8
0
  6
Continuous
 62
   144
370
    18
100
AcDbLine
 10
38.5929047927
 20
11.7041640822
 30
0.0
 11
39.1024198402
 21
11.7041640822
 31
0.0
  0
LWPOLYLINE
  5
45E
330
1F
100
AcDbEntity
  8
0
  6
Continuous
 62
   144
370
    18
100
AcDbPolyline
 90
        3
 70
   128
 43
0.0
 10
38.5929047927
 20
11.7041640822
 10
38.5926799069
 20
11.6845948754
 10
38.5915810768
 20
11.618715122
  0
LWPOLYLINE
  5
45F
330
1F
100
AcDbEntity
  8
0
  6
Continuous
 62
   144
370
    18
100
AcDbPolyline
 90
        3
 70
   128
 43
0.0
 10
11.8063771503
 20
11.7041640822
 10
11.8066020361
 20
11.6845948754
 10
11.8077008662
 20
11.618715122
  0
LINE
  5
460
330
1F
100
AcDbEntity
  8
0
  6
Continuous
 62
   144
370
    18
100
AcDbLine
 10
11.8063771503
 20
11.7041640822
 30
0.0
 11
11.2968621028
 21
11.7041640822
 31
0.0
  0
ARC
  5
461
330
1F
100
AcDbEntity
  8
0
  6
Continuous
 62
   144
370
    18
100
AcDbCircle
 10
11.0629791673
 20
14.1578057596
 30
0.0
 40
2.464763418355066
100
AcDbArc
 50
272.811884728
 51
275.445024513
  0
LINE
  5
462
330
1F
100
AcDbEntity
  8
0
  6
Continuous
 62
   144
370
    18
100
AcDbLine
 10
11.18389294
 20
11.6960099581
 30
0.0
 11
10.5539716802
 21
11.6960099581
 31
0.0
  0
LWPOLYLINE
  5
463
330
1F
100
AcDbEntity
  8
0
  6
Continuous
 62
   144
370
    18
100
AcDbPolyline
 90
        6
 70
   128
 43
0.0
 10
10.4358614439
 20
11.6542981751
 10
10.4403024265
 20
11.6695432961
 10
10.4558020831
 20
11.6822284545
 10
10.4816696011
 20
11.6903886571
 10
10.5156634633
 20
11.6947030994
 10
10.5539716802
 20
11.6960099581
  0
LWPOLYLINE
  5
464
330
1F
100
AcDbEntity
  8
0
  6
Continuous
 62
     7
370
    25
100
AcDbPolyline
 90
        3
 70
   128
 43
0.0
 10
38.5333860244
 20
11.6451089641
 10
38.5334167626
 20
11.6263243709
 10
38.5333860244
 20
11.5713121349
  0
ARC
  5
465
330
1F
100
AcDbEntity
  8
0
  6
Continuous
 62
   144
370
    18
100
AcDbCircle
 10
38.5333860244
 20
11.7238491215
 30
0.0
 40
0.0787401574803148
100
AcDbArc
 50
270.0
 51
303.5573097619
  0
LWPOLYLINE
  5
466
330
1F
100
AcDbEntity
  8
0
  6
Continuous
 62
   144
370
    18
100
AcDbPolyline
 90
        3
 70
   128
 43
0.0
 10
38.5769112841
 20
11.6582323236
 10
38.5769416527
 20
11.6407537786
 10
38.5769112841
 20
11.581846132
  0
LWPOLYLINE
  5
467
330
1F
100
AcDbEntity
  8
0
  6
Continuous
 62
     7
370
    25
100
AcDbPolyline
 90
        3
 70
   128
 43
0.0
 10
11.8658959186
 20
11.6451089641
 10
11.8658651804
 20
11.6263243709
 10
11.8658959186
 20
11.5713121349
  0
LWPOLYLINE
  5
468
330
1F
100
AcDbEntity
  8
0
  6
Continuous
 62
   144
370
    18
100
AcDbPolyline
 90
        3
 70
   128
 43
0.0
 10
11.8223706588
 20
11.6582323236
 10
11.8223402903
 20
11.6407537786
 10
11.8223706588
 20
11.581846132
  0
ARC
  5
469
330
1F
100
AcDbEntity
  8
0
  6
Continuous
 62
   144
370
    18
100
AcDbCircle
 10
11.8658959186
 20
11.7238491215
 30
0.0
 40
0.0787401574803148
100
AcDbArc
 50
236.4426902381
 51
270.0
  0
LINE
  5
46A
330
1F
100
AcDbEntity
  8
0
  6
Continuous
 62
     7
370
    25
100
AcDbLine
 10
38.5333860244
 20
11.6451089641
 30
0.0
 11
37.6528230309
 21
11.6451089641
 31
0.0
  0
LINE
  5
46B
330
1F
100
AcDbEntity
  8
0
  6
Continuous
 62
   144
370
    18
100
AcDbLine
 10
37.6996409715
 20
11.6080197914
 30
0.0
 11
37.6996409715
 21
11.5713121349
 31
0.0
  0
LWPOLYLINE
  5
46C
330
1F
100
AcDbEntity
  8
0
  6
Continuous
 62
   144
370
    18
100
AcDbPolyline
 90
        4
 70
   128
 43
0.0
 10
37.6996409715
 20
11.6080197914
 10
37.6905377538
 20
11.6314208787
 10
37.6621039471
 20
11.6429060232
 10
37.6534547596
 20
11.643438952
  0
LINE
  5
46D
330
1F
100
AcDbEntity
  8
0
  6
Continuous
 62
     7
370
    25
100
AcDbLine
 10
36.9982044326
 20
11.6451089641
 30
0.0
 11
11.8658959186
 21
11.6451089641
 31
0.0
  0
LWPOLYLINE
  5
46E
330
1F
100
AcDbEntity
  8
0
  6
Continuous
 62
   144
370
    18
100
AcDbPolyline
 90
        4
 70
   128
 43
0.0
 10
36.997361386
 20
11.6428115374
 10
36.9821307056
 20
11.6415408715
 10
36.9574371093
 20
11.6277932345
 10
36.9516094754
 20
11.6080197914
  0
LINE
  5
46F
330
1F
100
AcDbEntity
  8
0
  6
Continuous
 62
   144
370
    18
100
AcDbLine
 10
36.9516094754
 20
11.5713121349
 30
0.0
 11
36.9516094754
 21
11.6080197914
 31
0.0
  0
LINE
  5
470
330
1F
100
AcDbEntity
  8
0
  6
Continuous
 62
   144
370
    18
100
AcDbLine
 10
37.1681449085
 20
11.6451089641
 30
0.0
 11
37.4831055384
 21
11.6451089641
 31
0.0
  0
LINE
  5
471
330
1F
100
AcDbEntity
  8
0
  6
Continuous
 62
   144
370
    18
100
AcDbLine
 10
37.6996409715
 20
11.5365499443
 30
0.0
 11
37.68389294
 21
11.5365499443
 31
0.0
  0
LINE
  5
472
330
1F
100
AcDbEntity
  8
0
  6
Continuous
 62
   144
370
    18
100
AcDbLine
 10
36.9673575069
 20
11.5365499443
 30
0.0
 11
36.9516094754
 21
11.5365499443
 31
0.0
  0
LINE
  5
473
330
1F
100
AcDbEntity
  8
0
  6
Continuous
 62
   144
370
    18
100
AcDbLine
 10
36.9673575069
 20
11.5365499443
 30
0.0
 11
36.9673575069
 21
11.4876286491
 31
0.0
  0
LINE
  5
474
330
1F
100
AcDbEntity
  8
0
  6
Continuous
 62
   144
370
    18
100
AcDbLine
 10
37.68389294
 20
11.4876286491
 30
0.0
 11
37.68389294
 21
11.5365499443
 31
0.0
  0
LINE
  5
475
330
1F
100
AcDbEntity
  8
0
  6
Continuous
 62
   144
370
    18
100
AcDbLine
 10
37.4831055384
 20
11.6254239247
 30
0.0
 11
37.5873103302
 21
11.6254239247
 31
0.0
  0
LWPOLYLINE
  5
476
330
1F
100
AcDbEntity
  8
0
  6
Continuous
 62
   144
370
    18
100
AcDbPolyline
 90
        5
 70
   128
 43
0.0
 10
37.5873103302
 20
11.6254239247
 10
37.5923092803
 20
11.6253981283
 10
37.629086417
 20
11.6220732532
 10
37.6527533013
 20
11.6096593486
 10
37.6602708927
 20
11.5860249364
  0
LINE
  5
477
330
1F
100
AcDbEntity
  8
0
  6
Continuous
 62
   144
370
    18
100
AcDbLine
 10
37.6602708927
 20
11.6254201008
 30
0.0
 11
37.6602708927
 21
11.5860249364
 31
0.0
  0
LWPOLYLINE
  5
478
330
1F
100
AcDbEntity
  8
0
  6
Continuous
 62
   144
370
    18
100
AcDbPolyline
 90
        4
 70
   128
 43
0.0
 10
37.6602708927
 20
11.6254201008
 10
37.6519661673
 20
11.6473741337
 10
37.6270142212
 20
11.6582188946
 10
37.5873103302
 20
11.6608569956
  0
LINE
  5
479
330
1F
100
AcDbEntity
  8
0
  6
Continuous
 62
   144
370
    18
100
AcDbLine
 10
37.5873103302
 20
11.6608569956
 30
0.0
 11
37.4831055384
 21
11.6608569956
 31
0.0
  0
LINE
  5
47A
330
1F
100
AcDbEntity
  8
0
  6
Continuous
 62
   144
370
    18
100
AcDbLine
 10
37.4831055384
 20
11.6254239247
 30
0.0
 11
37.4831055384
 21
11.6608569956
 31
0.0
  0
LWPOLYLINE
  5
47B
330
1F
100
AcDbEntity
  8
0
  6
Continuous
 62
   144
370
    18
100
AcDbPolyline
 90
        4
 70
   128
 43
0.0
 10
37.0639401168
 20
11.6608569956
 10
37.0234212732
 20
11.6580650041
 10
36.9988951488
 20
11.646991268
 10
36.9909795542
 20
11.6254201008
  0
LINE
  5
47C
330
1F
100
AcDbEntity
  8
0
  6
Continuous
 62
   144
370
    18
100
AcDbLine
 10
37.1681449085
 20
11.6608569956
 30
0.0
 11
37.0639401168
 21
11.6608569956
 31
0.0
  0
LINE
  5
47D
330
1F
100
AcDbEntity
  8
0
  6
Continuous
 62
   144
370
    18
100
AcDbLine
 10
37.1681449085
 20
11.6608569956
 30
0.0
 11
37.1681449085
 21
11.6254239247
 31
0.0
  0
LINE
  5
47E
330
1F
100
AcDbEntity
  8
0
  6
Continuous
 62
   144
370
    18
100
AcDbLine
 10
37.0639401168
 20
11.6254239247
 30
0.0
 11
37.1681449085
 21
11.6254239247
 31
0.0
  0
LWPOLYLINE
  5
47F
330
1F
100
AcDbEntity
  8
0
  6
Continuous
 62
   144
370
    18
100
AcDbPolyline
 90
        4
 70
   128
 43
0.0
 10
36.9909795542
 20
11.5860249364
 10
36.9996950493
 20
11.6109665487
 10
37.0245957564
 20
11.6225923068
 10
37.0639401168
 20
11.6254239247
  0
LINE
  5
480
330
1F
100
AcDbEntity
  8
0
  6
Continuous
 62
   144
370
    18
100
AcDbLine
 10
36.9909795542
 20
11.5860249364
 30
0.0
 11
36.9909795542
 21
11.6254201008
 31
0.0
  0
ARC
  5
481
330
1F
100
AcDbEntity
  8
0
  6
Continuous
 62
   144
370
    18
100
AcDbCircle
 10
37.6576013491
 20
11.6157499792
 30
0.0
 40
0.0141604353432157
100
AcDbArc
 50
279.9346573403
 51
7.3026091023
  0
LINE
  5
482
330
1F
100
AcDbEntity
  8
0
  6
Continuous
 62
   144
370
    18
100
AcDbLine
 10
37.6991106048
 20
11.6159160838
 30
0.0
 11
37.6716469243
 21
11.6175499089
 31
0.0
  0
LWPOLYLINE
  5
483
330
1F
100
AcDbEntity
  8
0
  6
Continuous
 62
   144
370
    18
100
AcDbPolyline
 90
        3
 70
   128
 43
0.0
 10
37.6600443775
 20
11.6018018775
 10
37.6858179854
 20
11.6002423171
 10
37.6996409715
 20
11.5945300643
  0
ARC
  5
484
330
1F
100
AcDbEntity
  8
0
  6
Continuous
 62
   144
370
    18
100
AcDbCircle
 10
38.6878299479
 20
10.9955026649
 30
0.0
 40
0.118110236220474
100
AcDbArc
 50
318.1191233131
 51
0.0
  0
LINE
  5
485
330
1F
100
AcDbEntity
  8
0
  6
Continuous
 62
     7
370
    25
100
AcDbLine
 10
11.5933417589
 20
11.7553451845
 30
0.0
 11
11.5933417589
 21
11.7041640822
 31
0.0
  0
LINE
  5
486
330
1F
100
AcDbEntity
  8
0
  6
Continuous
 62
     7
370
    25
100
AcDbLine
 10
11.5933417589
 20
11.4049514838
 30
0.0
 11
11.5933417589
 21
11.2142278504
 31
0.0
  0
LINE
  5
487
330
1F
100
AcDbEntity
  8
0
  6
Continuous
 62
   144
370
    18
100
AcDbLine
 10
11.5933417589
 20
10.9955026649
 30
0.0
 11
11.5933417589
 21
11.1748577716
 31
0.0
  0
LINE
  5
488
330
1F
100
AcDbEntity
  8
0
  6
Continuous
 62
   144
370
    18
100
AcDbLine
 10
11.5933417589
 20
11.2142278504
 30
0.0
 11
11.5933417589
 21
11.1748577716
 31
0.0
  0
ARC
  5
489
330
1F
100
AcDbEntity
  8
0
  6
Continuous
 62
   144
370
    18
100
AcDbCircle
 10
11.7114519951
 20
10.9955026649
 30
0.0
 40
0.1181102362204722
100
AcDbArc
 50
180.0
 51
221.8808766869
  0
LINE
  5
48A
330
1F
100
AcDbEntity
  8
0
  6
Continuous
 62
     7
370
    25
100
AcDbLine
 10
38.8059401841
 20
11.7553451845
 30
0.0
 11
38.8059401841
 21
11.7041640822
 31
0.0
  0
LINE
  5
48B
330
1F
100
AcDbEntity
  8
0
  6
Continuous
 62
     7
370
    25
100
AcDbLine
 10
38.8059401841
 20
11.4049514838
 30
0.0
 11
38.8059401841
 21
11.2142278504
 31
0.0
  0
LINE
  5
48C
330
1F
100
AcDbEntity
  8
0
  6
Continuous
 62
   144
370
    18
100
AcDbLine
 10
38.8059401841
 20
11.2142278504
 30
0.0
 11
38.8059401841
 21
11.1748577716
 31
0.0
  0
LINE
  5
48D
330
1F
100
AcDbEntity
  8
0
  6
Continuous
 62
   144
370
    18
100
AcDbLine
 10
38.8059401841
 20
11.1748577716
 30
0.0
 11
38.8059401841
 21
10.9955026649
 31
0.0
  0
LINE
  5
48E
330
1F
100
AcDbEntity
  8
0
  6
Continuous
 62
   144
370
    18
100
AcDbLine
 10
38.7665701053
 20
11.2285573872
 30
0.0
 11
38.7665701053
 21
11.1748577716
 31
0.0
  0
LINE
  5
48F
330
1F
100
AcDbEntity
  8
0
  6
Continuous
 62
   144
370
    18
100
AcDbLine
 10
38.7665701053
 20
11.7553451845
 30
0.0
 11
38.7665701053
 21
11.7041640822
 31
0.0
  0
LINE
  5
490
330
1F
100
AcDbEntity
  8
0
  6
Continuous
 62
   144
370
    18
100
AcDbLine
 10
38.7665701053
 20
11.4049514838
 30
0.0
 11
38.7665701053
 21
11.2285573872
 31
0.0
  0
LINE
  5
491
330
1F
100
AcDbEntity
  8
0
  6
Continuous
 62
   144
370
    18
100
AcDbLine
 10
38.7665701053
 20
11.1748577716
 30
0.0
 11
38.7665701053
 21
10.9955026649
 31
0.0
  0
LINE
  5
492
330
1F
100
AcDbEntity
  8
0
  6
Continuous
 62
   144
370
    18
100
AcDbLine
 10
11.6327118376
 20
11.7553451845
 30
0.0
 11
11.6327118376
 21
11.7041640822
 31
0.0
  0
LINE
  5
493
330
1F
100
AcDbEntity
  8
0
  6
Continuous
 62
   144
370
    18
100
AcDbLine
 10
11.6327118376
 20
11.4049514838
 30
0.0
 11
11.6327118376
 21
11.2285573872
 31
0.0
  0
LINE
  5
494
330
1F
100
AcDbEntity
  8
0
  6
Continuous
 62
   144
370
    18
100
AcDbLine
 10
11.6327118376
 20
11.2285573872
 30
0.0
 11
11.6327118376
 21
11.1748577716
 31
0.0
  0
LINE
  5
495
330
1F
100
AcDbEntity
  8
0
  6
Continuous
 62
   144
370
    18
100
AcDbLine
 10
11.6327118376
 20
10.9955026649
 30
0.0
 11
11.6327118376
 21
11.1748577716
 31
0.0
  0
LINE
  5
496
330
1F
100
AcDbEntity
  8
0
  6
Continuous
 62
   144
370
    18
100
AcDbLine
 10
11.215389003
 20
11.7259033746
 30
0.0
 11
11.2382869847
 21
11.6986146227
 31
0.0
  0
LINE
  5
497
330
1F
100
AcDbEntity
  8
0
  6
Continuous
 62
   144
370
    18
100
AcDbLine
 10
11.5520068231
 20
11.3247378781
 30
0.0
 11
11.6327118376
 21
11.2285573872
 31
0.0
  0
LINE
  5
498
330
1F
100
AcDbEntity
  8
0
  6
Continuous
 62
   144
370
    18
100
AcDbLine
 10
11.1760189242
 20
11.7115738378
 30
0.0
 11
11.1889676247
 21
11.6961421776
 31
0.0
  0
LINE
  5
499
330
1F
100
AcDbEntity
  8
0
  6
Continuous
 62
   144
370
    18
100
AcDbLine
 10
11.5520068231
 20
11.2634889086
 30
0.0
 11
11.5933417589
 21
11.2142278504
 31
0.0
  0
LINE
  5
49A
330
1F
100
AcDbEntity
  8
0
  6
Continuous
 62
   144
370
    18
100
AcDbLine
 10
39.2232630187
 20
11.7115738378
 30
0.0
 11
39.2103143183
 21
11.6961421776
 31
0.0
  0
LINE
  5
49B
330
1F
100
AcDbEntity
  8
0
  6
Continuous
 62
   144
370
    18
100
AcDbLine
 10
38.8472787668
 20
11.2634932548
 30
0.0
 11
38.8059401841
 21
11.2142278504
 31
0.0
  0
LINE
  5
49C
330
1F
100
AcDbEntity
  8
0
  6
Continuous
 62
     7
370
    25
100
AcDbLine
 10
31.6287745309
 20
10.7002270743
 30
0.0
 11
31.3689326245
 21
10.7002270743
 31
0.0
  0
LINE
  5
49D
330
1F
100
AcDbEntity
  8
0
  6
Continuous
 62
     7
370
    25
100
AcDbLine
 10
25.3295619325
 20
10.7002270743
 30
0.0
 11
25.0697200261
 21
10.7002270743
 31
0.0
  0
LINE
  5
49E
330
1F
100
AcDbEntity
  8
0
  6
Continuous
 62
     7
370
    25
100
AcDbLine
 10
19.0303493184
 20
10.7002270743
 30
0.0
 11
18.770507412
 21
10.7002270743
 31
0.0
  0
LINE
  5
49F
330
1F
100
AcDbEntity
  8
0
  6
Continuous
 62
     7
370
    25
100
AcDbLine
 10
35.1720816175
 20
10.7002270743
 30
0.0
 11
34.9122397112
 21
10.7002270743
 31
0.0
  0
LINE
  5
4A0
330
1F
100
AcDbEntity
  8
0
  6
Continuous
 62
     7
370
    25
100
AcDbLine
 10
15.4870422318
 20
10.7002270743
 30
0.0
 11
15.2272003254
 21
10.7002270743
 31
0.0
  0
LINE
  5
4A1
330
1F
100
AcDbEntity
  8
0
  6
Continuous
 62
   144
370
    18
100
AcDbLine
 10
26.7232630187
 20
10.9561325861
 30
0.0
 11
26.620900814
 21
10.9561325861
 31
0.0
  0
LINE
  5
4A2
330
1F
100
AcDbEntity
  8
0
  6
Continuous
 62
   144
370
    18
100
AcDbLine
 10
33.620900814
 20
10.9561325861
 30
0.0
 11
33.5185386093
 21
10.9561325861
 31
0.0
  0
LINE
  5
4A3
330
1F
100
AcDbEntity
  8
0
  6
Continuous
 62
   144
370
    18
100
AcDbLine
 10
17.4791685305
 20
10.9561325861
 30
0.0
 11
17.3768063258
 21
10.9561325861
 31
0.0
  0
LINE
  5
4A4
330
1F
100
AcDbEntity
  8
0
  6
Continuous
 62
   144
370
    18
100
AcDbLine
 10
23.778381129
 20
10.9561325861
 30
0.0
 11
23.6760189242
 21
10.9561325861
 31
0.0
  0
LINE
  5
4A5
330
1F
100
AcDbEntity
  8
0
  6
Continuous
 62
   144
370
    18
100
AcDbLine
 10
16.8807433337
 20
10.9561325861
 30
0.0
 11
16.778381129
 21
10.9561325861
 31
0.0
  0
LINE
  5
4A6
330
1F
100
AcDbEntity
  8
0
  6
Continuous
 62
   144
370
    18
100
AcDbLine
 10
33.0224756172
 20
10.9561325861
 30
0.0
 11
32.9201134124
 21
10.9561325861
 31
0.0
  0
LINE
  5
4A7
330
1F
100
AcDbEntity
  8
0
  6
Continuous
 62
   144
370
    18
100
AcDbLine
 10
11.1760189242
 20
11.7115738378
 30
0.0
 11
11.1760189242
 21
11.7553451845
 31
0.0
  0
LINE
  5
4A8
330
1F
100
AcDbEntity
  8
0
  6
Continuous
 62
   144
370
    18
100
AcDbLine
 10
39.2232630187
 20
11.7553451845
 30
0.0
 11
39.2232630187
 21
11.7115738378
 31
0.0
  0
LINE
  5
4A9
330
1F
100
AcDbEntity
  8
0
  6
Continuous
 62
     7
370
    25
100
AcDbLine
 10
13.3886173494
 20
10.9350485741
 30
0.0
 11
12.6588719201
 21
10.9350485741
 31
0.0
  0
LWPOLYLINE
  5
4AA
330
1F
100
AcDbEntity
  8
0
  6
Continuous
 62
     7
370
    25
100
AcDbPolyline
 90
        3
 70
   128
 43
0.0
 10
12.6588719201
 20
10.9350485741
 10
12.6445582396
 20
10.9220754103
 10
12.637787908
 20
10.9167625074
  0
LWPOLYLINE
  5
4AB
330
1F
100
AcDbEntity
  8
0
  6
Continuous
 62
     7
370
    25
100
AcDbPolyline
 90
        3
 70
   128
 43
0.0
 10
37.7614940349
 20
10.9167625074
 10
37.7547237034
 20
10.9220754103
 10
37.7404100229
 20
10.9350485741
  0
LINE
  5
4AC
330
1F
100
AcDbEntity
  8
0
  6
Continuous
 62
     7
370
    25
100
AcDbLine
 10
37.7404100229
 20
10.9350485741
 30
0.0
 11
37.0106645935
 21
10.9350485741
 31
0.0
  0
LINE
  5
4AD
330
1F
100
AcDbEntity
  8
0
  6
Continuous
 62
     7
370
    25
100
AcDbLine
 10
13.3886173494
 20
11.0258116602
 30
0.0
 11
12.7496350062
 21
11.0258116602
 31
0.0
  0
LINE
  5
4AE
330
1F
100
AcDbEntity
  8
0
  6
Continuous
 62
     7
370
    25
100
AcDbLine
 10
12.6588719201
 20
10.9350485741
 30
0.0
 11
12.7496350062
 21
11.0258116602
 31
0.0
  0
LINE
  5
4AF
330
1F
100
AcDbEntity
  8
0
  6
Continuous
 62
     7
370
    25
100
AcDbLine
 10
13.3886173494
 20
11.0258116602
 30
0.0
 11
13.3886173494
 21
10.9350485741
 31
0.0
  0
LINE
  5
4B0
330
1F
100
AcDbEntity
  8
0
  6
Continuous
 62
     7
370
    25
100
AcDbLine
 10
37.6496469368
 20
11.0258116602
 30
0.0
 11
37.0106645935
 21
11.0258116602
 31
0.0
  0
LINE
  5
4B1
330
1F
100
AcDbEntity
  8
0
  6
Continuous
 62
     7
370
    25
100
AcDbLine
 10
37.0106645935
 20
10.9350485741
 30
0.0
 11
37.0106645935
 21
11.0258116602
 31
0.0
  0
LINE
  5
4B2
330
1F
100
AcDbEntity
  8
0
  6
Continuous
 62
     7
370
    25
100
AcDbLine
 10
37.7404100229
 20
10.9350485741
 30
0.0
 11
37.6496469368
 21
11.0258116602
 31
0.0
  0
LINE
  5
4B3
330
1F
100
AcDbEntity
  8
0
  6
Continuous
 62
     7
370
    25
100
AcDbLine
 10
37.0106645935
 20
11.0258116602
 30
0.0
 11
13.3886173494
 21
11.0258116602
 31
0.0
  0
LINE
  5
4B4
330
1F
100
AcDbEntity
  8
0
  6
Continuous
 62
     7
370
    25
100
AcDbLine
 10
37.0106645935
 20
11.0742428223
 30
0.0
 11
37.5327237683
 21
11.0742428223
 31
0.0
  0
LINE
  5
4B5
330
1F
100
AcDbEntity
  8
0
  6
Continuous
 62
     7
370
    25
100
AcDbLine
 10
37.0106645935
 20
11.0258116602
 30
0.0
 11
37.0106645935
 21
11.0742428223
 31
0.0
  0
ARC
  5
4B6
330
1F
100
AcDbEntity
  8
0
  6
Continuous
 62
     7
370
    25
100
AcDbCircle
 10
37.5327237683
 20
10.9088884916
 30
0.0
 40
0.1653543307086647
100
AcDbArc
 50
45.0
 51
90.0
  0
LINE
  5
4B7
330
1F
100
AcDbEntity
  8
0
  6
Continuous
 62
     7
370
    25
100
AcDbLine
 10
12.8665581747
 20
11.0742428223
 30
0.0
 11
13.3886173494
 21
11.0742428223
 31
0.0
  0
ARC
  5
4B8
330
1F
100
AcDbEntity
  8
0
  6
Continuous
 62
     7
370
    25
100
AcDbCircle
 10
12.8665581747
 20
10.9088884916
 30
0.0
 40
0.1653543307086647
100
AcDbArc
 50
90.0
 51
135.0
  0
LINE
  5
4B9
330
1F
100
AcDbEntity
  8
0
  6
Continuous
 62
     7
370
    25
100
AcDbLine
 10
13.3886173494
 20
11.0258116602
 30
0.0
 11
13.3886173494
 21
11.0742428223
 31
0.0
  0
LINE
  5
4BA
330
1F
100
AcDbEntity
  8
0
  6
Continuous
 62
     7
370
    25
100
AcDbLine
 10
13.3886173494
 20
11.0742428223
 30
0.0
 11
37.0106645935
 21
11.0742428223
 31
0.0
  0
LINE
  5
4BB
330
1F
100
AcDbEntity
  8
0
  6
Continuous
 62
     7
370
    25
100
AcDbLine
 10
12.2586957751
 20
10.7002270743
 30
0.0
 11
11.9988538687
 21
10.7002270743
 31
0.0
  0
LINE
  5
4BC
330
1F
100
AcDbEntity
  8
0
  6
Continuous
 62
     7
370
    25
100
AcDbLine
 10
38.4004280742
 20
10.7002270743
 30
0.0
 11
38.1405861679
 21
10.7002270743
 31
0.0
  0
LINE
  5
4BD
330
1F
100
AcDbEntity
  8
0
  6
Continuous
 62
   144
370
    18
100
AcDbLine
 10
37.2665701053
 20
11.1923530586
 30
0.0
 11
36.7547590817
 21
11.1923530586
 31
0.0
  0
LINE
  5
4BE
330
1F
100
AcDbEntity
  8
0
  6
Continuous
 62
   144
370
    18
100
AcDbLine
 10
38.7828777259
 20
11.3892034523
 30
0.0
 11
38.7828777259
 21
10.9955026649
 31
0.0
  0
LINE
  5
4BF
330
1F
100
AcDbEntity
  8
0
  6
Continuous
 62
   144
370
    18
100
AcDbLine
 10
38.8059401841
 20
11.3892034523
 30
0.0
 11
38.7828777259
 21
11.3892034523
 31
0.0
  0
LINE
  5
4C0
330
1F
100
AcDbEntity
  8
0
  6
Continuous
 62
   144
370
    18
100
AcDbLine
 10
38.8059401841
 20
10.9955026649
 30
0.0
 11
38.7828777259
 21
10.9955026649
 31
0.0
  0
LINE
  5
4C1
330
1F
100
AcDbEntity
  8
0
  6
Continuous
 62
   144
370
    18
100
AcDbLine
 10
11.6164042171
 20
11.3892034523
 30
0.0
 11
11.5933417589
 21
11.3892034523
 31
0.0
  0
LINE
  5
4C2
330
1F
100
AcDbEntity
  8
0
  6
Continuous
 62
   144
370
    18
100
AcDbLine
 10
11.6164042171
 20
10.9955026649
 30
0.0
 11
11.6164042171
 21
11.3892034523
 31
0.0
  0
LINE
  5
4C3
330
1F
100
AcDbEntity
  8
0
  6
Continuous
 62
   144
370
    18
100
AcDbLine
 10
11.6164042171
 20
10.9955026649
 30
0.0
 11
11.5933417589
 21
10.9955026649
 31
0.0
  0
LWPOLYLINE
  5
4C4
330
1F
100
AcDbEntity
  8
0
  6
Continuous
 62
   144
370
    18
100
AcDbPolyline
 90
        9
 70
   128
 43
0.0
 10
38.8019156754
 20
10.9649334863
 10
38.8020393356
 20
10.9669875332
 10
38.801365431
 20
10.9692334355
 10
38.7999010168
 20
10.9716476801
 10
38.7976614245
 20
10.9742049913
 10
38.7946701013
 20
10.9768785956
 10
38.7909583643
 20
10.9796405022
 10
38.7865650733
 20
10.9824617956
 10
38.781536223
 20
10.9853129387
  0
LWPOLYLINE
  5
4C5
330
1F
100
AcDbEntity
  8
0
  6
Continuous
 62
   144
370
    18
100
AcDbPolyline
 90
        9
 70
   128
 43
0.0
 10
11.61774572
 20
10.9853129387
 10
11.6127168697
 20
10.9824617956
 10
11.6083235786
 20
10.9796405022
 10
11.6046118417
 20
10.9768785956
 10
11.6016205185
 20
10.9742049913
 10
11.5993809262
 20
10.9716476801
 10
11.597916512
 20
10.9692334355
 10
11.5972426073
 20
10.9669875332
 10
11.5973662676
 20
10.9649334863
  0
LINE
  5
4C6
330
1F
100
AcDbEntity
  8
0
  6
Continuous
 62
   144
370
    18
100
AcDbLine
 10
38.781536223
 20
10.9853129387
 30
0.0
 11
38.7410375015
 21
11.0258116602
 31
0.0
  0
ARC
  5
4C7
330
1F
100
AcDbEntity
  8
0
  6
Continuous
 62
   144
370
    18
100
AcDbCircle
 10
38.5686397086
 20
11.1146929041
 30
0.0
 40
0.1939610129290773
100
AcDbArc
 50
297.2737787002
 51
332.7262212998
  0
LINE
  5
4C8
330
1F
100
AcDbEntity
  8
0
  6
Continuous
 62
   144
370
    18
100
AcDbLine
 10
11.6582444415
 20
11.0258116602
 30
0.0
 11
11.61774572
 21
10.9853129387
 31
0.0
  0
ARC
  5
4C9
330
1F
100
AcDbEntity
  8
0
  6
Continuous
 62
   144
370
    18
100
AcDbCircle
 10
11.8306422344
 20
11.1146929041
 30
0.0
 40
0.1939610129290334
100
AcDbArc
 50
207.2737787002
 51
242.7262212998
  0
LINE
  5
4CA
330
1F
100
AcDbEntity
  8
0
  6
Continuous
 62
     7
370
    25
100
AcDbLine
 10
12.0633125581
 20
10.9422951112
 30
0.0
 11
11.7417609904
 21
10.9422951112
 31
0.0
  0
LINE
  5
4CB
330
1F
100
AcDbEntity
  8
0
  6
Continuous
 62
   144
370
    18
100
AcDbLine
 10
12.0889535194
 20
10.9166541499
 30
0.0
 11
12.0633125581
 21
10.9422951112
 31
0.0
  0
LINE
  5
4CC
330
1F
100
AcDbEntity
  8
0
  6
Continuous
 62
   144
370
    18
100
AcDbLine
 10
38.6575209526
 20
10.9422951112
 30
0.0
 11
38.3359693849
 21
10.9422951112
 31
0.0
  0
LINE
  5
4CD
330
1F
100
AcDbEntity
  8
0
  6
Continuous
 62
   144
370
    18
100
AcDbLine
 10
38.3359693849
 20
10.9422951112
 30
0.0
 11
38.3103284236
 21
10.9166541499
 31
0.0
  0
LINE
  5
4CE
330
1F
100
AcDbEntity
  8
0
  6
Continuous
 62
     7
370
    25
100
AcDbLine
 10
38.3359693849
 20
10.9561325861
 30
0.0
 11
38.6090897904
 21
10.9561325861
 31
0.0
  0
LWPOLYLINE
  5
4CF
330
1F
100
AcDbEntity
  8
0
  6
Continuous
 62
   144
370
    18
100
AcDbPolyline
 90
        6
 70
   128
 43
0.0
 10
38.6090897904
 20
10.9561325861
 10
38.6096763631
 20
10.9559712542
 10
38.6114360811
 20
10.9554743552
 10
38.6172566811
 20
10.9537991888
 10
38.632257144
 20
10.9495133422
 10
38.6575209526
 20
10.9422951112
  0
LINE
  5
4D0
330
1F
100
AcDbEntity
  8
0
  6
Continuous
 62
   144
370
    18
100
AcDbLine
 10
38.3359693849
 20
10.9561325861
 30
0.0
 11
38.3359693849
 21
10.9422951112
 31
0.0
  0
LINE
  5
4D1
330
1F
100
AcDbEntity
  8
0
  6
Continuous
 62
     7
370
    25
100
AcDbLine
 10
11.7901921526
 20
10.9561325861
 30
0.0
 11
12.0633125581
 21
10.9561325861
 31
0.0
  0
LWPOLYLINE
  5
4D2
330
1F
100
AcDbEntity
  8
0
  6
Continuous
 62
   144
370
    18
100
AcDbPolyline
 90
        6
 70
   128
 43
0.0
 10
11.7417609904
 20
10.9422951112
 10
11.767024799
 20
10.9495133422
 10
11.7820252619
 20
10.9537991888
 10
11.7878458619
 20
10.9554743552
 10
11.7896055799
 20
10.9559711923
 10
11.7901921526
 20
10.9561325861
  0
LINE
  5
4D3
330
1F
100
AcDbEntity
  8
0
  6
Continuous
 62
   144
370
    18
100
AcDbLine
 10
12.0633125581
 20
10.9422951112
 30
0.0
 11
12.0633125581
 21
10.9561325861
 31
0.0
  0
LINE
  5
4D4
330
1F
100
AcDbEntity
  8
0
  6
Continuous
 62
   144
370
    18
100
AcDbLine
 10
11.6720819164
 20
11.3473632279
 30
0.0
 11
11.6720819164
 21
11.0742428223
 31
0.0
  0
LINE
  5
4D5
330
1F
100
AcDbEntity
  8
0
  6
Continuous
 62
   144
370
    18
100
AcDbLine
 10
11.6582444415
 20
11.0258116602
 30
0.0
 11
11.6582444415
 21
11.3473632279
 31
0.0
  0
LINE
  5
4D6
330
1F
100
AcDbEntity
  8
0
  6
Continuous
 62
   144
370
    18
100
AcDbLine
 10
11.6720819164
 20
11.3473632279
 30
0.0
 11
11.6582444415
 21
11.3473632279
 31
0.0
  0
LWPOLYLINE
  5
4D7
330
1F
100
AcDbEntity
  8
0
  6
Continuous
 62
   144
370
    18
100
AcDbPolyline
 90
        6
 70
   128
 43
0.0
 10
11.6720819164
 20
11.0742428223
 10
11.6719205845
 20
11.0736562497
 10
11.6714236855
 20
11.0718965317
 10
11.669748519
 20
11.0660759316
 10
11.6654626725
 20
11.0510754687
 10
11.6582444415
 20
11.0258116602
  0
LINE
  5
4D8
330
1F
100
AcDbEntity
  8
0
  6
Continuous
 62
     7
370
    25
100
AcDbLine
 10
38.7272000266
 20
11.0742428223
 30
0.0
 11
38.7272000266
 21
11.3473632279
 31
0.0
  0
LINE
  5
4D9
330
1F
100
AcDbEntity
  8
0
  6
Continuous
 62
   144
370
    18
100
AcDbLine
 10
38.7410375015
 20
11.3473632279
 30
0.0
 11
38.7272000266
 21
11.3473632279
 31
0.0
  0
LINE
  5
4DA
330
1F
100
AcDbEntity
  8
0
  6
Continuous
 62
   144
370
    18
100
AcDbLine
 10
38.7410375015
 20
11.3473632279
 30
0.0
 11
38.7410375015
 21
11.0258116602
 31
0.0
  0
LWPOLYLINE
  5
4DB
330
1F
100
AcDbEntity
  8
0
  6
Continuous
 62
   144
370
    18
100
AcDbPolyline
 90
        6
 70
   128
 43
0.0
 10
38.7410375015
 20
11.0258116602
 10
38.7338192705
 20
11.0510754687
 10
38.729533424
 20
11.0660759316
 10
38.7278582575
 20
11.0718965317
 10
38.7273614204
 20
11.0736562497
 10
38.7272000266
 20
11.0742428223
  0
LINE
  5
4DC
330
1F
100
AcDbEntity
  8
0
  6
Continuous
 62
   144
370
    18
100
AcDbLine
 10
11.6720819164
 20
11.3696343076
 30
0.0
 11
11.6720819164
 21
11.3473632279
 31
0.0
  0
LINE
  5
4DD
330
1F
100
AcDbEntity
  8
0
  6
Continuous
 62
   144
370
    18
100
AcDbLine
 10
38.7272000266
 20
11.3473632279
 30
0.0
 11
38.7272000266
 21
11.3696343076
 31
0.0
  0
LINE
  5
4DE
330
1F
100
AcDbEntity
  8
0
  6
Continuous
 62
   144
370
    18
100
AcDbLine
 10
38.3136983051
 20
10.9561325861
 30
0.0
 11
38.3359693849
 21
10.9561325861
 31
0.0
  0
LINE
  5
4DF
330
1F
100
AcDbEntity
  8
0
  6
Continuous
 62
   144
370
    18
100
AcDbLine
 10
12.0633125581
 20
10.9561325861
 30
0.0
 11
12.0855836378
 21
10.9561325861
 31
0.0
  0
ARC
  5
4E0
330
1F
100
AcDbEntity
  8
0
  6
Continuous
 62
   144
370
    18
100
AcDbCircle
 10
11.7901921526
 20
11.0742428223
 30
0.0
 40
0.118110236220474
100
AcDbArc
 50
180.0
 51
270.0
  0
ARC
  5
4E1
330
1F
100
AcDbEntity
  8
0
  6
Continuous
 62
   144
370
    18
100
AcDbCircle
 10
38.6090897904
 20
11.0742428223
 30
0.0
 40
0.118110236220474
100
AcDbArc
 50
270.0
 51
0.0
  0
ARC
  5
4E2
330
1F
100
AcDbEntity
  8
0
  6
Continuous
 62
   144
370
    18
100
AcDbCircle
 10
38.7435076472
 20
10.9955026649
 30
0.0
 40
0.0393700787401556
100
AcDbArc
 50
345.0
 51
0.0
  0
ARC
  5
4E3
330
1F
100
AcDbEntity
  8
0
  6
Continuous
 62
   144
370
    18
100
AcDbCircle
 10
11.6557742958
 20
10.9955026649
 30
0.0
 40
0.0393700787401574
100
AcDbArc
 50
180.0
 51
195.0
  0
LINE
  5
4E4
330
1F
100
AcDbEntity
  8
0
  6
Continuous
 62
   144
370
    18
100
AcDbLine
 10
11.6582444415
 20
11.7410640153
 30
0.0
 11
11.6439632722
 21
11.7553451845
 31
0.0
  0
LINE
  5
4E5
330
1F
100
AcDbEntity
  8
0
  6
Continuous
 62
   144
370
    18
100
AcDbLine
 10
38.7553186708
 20
11.7553451845
 30
0.0
 11
38.7410375015
 21
11.7410640153
 31
0.0
  0
LINE
  5
4E6
330
1F
100
AcDbEntity
  8
0
  6
Continuous
 62
   144
370
    18
100
AcDbLine
 10
11.6642079006
 20
11.7410640153
 30
0.0
 11
11.6582444415
 21
11.7410640153
 31
0.0
  0
LINE
  5
4E7
330
1F
100
AcDbEntity
  8
0
  6
Continuous
 62
   144
370
    18
100
AcDbLine
 10
38.7410375015
 20
11.7410640153
 30
0.0
 11
38.7350740424
 21
11.7410640153
 31
0.0
  0
ARC
  5
4E8
330
1F
100
AcDbEntity
  8
0
  6
Continuous
 62
   144
370
    18
100
AcDbCircle
 10
37.7682488726
 20
10.9750186169
 30
0.0
 40
0.0487094022974315
100
AcDbArc
 50
235.1430638682
 51
304.8569361318
  0
ARC
  5
4E9
330
1F
100
AcDbEntity
  8
0
  6
Continuous
 62
   144
370
    18
100
AcDbCircle
 10
12.6310330704
 20
10.9750186169
 30
0.0
 40
0.048709402297407
100
AcDbArc
 50
235.1430638682
 51
304.8569361318
  0
LINE
  5
4EA
330
1F
100
AcDbEntity
  8
0
  6
Continuous
 62
   144
370
    18
100
AcDbLine
 10
37.7960877222
 20
10.9350485741
 30
0.0
 11
37.7888411851
 21
10.9422951112
 31
0.0
  0
LINE
  5
4EB
330
1F
100
AcDbEntity
  8
0
  6
Continuous
 62
   144
370
    18
100
AcDbLine
 10
12.6104407579
 20
10.9422951112
 30
0.0
 11
12.6031942208
 21
10.9350485741
 31
0.0
  0
LINE
  5
4EC
330
1F
100
AcDbEntity
  8
0
  6
Continuous
 62
     7
370
    25
100
AcDbLine
 10
37.751941252
 20
10.9561325861
 30
0.0
 11
38.3136983051
 21
10.9561325861
 31
0.0
  0
LINE
  5
4ED
330
1F
100
AcDbEntity
  8
0
  6
Continuous
 62
   144
370
    18
100
AcDbLine
 10
37.7888411851
 20
10.9422951112
 30
0.0
 11
37.751941252
 21
10.9561325861
 31
0.0
  0
LINE
  5
4EE
330
1F
100
AcDbEntity
  8
0
  6
Continuous
 62
     7
370
    25
100
AcDbLine
 10
12.0855836378
 20
10.9561325861
 30
0.0
 11
12.647340691
 21
10.9561325861
 31
0.0
  0
LINE
  5
4EF
330
1F
100
AcDbEntity
  8
0
  6
Continuous
 62
   144
370
    18
100
AcDbLine
 10
12.647340691
 20
10.9561325861
 30
0.0
 11
12.6104407579
 21
10.9422951112
 31
0.0
  0
ELLIPSE
  5
4F0
330
1F
100
AcDbEntity
  8
0
  6
Continuous
 62
   144
370
    18
100
AcDbEllipse
 10
11.6248378219
 20
11.7187929355
 30
0.0
 11
0.03061953087155267
 21
0.07979321839546749
 31
0.0
210
0.0
220
0.0
230
1.0
 40
0.2940301684
 41
5.105778670696646
 42
5.297339298219666
  0
ELLIPSE
  5
4F1
330
1F
100
AcDbEntity
  8
0
  6
Continuous
 62
   144
370
    18
100
AcDbEllipse
 10
38.7744441211
 20
11.7187929355
 30
0.0
 11
-0.03061953087155445
 21
0.07979321839546749
 31
0.0
210
0.0
220
0.0
230
1.0
 40
0.2940301684
 41
0.9858460089600376
 42
1.17740663648306
  0
ARC
  5
4F2
330
1F
100
AcDbEntity
  8
0
  6
Continuous
 62
   144
370
    18
100
AcDbCircle
 10
12.6382796076
 20
10.982265154
 30
0.0
 40
0.0487094022974518
100
AcDbArc
 50
235.1430638682
 51
304.8569361318
  0
ARC
  5
4F3
330
1F
100
AcDbEntity
  8
0
  6
Continuous
 62
   144
370
    18
100
AcDbCircle
 10
37.7610023354
 20
10.982265154
 30
0.0
 40
0.0487094022974184
100
AcDbArc
 50
235.1430638682
 51
304.8569361318
  0
CIRCLE
  5
4F4
330
1F
100
AcDbEntity
  8
0
  6
Continuous
 62
     7
370
    25
100
AcDbCircle
 10
26.3807433337
 20
11.1923530586
 30
0.0
 40
0.1082677165354333
  0
CIRCLE
  5
4F5
330
1F
100
AcDbEntity
  8
0
  6
Continuous
 62
     7
370
    25
100
AcDbCircle
 10
31.8925543573
 20
11.1923530586
 30
0.0
 40
0.1082677165354351
  0
CIRCLE
  5
4F6
330
1F
100
AcDbEntity
  8
0
  6
Continuous
 62
     7
370
    25
100
AcDbCircle
 10
12.994916562
 20
11.1923530586
 30
0.0
 40
0.1082677165354333
  0
LINE
  5
4F7
330
1F
100
AcDbEntity
  8
0
  6
Continuous
 62
   144
370
    18
100
AcDbLine
 10
12.2638949403
 20
10.9955026649
 30
0.0
 11
12.7193260109
 21
10.9955026649
 31
0.0
  0
LINE
  5
4F8
330
1F
100
AcDbEntity
  8
0
  6
Continuous
 62
   144
370
    18
100
AcDbLine
 10
37.6799559321
 20
10.9955026649
 30
0.0
 11
38.1353870027
 21
10.9955026649
 31
0.0
  0
CIRCLE
  5
4F9
330
1F
100
AcDbEntity
  8
0
  6
Continuous
 62
   144
370
    18
100
AcDbCircle
 10
37.4043653809
 20
11.271093216
 30
0.0
 40
0.1082677165354333
  0
CIRCLE
  5
4FA
330
1F
100
AcDbEntity
  8
0
  6
Continuous
 62
   144
370
    18
100
AcDbCircle
 10
19.6878299479
 20
11.1923530586
 30
0.0
 40
0.1082677165354351
  0
LINE
  5
4FB
330
1F
100
AcDbEntity
  8
0
  6
Continuous
 62
   144
370
    18
100
AcDbLine
 10
13.3886173494
 20
11.1136129011
 30
0.0
 11
37.0106645935
 21
11.1136129011
 31
0.0
  0
LINE
  5
4FC
330
1F
100
AcDbEntity
  8
0
  6
Continuous
 62
   144
370
    18
100
AcDbLine
 10
37.0106645935
 20
11.1136129011
 30
0.0
 11
37.5327237683
 21
11.1136129011
 31
0.0
  0
LINE
  5
4FD
330
1F
100
AcDbEntity
  8
0
  6
Continuous
 62
   144
370
    18
100
AcDbLine
 10
12.8665581747
 20
11.1136129011
 30
0.0
 11
13.3886173494
 21
11.1136129011
 31
0.0
  0
ARC
  5
4FE
330
1F
100
AcDbEntity
  8
0
  6
Continuous
 62
   144
370
    18
100
AcDbCircle
 10
35.3485170593
 20
10.9561325861
 30
0.0
 40
0.1574803149606332
100
AcDbArc
 50
90.0
 51
131.4096221093
  0
ARC
  5
4FF
330
1F
100
AcDbEntity
  8
0
  6
Continuous
 62
   144
370
    18
100
AcDbCircle
 10
33.9484026788
 20
10.9561325861
 30
0.0
 40
0.1574803149606332
100
AcDbArc
 50
48.5903778907
 51
90.0
  0
ARC
  5
500
330
1F
100
AcDbEntity
  8
0
  6
Continuous
 62
   144
370
    18
100
AcDbCircle
 10
15.0507648836
 20
10.9561325861
 30
0.0
 40
0.1574803149606332
100
AcDbArc
 50
48.5903778907
 51
90.0
  0
ARC
  5
501
330
1F
100
AcDbEntity
  8
0
  6
Continuous
 62
   144
370
    18
100
AcDbCircle
 10
16.4508792641
 20
10.9561325861
 30
0.0
 40
0.1574803149606332
100
AcDbArc
 50
90.0
 51
131.4096221093
  0
LINE
  5
502
330
1F
100
AcDbEntity
  8
0
  6
Continuous
 62
   144
370
    18
100
AcDbLine
 10
37.7682488726
 20
10.9628874237
 30
0.0
 11
37.6774857865
 21
11.0536505098
 31
0.0
  0
LINE
  5
503
330
1F
100
AcDbEntity
  8
0
  6
Continuous
 62
   144
370
    18
100
AcDbLine
 10
38.7410375015
 20
11.4030409272
 30
0.0
 11
38.7429480581
 21
11.4049514838
 31
0.0
  0
ELLIPSE
  5
504
330
1F
100
AcDbEntity
  8
0
  6
Continuous
 62
   144
370
    18
100
AcDbEllipse
 10
38.7272000266
 20
11.2778480536
 30
0.0
 11
0.06153565086222557
 21
0.1699645404753536
 31
0.0
210
0.0
220
0.0
230
1.0
 40
0.1095524007
 41
5.465756019155661
 42
5.595924304935929
  0
LINE
  5
505
330
1F
100
AcDbEntity
  8
0
  6
Continuous
 62
   144
370
    18
100
AcDbLine
 10
38.7828777259
 20
11.3892034523
 30
0.0
 11
38.7410375015
 21
11.3473632279
 31
0.0
  0
ELLIPSE
  5
506
330
1F
100
AcDbEntity
  8
0
  6
Continuous
 62
   144
370
    18
100
AcDbEllipse
 10
38.7744441211
 20
11.3250921481
 30
0.0
 11
-0.03061953087156155
 21
0.07979321839546751
 31
0.0
210
0.0
220
0.0
230
1.0
 40
0.2940301684
 41
0.1302090852864586
 42
1.177406636482963
  0
ELLIPSE
  5
507
330
1F
100
AcDbEntity
  8
0
  6
Continuous
 62
   144
370
    18
100
AcDbEllipse
 10
11.6248378219
 20
11.3250921481
 30
0.0
 11
0.03061953087155445
 21
0.07979321839546749
 31
0.0
210
0.0
220
0.0
230
1.0
 40
0.2940301684
 41
5.105778670696511
 42
6.152976221892949
  0
LINE
  5
508
330
1F
100
AcDbEntity
  8
0
  6
Continuous
 62
   144
370
    18
100
AcDbLine
 10
11.6563338849
 20
11.4049514838
 30
0.0
 11
11.6582444415
 21
11.4030409272
 31
0.0
  0
ELLIPSE
  5
509
330
1F
100
AcDbEntity
  8
0
  6
Continuous
 62
   144
370
    18
100
AcDbEllipse
 10
11.6720819164
 20
11.2778480536
 30
0.0
 11
-0.06153565086222557
 21
0.1699645404753536
 31
0.0
210
0.0
220
0.0
230
1.0
 40
0.1095524007
 41
0.6872610022436714
 42
0.8174292880239319
  0
LINE
  5
50A
330
1F
100
AcDbEntity
  8
0
  6
Continuous
 62
   144
370
    18
100
AcDbLine
 10
11.6582444415
 20
11.3473632279
 30
0.0
 11
11.6164042171
 21
11.3892034523
 31
0.0
  0
LINE
  5
50B
330
1F
100
AcDbEntity
  8
0
  6
Continuous
 62
   144
370
    18
100
AcDbLine
 10
12.6310330704
 20
10.9628874237
 30
0.0
 11
12.7217961565
 21
11.0536505098
 31
0.0
  0
LINE
  5
50C
330
1F
100
AcDbEntity
  8
0
  6
Continuous
 62
     7
370
    25
100
AcDbLine
 10
36.8184612073
 20
11.271093216
 30
0.0
 11
37.2028679567
 21
11.271093216
 31
0.0
  0
LINE
  5
50D
330
1F
100
AcDbEntity
  8
0
  6
Continuous
 62
     7
370
    25
100
AcDbLine
 10
10.434877192
 20
11.1529829798
 30
0.0
 11
10.434877192
 21
11.7553451845
 31
0.0
  0
LINE
  5
50E
330
1F
100
AcDbEntity
  8
0
  6
Continuous
 62
     7
370
    25
100
AcDbLine
 10
10.434877192
 20
32.7651877042
 30
0.0
 11
10.434877192
 21
32.7884521348
 31
0.0
  0
LINE
  5
50F
330
1F
100
AcDbEntity
  8
0
  6
Continuous
 62
     7
370
    25
100
AcDbLine
 10
10.434877192
 20
34.0844429587
 30
0.0
 11
10.434877192
 21
34.460069594
 31
0.0
  0
LINE
  5
510
330
1F
100
AcDbEntity
  8
0
  6
Continuous
 62
     7
370
    25
100
AcDbLine
 10
10.434877192
 20
55.4423530586
 30
0.0
 11
10.434877192
 21
55.4656174891
 31
0.0
  0
LINE
  5
511
330
1F
100
AcDbEntity
  8
0
  6
Continuous
 62
     7
370
    25
100
AcDbLine
 10
10.434877192
 20
56.761608313
 30
0.0
 11
10.434877192
 21
57.0191247121
 31
0.0
  0
LINE
  5
512
330
1F
100
AcDbEntity
  8
0
  6
Continuous
 62
   144
370
    18
100
AcDbLine
 10
10.4821212864
 20
11.1529829798
 30
0.0
 11
10.434877192
 21
11.1529829798
 31
0.0
  0
LINE
  5
513
330
1F
100
AcDbEntity
  8
0
  6
Continuous
 62
     7
370
    25
100
AcDbLine
 10
11.0736567195
 20
57.0191247121
 30
0.0
 11
11.0736567195
 21
56.7632192003
 31
0.0
  0
LINE
  5
514
330
1F
100
AcDbEntity
  8
0
  6
Continuous
 62
     7
370
    25
100
AcDbLine
 10
11.0736567195
 20
55.4640066019
 30
0.0
 11
11.0736567195
 21
55.4423530586
 31
0.0
  0
LINE
  5
515
330
1F
100
AcDbEntity
  8
0
  6
Continuous
 62
     7
370
    25
100
AcDbLine
 10
11.0736567195
 20
34.460069594
 30
0.0
 11
11.0736567195
 21
34.086053846
 31
0.0
  0
LINE
  5
516
330
1F
100
AcDbEntity
  8
0
  6
Continuous
 62
     7
370
    25
100
AcDbLine
 10
11.0736567195
 20
32.7868412475
 30
0.0
 11
11.0736567195
 21
32.7651877042
 31
0.0
  0
LINE
  5
517
330
1F
100
AcDbEntity
  8
0
  6
Continuous
 62
     7
370
    25
100
AcDbLine
 10
11.0736567195
 20
11.7553451845
 30
0.0
 11
11.0736567195
 21
11.6960099581
 31
0.0
  0
LINE
  5
518
330
1F
100
AcDbEntity
  8
0
  6
Continuous
 62
     7
370
    25
100
AcDbLine
 10
11.0736567195
 20
11.4049514838
 30
0.0
 11
11.0736567195
 21
10.9561325861
 31
0.0
  0
LINE
  5
519
330
1F
100
AcDbEntity
  8
0
  6
Continuous
 62
     7
370
    25
100
AcDbLine
 10
11.0736567195
 20
10.9561325861
 30
0.0
 11
10.6907827038
 21
10.9561325861
 31
0.0
  0
ARC
  5
51A
330
1F
100
AcDbEntity
  8
0
  6
Continuous
 62
     7
370
    25
100
AcDbCircle
 10
10.6907827038
 20
11.1136129011
 30
0.0
 40
0.1574803149606314
100
AcDbArc
 50
180.0
 51
270.0
  0
LINE
  5
51B
330
1F
100
AcDbEntity
  8
0
  6
Continuous
 62
   144
370
    18
100
AcDbLine
 10
10.5333023888
 20
11.1529829798
 30
0.0
 11
10.4821212864
 21
11.1529829798
 31
0.0
  0
LINE
  5
51C
330
1F
100
AcDbEntity
  8
0
  6
Continuous
 62
   144
370
    18
100
AcDbLine
 10
10.5333023888
 20
11.1529829798
 30
0.0
 11
10.5333023888
 21
11.1136129011
 31
0.0
  0
LINE
  5
51D
330
1F
100
AcDbEntity
  8
0
  6
Continuous
 62
     7
370
    25
100
AcDbLine
 10
11.0736567195
 20
10.9561325861
 30
0.0
 11
11.0736567195
 21
10.9246365231
 31
0.0
  0
LINE
  5
51E
330
1F
100
AcDbEntity
  8
0
  6
Continuous
 62
     7
370
    25
100
AcDbLine
 10
11.026412625
 20
10.9561325861
 30
0.0
 11
11.026412625
 21
10.9166541499
 31
0.0
  0
LINE
  5
51F
330
1F
100
AcDbEntity
  8
0
  6
Continuous
 62
   144
370
    18
100
AcDbLine
 10
11.1071249334
 20
10.9246365231
 30
0.0
 11
11.0736567195
 21
10.9246365231
 31
0.0
  0
LINE
  5
520
330
1F
100
AcDbEntity
  8
0
  6
Continuous
 62
     7
370
    25
100
AcDbLine
 10
11.0736567195
 20
10.9561325861
 30
0.0
 11
11.0979190064
 21
10.9561325861
 31
0.0
  0
LINE
  5
521
330
1F
100
AcDbEntity
  8
0
  6
Continuous
 62
   144
370
    18
100
AcDbLine
 10
11.0979190064
 20
10.9561325861
 30
0.0
 11
11.1071249334
 21
10.9584498875
 31
0.0
  0
LINE
  5
522
330
1F
100
AcDbEntity
  8
0
  6
Continuous
 62
   144
370
    18
100
AcDbLine
 10
11.278381129
 20
55.430337384
 30
0.0
 11
11.278381129
 21
55.4640066019
 31
0.0
  0
LWPOLYLINE
  5
523
330
1F
100
AcDbEntity
  8
0
  6
Continuous
 62
   144
370
    18
100
AcDbPolyline
 90
        3
 70
   128
 43
0.0
 10
25.9451589832
 20
32.7868412475
 10
25.9384671164
 20
32.7762604717
 10
25.9195046906
 20
32.7514081767
  0
LWPOLYLINE
  5
524
330
1F
100
AcDbEntity
  8
0
  6
Continuous
 62
   144
370
    18
100
AcDbPolyline
 90
        3
 70
   128
 43
0.0
 10
24.086076465
 20
32.7514081767
 10
24.0671140392
 20
32.7762604717
 10
24.0604221724
 20
32.7868412475
  0
LINE
  5
525
330
1F
100
AcDbEntity
  8
0
  6
Continuous
 62
   144
370
    18
100
AcDbLine
 10
11.3571212864
 20
32.7514081767
 30
0.0
 11
11.3571212864
 21
32.7868412475
 31
0.0
  0
LINE
  5
526
330
1F
100
AcDbEntity
  8
0
  6
Continuous
 62
   144
370
    18
100
AcDbLine
 10
39.0421606565
 20
32.7868412475
 30
0.0
 11
39.0421606565
 21
32.7514081767
 31
0.0
  0
LINE
  5
527
330
1F
100
AcDbEntity
  8
0
  6
Continuous
 62
     8
370
    25
100
AcDbLine
 10
40.0342866408
 20
15.7317231373
 30
0.0
 11
40.0342866408
 21
32.6726680192
 31
0.0
  0
LINE
  5
528
330
1F
100
AcDbEntity
  8
0
  6
Continuous
 62
     8
370
    25
100
AcDbLine
 10
10.3649953022
 20
32.6726680192
 30
0.0
 11
10.3649953022
 21
15.7317231373
 31
0.0
  0
LINE
  5
529
330
1F
100
AcDbEntity
  8
0
  6
Continuous
 62
     8
370
    25
100
AcDbLine
 10
10.4909795542
 20
32.8173932774
 30
0.0
 11
10.4909795542
 21
32.8227826917
 31
0.0
  0
LINE
  5
52A
330
1F
100
AcDbEntity
  8
0
  6
Continuous
 62
   144
370
    18
100
AcDbLine
 10
39.9083023888
 20
34.0555018161
 30
0.0
 11
39.9083023888
 21
34.0501124018
 31
0.0
  0
LINE
  5
52B
330
1F
100
AcDbEntity
  8
0
  6
Continuous
 62
   144
370
    18
100
AcDbLine
 10
39.9083023888
 20
32.8227826943
 30
0.0
 11
39.9083023888
 21
32.8173932774
 31
0.0
  0
LINE
  5
52C
330
1F
100
AcDbEntity
  8
0
  6
Continuous
 62
     8
370
    25
100
AcDbLine
 10
11.68389294
 20
11.1313294365
 30
0.0
 11
11.68389294
 21
11.2533766806
 31
0.0
  0
LINE
  5
52D
330
1F
100
AcDbEntity
  8
0
  6
Continuous
 62
     8
370
    25
100
AcDbLine
 10
11.7218640461
 20
11.0022575025
 30
0.0
 11
11.7218640461
 21
11.1313294365
 31
0.0
  0
LINE
  5
52E
330
1F
100
AcDbEntity
  8
0
  6
Continuous
 62
     8
370
    25
100
AcDbLine
 10
11.7218640461
 20
11.2533766806
 30
0.0
 11
11.7218640461
 21
11.4049514838
 31
0.0
  0
LINE
  5
52F
330
1F
100
AcDbEntity
  8
0
  6
Continuous
 62
     8
370
    25
100
AcDbLine
 10
11.7425523689
 20
11.7553451845
 30
0.0
 11
11.7425523689
 21
11.7041640822
 31
0.0
  0
LINE
  5
530
330
1F
100
AcDbEntity
  8
0
  6
Continuous
 62
     8
370
    25
100
AcDbLine
 10
11.7425523689
 20
11.4049514838
 30
0.0
 11
11.7425523689
 21
11.0229458253
 31
0.0
  0
LINE
  5
531
330
1F
100
AcDbEntity
  8
0
  6
Continuous
 62
     8
370
    25
100
AcDbLine
 10
11.7425523689
 20
34.460069594
 30
0.0
 11
11.7425523689
 21
34.1510045337
 31
0.0
  0
LINE
  5
532
330
1F
100
AcDbEntity
  8
0
  6
Continuous
 62
     8
370
    25
100
AcDbLine
 10
38.715389003
 20
11.2533766806
 30
0.0
 11
38.715389003
 21
11.1313294365
 31
0.0
  0
LINE
  5
533
330
1F
100
AcDbEntity
  8
0
  6
Continuous
 62
     8
370
    25
100
AcDbLine
 10
38.6774178969
 20
11.4049514838
 30
0.0
 11
38.6774178969
 21
11.2533766806
 31
0.0
  0
LINE
  5
534
330
1F
100
AcDbEntity
  8
0
  6
Continuous
 62
     8
370
    25
100
AcDbLine
 10
38.6774178969
 20
11.1313294365
 30
0.0
 11
38.6774178969
 21
11.0022575025
 31
0.0
  0
LINE
  5
535
330
1F
100
AcDbEntity
  8
0
  6
Continuous
 62
     8
370
    25
100
AcDbLine
 10
38.6567295741
 20
11.0229458253
 30
0.0
 11
38.6567295741
 21
11.4049514838
 31
0.0
  0
LINE
  5
536
330
1F
100
AcDbEntity
  8
0
  6
Continuous
 62
     8
370
    25
100
AcDbLine
 10
38.6567295741
 20
11.7041640822
 30
0.0
 11
38.6567295741
 21
11.7553451845
 31
0.0
  0
LINE
  5
537
330
1F
100
AcDbEntity
  8
0
  6
Continuous
 62
     8
370
    25
100
AcDbLine
 10
38.6567295741
 20
34.1510045337
 30
0.0
 11
38.6567295741
 21
34.460069594
 31
0.0
  0
LINE
  5
538
330
1F
100
AcDbEntity
  8
0
  6
Continuous
 62
     8
370
    25
100
AcDbLine
 10
11.8576837161
 20
56.7632192003
 30
0.0
 11
11.8576837161
 21
57.0191247121
 31
0.0
  0
LINE
  5
539
330
1F
100
AcDbEntity
  8
0
  6
Continuous
 62
   144
370
    18
100
AcDbLine
 10
37.3625322657
 20
57.0191247121
 30
0.0
 11
37.4868685268
 21
56.9196557032
 31
0.0
  0
ARC
  5
53A
330
1F
100
AcDbEntity
  8
0
  6
Continuous
 62
     8
370
    25
100
AcDbCircle
 10
28.8716640324
 20
56.4914061754
 30
0.0
 40
0.3899233354701665
100
AcDbArc
 50
43.7922124802
 51
89.964618006
  0
ARC
  5
53B
330
1F
100
AcDbEntity
  8
0
  6
Continuous
 62
     8
370
    25
100
AcDbCircle
 10
30.2677753909
 20
56.4914061754
 30
0.0
 40
0.3899233354701807
100
AcDbArc
 50
90.035381994
 51
136.2077875198
  0
LINE
  5
53C
330
1F
100
AcDbEntity
  8
0
  6
Continuous
 62
     8
370
    25
100
AcDbLine
 10
32.976607873
 20
56.9798426828
 30
0.0
 11
33.0271131465
 21
57.0191247121
 31
0.0
  0
LINE
  5
53D
330
1F
100
AcDbEntity
  8
0
  6
Continuous
 62
   144
370
    18
100
AcDbLine
 10
33.1370555136
 20
57.0191247121
 30
0.0
 11
33.0394229578
 21
56.9554968021
 31
0.0
  0
ARC
  5
53E
330
1F
100
AcDbEntity
  8
0
  6
Continuous
 62
     8
370
    25
100
AcDbCircle
 10
30.0015724255
 20
56.7766232514
 30
0.0
 40
0.4114760641349641
100
AcDbArc
 50
165.2581240904
 51
182.1410420172
  0
ARC
  5
53F
330
1F
100
AcDbEntity
  8
0
  6
Continuous
 62
     8
370
    25
100
AcDbCircle
 10
28.7888897547
 20
56.77708156
 30
0.0
 40
0.7701962349039753
100
AcDbArc
 50
358.8222409961
 51
7.7789955341
  0
LINE
  5
540
330
1F
100
AcDbEntity
  8
0
  6
Continuous
 62
     8
370
    25
100
AcDbLine
 10
12.1484598691
 20
57.0191247121
 30
0.0
 11
12.1484598691
 21
56.7632192003
 31
0.0
  0
LINE
  5
541
330
1F
100
AcDbEntity
  8
0
  6
Continuous
 62
     8
370
    25
100
AcDbLine
 10
38.2508220739
 20
56.7632192003
 30
0.0
 11
38.2508220739
 21
56.7868412475
 31
0.0
  0
LINE
  5
542
330
1F
100
AcDbEntity
  8
0
  6
Continuous
 62
   144
370
    18
100
AcDbLine
 10
39.9171606565
 20
11.1529829798
 30
0.0
 11
39.9171606565
 21
11.4049514838
 31
0.0
  0
LINE
  5
543
330
1F
100
AcDbEntity
  8
0
  6
Continuous
 62
   144
370
    18
100
AcDbLine
 10
39.9171606565
 20
11.4443215625
 30
0.0
 11
39.9171606565
 21
11.4482585704
 31
0.0
  0
LINE
  5
544
330
1F
100
AcDbEntity
  8
0
  6
Continuous
 62
   144
370
    18
100
AcDbLine
 10
39.9171606565
 20
11.6904459843
 30
0.0
 11
39.9171606565
 21
11.7553451845
 31
0.0
  0
LINE
  5
545
330
1F
100
AcDbEntity
  8
0
  6
Continuous
 62
   144
370
    18
100
AcDbLine
 10
39.9171606565
 20
32.7651877042
 30
0.0
 11
39.9171606565
 21
32.788452145
 31
0.0
  0
LINE
  5
546
330
1F
100
AcDbEntity
  8
0
  6
Continuous
 62
   144
370
    18
100
AcDbLine
 10
39.9171606565
 20
32.8172892797
 30
0.0
 11
39.9171606565
 21
32.8227122565
 31
0.0
  0
LINE
  5
547
330
1F
100
AcDbEntity
  8
0
  6
Continuous
 62
   144
370
    18
100
AcDbLine
 10
39.9171606565
 20
34.0501828395
 30
0.0
 11
39.9171606565
 21
34.0556058138
 31
0.0
  0
LINE
  5
548
330
1F
100
AcDbEntity
  8
0
  6
Continuous
 62
   144
370
    18
100
AcDbLine
 10
39.9171606565
 20
34.0844429485
 30
0.0
 11
39.9171606565
 21
34.460069594
 31
0.0
  0
LINE
  5
549
330
1F
100
AcDbEntity
  8
0
  6
Continuous
 62
   144
370
    18
100
AcDbLine
 10
39.9171606565
 20
55.4423530586
 30
0.0
 11
39.9171606565
 21
55.4656174993
 31
0.0
  0
LINE
  5
54A
330
1F
100
AcDbEntity
  8
0
  6
Continuous
 62
   144
370
    18
100
AcDbLine
 10
39.9171606565
 20
56.7616083029
 30
0.0
 11
39.9171606565
 21
57.0191247121
 31
0.0
  0
LINE
  5
54B
330
1F
100
AcDbEntity
  8
0
  6
Continuous
 62
     8
370
    25
100
AcDbLine
 10
39.2310646211
 20
55.4640066019
 30
0.0
 11
39.2310646211
 21
55.428573531
 31
0.0
  0
LINE
  5
54C
330
1F
100
AcDbEntity
  8
0
  6
Continuous
 62
     8
370
    25
100
AcDbLine
 10
39.2310646211
 20
32.7868412475
 30
0.0
 11
39.2310646211
 21
32.7514081767
 31
0.0
  0
LINE
  5
54D
330
1F
100
AcDbEntity
  8
0
  6
Continuous
 62
     8
370
    25
100
AcDbLine
 10
39.1920653386
 20
55.4640066019
 30
0.0
 11
39.1920653386
 21
55.428573531
 31
0.0
  0
LINE
  5
54E
330
1F
100
AcDbEntity
  8
0
  6
Continuous
 62
     8
370
    25
100
AcDbLine
 10
39.1920653386
 20
32.7868412475
 30
0.0
 11
39.1920653386
 21
32.7514081767
 31
0.0
  0
LINE
  5
54F
330
1F
100
AcDbEntity
  8
0
  6
Continuous
 62
     8
370
    25
100
AcDbLine
 10
39.2299965287
 20
57.0191247121
 30
0.0
 11
39.2299965287
 21
56.7632192003
 31
0.0
  0
LINE
  5
550
330
1F
100
AcDbEntity
  8
0
  6
Continuous
 62
     8
370
    25
100
AcDbLine
 10
39.2299965287
 20
34.460069594
 30
0.0
 11
39.2299965287
 21
34.086053846
 31
0.0
  0
LINE
  5
551
330
1F
100
AcDbEntity
  8
0
  6
Continuous
 62
     8
370
    25
100
AcDbLine
 10
39.2299965287
 20
11.7553451845
 30
0.0
 11
39.2299965287
 21
11.6960099581
 31
0.0
  0
LINE
  5
552
330
1F
100
AcDbEntity
  8
0
  6
Continuous
 62
     8
370
    25
100
AcDbLine
 10
11.4940771784
 20
56.7632192003
 30
0.0
 11
11.4940771784
 21
57.0191247121
 31
0.0
  0
LINE
  5
553
330
1F
100
AcDbEntity
  8
0
  6
Continuous
 62
     8
370
    25
100
AcDbLine
 10
39.0238745898
 20
57.0191247121
 30
0.0
 11
39.0238745898
 21
56.7632192003
 31
0.0
  0
LINE
  5
554
330
1F
100
AcDbEntity
  8
0
  6
Continuous
 62
     8
370
    25
100
AcDbLine
 10
11.6275058122
 20
57.0191247121
 30
0.0
 11
11.6275058122
 21
56.7632192003
 31
0.0
  0
LINE
  5
555
330
1F
100
AcDbEntity
  8
0
  6
Continuous
 62
     8
370
    25
100
AcDbLine
 10
38.7790905575
 20
56.7632192003
 30
0.0
 11
38.7790905575
 21
57.0191247121
 31
0.0
  0
LINE
  5
556
330
1F
100
AcDbEntity
  8
0
  6
Continuous
 62
     8
370
    25
100
AcDbLine
 10
11.679396343
 20
56.7632192003
 30
0.0
 11
11.679396343
 21
57.0191247121
 31
0.0
  0
LINE
  5
557
330
1F
100
AcDbEntity
  8
0
  6
Continuous
 62
     8
370
    25
100
AcDbLine
 10
38.7041375684
 20
57.0191247121
 30
0.0
 11
38.7041375684
 21
56.7632192003
 31
0.0
  0
LINE
  5
558
330
1F
100
AcDbEntity
  8
0
  6
Continuous
 62
     8
370
    25
100
AcDbLine
 10
11.725931009
 20
56.7632192003
 30
0.0
 11
11.725931009
 21
57.0191247121
 31
0.0
  0
LINE
  5
559
330
1F
100
AcDbEntity
  8
0
  6
Continuous
 62
   144
370
    18
100
AcDbLine
 10
38.6576029025
 20
57.0191247121
 30
0.0
 11
38.6576029025
 21
56.7632192003
 31
0.0
  0
LWPOLYLINE
  5
55A
330
1F
100
AcDbEntity
  8
0
  6
Continuous
 62
     8
370
    25
100
AcDbPolyline
 90
        3
 70
   128
 43
0.0
 10
11.8658959186
 20
11.5713121349
 10
11.8659015477
 20
11.5065531493
 10
11.8658994835
 20
11.4876286491
  0
LWPOLYLINE
  5
55B
330
1F
100
AcDbEntity
  8
0
  6
Continuous
 62
     8
370
    25
100
AcDbPolyline
 90
        3
 70
   128
 43
0.0
 10
38.5333860244
 20
11.5713121349
 10
38.5333803953
 20
11.5065531493
 10
38.5333824595
 20
11.4876286491
  0
LINE
  5
55C
330
1F
100
AcDbEntity
  8
0
  6
Continuous
 62
     8
370
    25
100
AcDbLine
 10
37.1681449085
 20
11.4049514838
 30
0.0
 11
37.1681449085
 21
11.3902779544
 31
0.0
  0
ARC
  5
55D
330
1F
100
AcDbEntity
  8
0
  6
Continuous
 62
     8
370
    25
100
AcDbCircle
 10
37.1415321235
 20
12.1549570374
 30
0.0
 40
0.7650370122767769
100
AcDbArc
 50
258.6234486906
 51
271.9935087124
  0
ARC
  5
55E
330
1F
100
AcDbEntity
  8
0
  6
Continuous
 62
   144
370
    18
100
AcDbCircle
 10
37.519687806
 20
12.004429907
 30
0.0
 40
0.6151356037428254
100
AcDbArc
 50
266.5905940243
 51
282.9549126279
  0
LINE
  5
55F
330
1F
100
AcDbEntity
  8
0
  6
Continuous
 62
     8
370
    25
100
AcDbLine
 10
37.4831055384
 20
11.3902779544
 30
0.0
 11
37.4831055384
 21
11.4049514838
 31
0.0
  0
LINE
  5
560
330
1F
100
AcDbEntity
  8
0
  6
Continuous
 62
     8
370
    25
100
AcDbLine
 10
31.2792366583
 20
10.7581287493
 30
0.0
 11
31.7184704815
 21
10.7581287493
 31
0.0
  0
LINE
  5
561
330
1F
100
AcDbEntity
  8
0
  6
Continuous
 62
     8
370
    25
100
AcDbLine
 10
24.9800240599
 20
10.7581287493
 30
0.0
 11
25.4192578831
 21
10.7581287493
 31
0.0
  0
LINE
  5
562
330
1F
100
AcDbEntity
  8
0
  6
Continuous
 62
     8
370
    25
100
AcDbLine
 10
18.6808114615
 20
10.7581287493
 30
0.0
 11
19.1200452847
 21
10.7581287493
 31
0.0
  0
LINE
  5
563
330
1F
100
AcDbEntity
  8
0
  6
Continuous
 62
     8
370
    25
100
AcDbLine
 10
34.8225437449
 20
10.7581287493
 30
0.0
 11
35.2617775681
 21
10.7581287493
 31
0.0
  0
LINE
  5
564
330
1F
100
AcDbEntity
  8
0
  6
Continuous
 62
     8
370
    25
100
AcDbLine
 10
15.1375043748
 20
10.7581287493
 30
0.0
 11
15.5767381981
 21
10.7581287493
 31
0.0
  0
LINE
  5
565
330
1F
100
AcDbEntity
  8
0
  6
Continuous
 62
     8
370
    25
100
AcDbLine
 10
13.3886173494
 20
10.9350485741
 30
0.0
 11
13.3886173494
 21
10.9166541499
 31
0.0
  0
LINE
  5
566
330
1F
100
AcDbEntity
  8
0
  6
Continuous
 62
     8
370
    25
100
AcDbLine
 10
37.0106645935
 20
10.9166541499
 30
0.0
 11
37.0106645935
 21
10.9350485741
 31
0.0
  0
LINE
  5
567
330
1F
100
AcDbEntity
  8
0
  6
Continuous
 62
     8
370
    25
100
AcDbLine
 10
37.0106645935
 20
10.9350485741
 30
0.0
 11
33.620900814
 21
10.9350485741
 31
0.0
  0
LINE
  5
568
330
1F
100
AcDbEntity
  8
0
  6
Continuous
 62
     8
370
    25
100
AcDbLine
 10
33.5185386093
 20
10.9350485741
 30
0.0
 11
33.0224756172
 21
10.9350485741
 31
0.0
  0
LINE
  5
569
330
1F
100
AcDbEntity
  8
0
  6
Continuous
 62
     8
370
    25
100
AcDbLine
 10
32.9201134124
 20
10.9350485741
 30
0.0
 11
26.7232630187
 21
10.9350485741
 31
0.0
  0
LINE
  5
56A
330
1F
100
AcDbEntity
  8
0
  6
Continuous
 62
     8
370
    25
100
AcDbLine
 10
26.620900814
 20
10.9350485741
 30
0.0
 11
23.778381129
 21
10.9350485741
 31
0.0
  0
LINE
  5
56B
330
1F
100
AcDbEntity
  8
0
  6
Continuous
 62
     8
370
    25
100
AcDbLine
 10
23.6760189242
 20
10.9350485741
 30
0.0
 11
17.4791685305
 21
10.9350485741
 31
0.0
  0
LINE
  5
56C
330
1F
100
AcDbEntity
  8
0
  6
Continuous
 62
     8
370
    25
100
AcDbLine
 10
17.3768063258
 20
10.9350485741
 30
0.0
 11
16.8807433337
 21
10.9350485741
 31
0.0
  0
LINE
  5
56D
330
1F
100
AcDbEntity
  8
0
  6
Continuous
 62
     8
370
    25
100
AcDbLine
 10
16.778381129
 20
10.9350485741
 30
0.0
 11
13.3886173494
 21
10.9350485741
 31
0.0
  0
LINE
  5
56E
330
1F
100
AcDbEntity
  8
0
  6
Continuous
 62
     8
370
    25
100
AcDbLine
 10
38.0508902016
 20
10.7581287493
 30
0.0
 11
38.4901240248
 21
10.7581287493
 31
0.0
  0
LINE
  5
56F
330
1F
100
AcDbEntity
  8
0
  6
Continuous
 62
     8
370
    25
100
AcDbLine
 10
11.9091579181
 20
10.7581287493
 30
0.0
 11
12.3483917414
 21
10.7581287493
 31
0.0
  0
LINE
  5
570
330
1F
100
AcDbEntity
  8
0
  6
Continuous
 62
     8
370
    25
100
AcDbLine
 10
37.0106645935
 20
11.1612957994
 30
0.0
 11
36.7392304522
 21
11.1612957994
 31
0.0
  0
LINE
  5
571
330
1F
100
AcDbEntity
  8
0
  6
Continuous
 62
     8
370
    25
100
AcDbLine
 10
37.2820987349
 20
11.1612957994
 30
0.0
 11
37.0106645935
 21
11.1612957994
 31
0.0
  0
ELLIPSE
  5
572
330
1F
100
AcDbEntity
  8
0
  6
Continuous
 62
     8
370
    25
100
AcDbEllipse
 10
38.6878299479
 20
10.9955026649
 30
0.0
 11
0.08351654895903948
 21
0.08351654895903948
 31
0.0
210
0.0
220
0.0
230
1.0
 40
0.7182335128
 41
4.461380881314053
 42
5.235987755983037
  0
ELLIPSE
  5
573
330
1F
100
AcDbEntity
  8
0
  6
Continuous
 62
     8
370
    25
100
AcDbEllipse
 10
11.7114519951
 20
10.9955026649
 30
0.0
 11
0.08351654895904304
 21
-0.08351654895903948
 31
0.0
210
0.0
220
0.0
230
1.0
 40
0.7182335128
 41
4.188790204786363
 42
4.963397079455295
  0
LINE
  5
574
330
1F
100
AcDbEntity
  8
0
  6
Continuous
 62
   144
370
    18
100
AcDbLine
 10
38.6575209526
 20
10.9422951112
 30
0.0
 11
38.6831619139
 21
10.9166541499
 31
0.0
  0
LINE
  5
575
330
1F
100
AcDbEntity
  8
0
  6
Continuous
 62
     8
370
    25
100
AcDbLine
 10
11.7161200291
 20
10.9166541499
 30
0.0
 11
11.7417609904
 21
10.9422951112
 31
0.0
  0
LINE
  5
576
330
1F
100
AcDbEntity
  8
0
  6
Continuous
 62
     8
370
    25
100
AcDbLine
 10
38.7828777259
 20
11.7553451845
 30
0.0
 11
38.7828777259
 21
11.7041640822
 31
0.0
  0
LINE
  5
577
330
1F
100
AcDbEntity
  8
0
  6
Continuous
 62
     8
370
    25
100
AcDbLine
 10
11.6164042171
 20
11.7041640822
 30
0.0
 11
11.6164042171
 21
11.7553451845
 31
0.0
  0
LINE
  5
578
330
1F
100
AcDbEntity
  8
0
  6
Continuous
 62
     8
370
    25
100
AcDbLine
 10
11.6582444415
 20
11.4030409272
 30
0.0
 11
11.6582444415
 21
11.4049514838
 31
0.0
  0
LINE
  5
579
330
1F
100
AcDbEntity
  8
0
  6
Continuous
 62
     8
370
    25
100
AcDbLine
 10
11.6582444415
 20
11.7041640822
 30
0.0
 11
11.6582444415
 21
11.7410640153
 31
0.0
  0
LINE
  5
57A
330
1F
100
AcDbEntity
  8
0
  6
Continuous
 62
     8
370
    25
100
AcDbLine
 10
38.7410375015
 20
11.7410640153
 30
0.0
 11
38.7410375015
 21
11.7041640822
 31
0.0
  0
LINE
  5
57B
330
1F
100
AcDbEntity
  8
0
  6
Continuous
 62
     8
370
    25
100
AcDbLine
 10
38.7410375015
 20
11.4049514838
 30
0.0
 11
38.7410375015
 21
11.4030409272
 31
0.0
  0
ARC
  5
57C
330
1F
100
AcDbEntity
  8
0
  6
Continuous
 62
     8
370
    25
100
AcDbCircle
 10
37.8796042712
 20
11.018565123
 30
0.0
 40
0.1181102362204753
100
AcDbArc
 50
225.0
 51
239.6376764216
  0
ARC
  5
57D
330
1F
100
AcDbEntity
  8
0
  6
Continuous
 62
     8
370
    25
100
AcDbCircle
 10
12.5196776718
 20
11.018565123
 30
0.0
 40
0.1181102362204715
100
AcDbArc
 50
300.3623235784
 51
315.0
  0
LINE
  5
57E
330
1F
100
AcDbEntity
  8
0
  6
Continuous
 62
     8
370
    25
100
AcDbLine
 10
38.3359693849
 20
10.9422951112
 30
0.0
 11
37.7888411851
 21
10.9422951112
 31
0.0
  0
LINE
  5
57F
330
1F
100
AcDbEntity
  8
0
  6
Continuous
 62
     8
370
    25
100
AcDbLine
 10
12.6104407579
 20
10.9422951112
 30
0.0
 11
12.0633125581
 21
10.9422951112
 31
0.0
  0
LINE
  5
580
330
1F
100
AcDbEntity
  8
0
  6
Continuous
 62
     8
370
    25
100
AcDbLine
 10
12.0657827038
 20
11.2408458494
 30
0.0
 11
12.0657827038
 21
11.1123642047
 31
0.0
  0
LINE
  5
581
330
1F
100
AcDbEntity
  8
0
  6
Continuous
 62
     8
370
    25
100
AcDbLine
 10
38.3334992392
 20
11.1123642047
 30
0.0
 11
38.3334992392
 21
11.2408458494
 31
0.0
  0
LINE
  5
582
330
1F
100
AcDbEntity
  8
0
  6
Continuous
 62
     8
370
    25
100
AcDbLine
 10
37.2380816487
 20
11.2493299718
 30
0.0
 11
36.7832475383
 21
11.2493299718
 31
0.0
  0
LINE
  5
583
330
1F
100
AcDbEntity
  8
0
  6
Continuous
 62
     8
370
    25
100
AcDbLine
 10
10.4821212864
 20
57.0191247121
 30
0.0
 11
10.4821212864
 21
56.7616083029
 31
0.0
  0
LINE
  5
584
330
1F
100
AcDbEntity
  8
0
  6
Continuous
 62
     8
370
    25
100
AcDbLine
 10
10.4821212864
 20
55.4998776083
 30
0.0
 11
10.4821212864
 21
55.4944546341
 31
0.0
  0
LINE
  5
585
330
1F
100
AcDbEntity
  8
0
  6
Continuous
 62
     8
370
    25
100
AcDbLine
 10
10.4821212864
 20
55.4656174993
 30
0.0
 11
10.4821212864
 21
55.4423530586
 31
0.0
  0
LINE
  5
586
330
1F
100
AcDbEntity
  8
0
  6
Continuous
 62
     8
370
    25
100
AcDbLine
 10
10.4821212864
 20
34.460069594
 30
0.0
 11
10.4821212864
 21
34.0844429485
 31
0.0
  0
LINE
  5
587
330
1F
100
AcDbEntity
  8
0
  6
Continuous
 62
     8
370
    25
100
AcDbLine
 10
10.4821212864
 20
32.822712254
 30
0.0
 11
10.4821212864
 21
32.8172892797
 31
0.0
  0
LINE
  5
588
330
1F
100
AcDbEntity
  8
0
  6
Continuous
 62
     8
370
    25
100
AcDbLine
 10
10.4821212864
 20
32.788452145
 30
0.0
 11
10.4821212864
 21
32.7651877042
 31
0.0
  0
LINE
  5
589
330
1F
100
AcDbEntity
  8
0
  6
Continuous
 62
     8
370
    25
100
AcDbLine
 10
10.4821212864
 20
11.7553451845
 30
0.0
 11
10.4821212864
 21
11.6904459843
 31
0.0
  0
LINE
  5
58A
330
1F
100
AcDbEntity
  8
0
  6
Continuous
 62
     8
370
    25
100
AcDbLine
 10
10.4821212864
 20
11.4482585704
 30
0.0
 11
10.4821212864
 21
11.4443215625
 31
0.0
  0
LINE
  5
58B
330
1F
100
AcDbEntity
  8
0
  6
Continuous
 62
     8
370
    25
100
AcDbLine
 10
10.4821212864
 20
11.4049514838
 30
0.0
 11
10.4821212864
 21
11.1529829798
 31
0.0
  0
LINE
  5
58C
330
1F
100
AcDbEntity
  8
0
  6
Continuous
 62
     8
370
    25
100
AcDbLine
 10
11.1682173219
 20
55.428573531
 30
0.0
 11
11.1682173219
 21
55.4640066019
 31
0.0
  0
LINE
  5
58D
330
1F
100
AcDbEntity
  8
0
  6
Continuous
 62
     8
370
    25
100
AcDbLine
 10
11.1682173219
 20
32.7514081767
 30
0.0
 11
11.1682173219
 21
32.7868412475
 31
0.0
  0
LINE
  5
58E
330
1F
100
AcDbEntity
  8
0
  6
Continuous
 62
     8
370
    25
100
AcDbLine
 10
11.2072166043
 20
32.7514081767
 30
0.0
 11
11.2072166043
 21
32.7868412475
 31
0.0
  0
LINE
  5
58F
330
1F
100
AcDbEntity
  8
0
  6
Continuous
 62
     8
370
    25
100
AcDbLine
 10
11.2072166043
 20
55.428573531
 30
0.0
 11
11.2072166043
 21
55.4640066019
 31
0.0
  0
LINE
  5
590
330
1F
100
AcDbEntity
  8
0
  6
Continuous
 62
     8
370
    25
100
AcDbLine
 10
11.1692854143
 20
11.6960099581
 30
0.0
 11
11.1692854143
 21
11.7553451845
 31
0.0
  0
LINE
  5
591
330
1F
100
AcDbEntity
  8
0
  6
Continuous
 62
     8
370
    25
100
AcDbLine
 10
11.1692854143
 20
34.086053846
 30
0.0
 11
11.1692854143
 21
34.460069594
 31
0.0
  0
LINE
  5
592
330
1F
100
AcDbEntity
  8
0
  6
Continuous
 62
     8
370
    25
100
AcDbLine
 10
11.1692854143
 20
56.7632192003
 30
0.0
 11
11.1692854143
 21
57.0191247121
 31
0.0
  0
ENDSEC
  0
SECTION
  2
OBJECTS
  0
DICTIONARY
  5
C
330
0
100
AcDbDictionary
281
     1
  3
ACAD_GROUP
350
D
  3
ACAD_LAYOUT
350
1A
  3
ACAD_MLINESTYLE
350
17
  3
ACAD_PLOTSETTINGS
350
19
  3
ACAD_PLOTSTYLENAME
350
E
  3
ACAD_SCALELIST
350
47
  0
DICTIONARY
  5
D
102
{ACAD_REACTORS
330
C
102
}
330
C
100
AcDbDictionary
281
     1
  0
DICTIONARY
  5
1A
102
{ACAD_REACTORS
330
C
102
}
330
C
100
AcDbDictionary
281
     1
  3
Layout1
350
1E
  3
Layout2
350
26
  3
Model
350
22
  0
DICTIONARY
  5
17
102
{ACAD_REACTORS
330
C
102
}
330
C
100
AcDbDictionary
281
     1
  3
Standard
350
18
  0
DICTIONARY
  5
19
102
{ACAD_REACTORS
330
C
102
}
330
C
100
AcDbDictionary
281
     1
  0
ACDBDICTIONARYWDFLT
  5
E
102
{ACAD_REACTORS
330
C
102
}
330
C
100
AcDbDictionary
281
     1
  3
Normal
350
F
100
AcDbDictionaryWithDefault
340
F
  0
DICTIONARY
  5
47
102
{ACAD_REACTORS
330
C
102
}
330
C
100
AcDbDictionary
281
     1
  3
A0
350
48
  3
A1
350
49
  3
A2
350
4A
  3
A3
350
4B
  3
A4
350
4C
  3
A5
350
4D
  3
A6
350
4E
  3
A7
350
4F
  3
A8
350
50
  3
A9
350
51
  3
B0
350
52
  3
B1
350
53
  3
B2
350
54
  3
B3
350
55
  3
B4
350
56
  3
B5
350
57
  3
B6
350
58
  3
B7
350
59
  3
B8
350
5A
  3
B9
350
5B
  3
C0
350
5C
  3
C1
350
5D
  3
C2
350
5E
  3
C3
350
5F
  3
C4
350
60
  3
C5
350
61
  3
C6
350
62
  3
C7
350
63
  3
C8
350
64
  3
C9
350
65
  3
D0
350
66
  3
D1
350
67
  3
D2
350
68
  0
LAYOUT
  5
1E
102
{ACAD_REACTORS
330
1A
102
}
330
1A
100
AcDbPlotSettings
  1

  2
none_device
  4

  6

 40
0.0
 41
0.0
 42
0.0
 43
0.0
 44
0.0
 45
0.0
 46
0.0
 47
0.0
 48
0.0
 49
0.0
140
0.0
141
0.0
142
1.0
143
1.0
 70
   688
 72
     0
 73
     0
 74
     5
  7

 75
    16
147
1.0
148
0.0
149
0.0
100
AcDbLayout
  1
Layout1
 70
     1
 71
     1
 10
0.0
 20
0.0
 11
12.0
 21
9.0
 12
0.0
 22
0.0
 32
0.0
 14
1.0000000000E+20
 24
1.0000000000E+20
 34
1.0000000000E+20
 15
-1.0000000000E+20
 25
-1.0000000000E+20
 35
-1.0000000000E+20
146
0.0
 13
0.0
 23
0.0
 33
0.0
 16
1.0
 26
0.0
 36
0.0
 17
0.0
 27
1.0
 37
0.0
 76
     0
330
1B
  0
LAYOUT
  5
26
102
{ACAD_REACTORS
330
1A
102
}
330
1A
100
AcDbPlotSettings
  1

  2
none_device
  4

  6

 40
0.0
 41
0.0
 42
0.0
 43
0.0
 44
0.0
 45
0.0
 46
0.0
 47
0.0
 48
0.0
 49
0.0
140
0.0
141
0.0
142
1.0
143
1.0
 70
   688
 72
     0
 73
     0
 74
     5
  7

 75
    16
147
1.0
148
0.0
149
0.0
100
AcDbLayout
  1
Layout2
 70
     1
 71
     2
 10
0.0
 20
0.0
 11
0.0
 21
0.0
 12
0.0
 22
0.0
 32
0.0
 14
0.0
 24
0.0
 34
0.0
 15
0.0
 25
0.0
 35
0.0
146
0.0
 13
0.0
 23
0.0
 33
0.0
 16
1.0
 26
0.0
 36
0.0
 17
0.0
 27
1.0
 37
0.0
 76
     0
330
23
  0
LAYOUT
  5
22
102
{ACAD_REACTORS
330
1A
102
}
330
1A
100
AcDbPlotSettings
  1

  2
none_device
  4
Letter_(8.50_x_11.00_Inches)
  6

 40
6.35
 41
6.35
 42
6.35000508
 43
6.35000508
 44
215.9
 45
279.4
 46
0.0
 47
0.0
 48
0.0
 49
0.0
140
0.0
141
0.0
142
1.0
143
1.0
 70
  1712
 72
     0
 73
     0
 74
     0
  7

 75
     0
147
1.0
148
0.0
149
0.0
100
AcDbLayout
  1
Model
 70
     1
 71
     0
 10
0.0
 20
0.0
 11
50.0
 21
70.0
 12
0.0
 22
0.0
 32
0.0
 14
0.0
 24
0.0
 34
0.0
 15
50.0
 25
70.0
 35
0.0
146
0.0
 13
0.0
 23
0.0
 33
0.0
 16
1.0
 26
0.0
 36
0.0
 17
0.0
 27
1.0
 37
0.0
 76
     0
330
1F
331
29
  0
MLINESTYLE
  5
18
102
{ACAD_REACTORS
330
17
102
}
330
17
100
AcDbMlineStyle
  2
Standard
 70
     0
  3

 62
   256
 51
90.0
 52
90.0
 71
     2
 49
0.5
 62
   256
  6
BYLAYER
 49
-0.5
 62
   256
  6
BYLAYER
  0
ACDBPLACEHOLDER
  5
F
102
{ACAD_REACTORS
330
E
102
}
330
E
  0
SCALE
  5
48
102
{ACAD_REACTORS
330
47
102
}
330
47
100
AcDbScale
 70
     0
300
1:1
140
1.0
141
1.0
290
     1
  0
SCALE
  5
49
102
{ACAD_REACTORS
330
47
102
}
330
47
100
AcDbScale
 70
     0
300
1:2
140
1.0
141
2.0
290
     0
  0
SCALE
  5
4A
102
{ACAD_REACTORS
330
47
102
}
330
47
100
AcDbScale
 70
     0
300
1:4
140
1.0
141
4.0
290
     0
  0
SCALE
  5
4B
102
{ACAD_REACTORS
330
47
102
}
330
47
100
AcDbScale
 70
     0
300
1:5
140
1.0
141
5.0
290
     0
  0
SCALE
  5
4C
102
{ACAD_REACTORS
330
47
102
}
330
47
100
AcDbScale
 70
     0
300
1:8
140
1.0
141
8.0
290
     0
  0
SCALE
  5
4D
102
{ACAD_REACTORS
330
47
102
}
330
47
100
AcDbScale
 70
     0
300
1:10
140
1.0
141
10.0
290
     0
  0
SCALE
  5
4E
102
{ACAD_REACTORS
330
47
102
}
330
47
100
AcDbScale
 70
     0
300
1:16
140
1.0
141
16.0
290
     0
  0
SCALE
  5
4F
102
{ACAD_REACTORS
330
47
102
}
330
47
100
AcDbScale
 70
     0
300
1:20
140
1.0
141
20.0
290
     0
  0
SCALE
  5
50
102
{ACAD_REACTORS
330
47
102
}
330
47
100
AcDbScale
 70
     0
300
1:30
140
1.0
141
30.0
290
     0
  0
SCALE
  5
51
102
{ACAD_REACTORS
330
47
102
}
330
47
100
AcDbScale
 70
     0
300
1:40
140
1.0
141
40.0
290
     0
  0
SCALE
  5
52
102
{ACAD_REACTORS
330
47
102
}
330
47
100
AcDbScale
 70
     0
300
1:50
140
1.0
141
50.0
290
     0
  0
SCALE
  5
53
102
{ACAD_REACTORS
330
47
102
}
330
47
100
AcDbScale
 70
     0
300
1:100
140
1.0
141
100.0
290
     0
  0
SCALE
  5
54
102
{ACAD_REACTORS
330
47
102
}
330
47
100
AcDbScale
 70
     0
300
2:1
140
2.0
141
1.0
290
     0
  0
SCALE
  5
55
102
{ACAD_REACTORS
330
47
102
}
330
47
100
AcDbScale
 70
     0
300
4:1
140
4.0
141
1.0
290
     0
  0
SCALE
  5
56
102
{ACAD_REACTORS
330
47
102
}
330
47
100
AcDbScale
 70
     0
300
8:1
140
8.0
141
1.0
290
     0
  0
SCALE
  5
57
102
{ACAD_REACTORS
330
47
102
}
330
47
100
AcDbScale
 70
     0
300
10:1
140
10.0
141
1.0
290
     0
  0
SCALE
  5
58
102
{ACAD_REACTORS
330
47
102
}
330
47
100
AcDbScale
 70
     0
300
100:1
140
100.0
141
1.0
290
     0
  0
SCALE
  5
59
102
{ACAD_REACTORS
330
47
102
}
330
47
100
AcDbScale
 70
     0
300
1/128" = 1'-0"
140
0.0078125
141
12.0
290
     0
  0
SCALE
  5
5A
102
{ACAD_REACTORS
330
47
102
}
330
47
100
AcDbScale
 70
     0
300
1/64" = 1'-0"
140
0.015625
141
12.0
290
     0
  0
SCALE
  5
5B
102
{ACAD_REACTORS
330
47
102
}
330
47
100
AcDbScale
 70
     0
300
1/32" = 1'-0"
140
0.03125
141
12.0
290
     0
  0
SCALE
  5
5C
102
{ACAD_REACTORS
330
47
102
}
330
47
100
AcDbScale
 70
     0
300
1/16" = 1'-0"
140
0.0625
141
12.0
290
     0
  0
SCALE
  5
5D
102
{ACAD_REACTORS
330
47
102
}
330
47
100
AcDbScale
 70
     0
300
3/32" = 1'-0"
140
0.09375
141
12.0
290
     0
  0
SCALE
  5
5E
102
{ACAD_REACTORS
330
47
102
}
330
47
100
AcDbScale
 70
     0
300
1/8" = 1'-0"
140
0.125
141
12.0
290
     0
  0
SCALE
  5
5F
102
{ACAD_REACTORS
330
47
102
}
330
47
100
AcDbScale
 70
     0
300
3/16" = 1'-0"
140
0.1875
141
12.0
290
     0
  0
SCALE
  5
60
102
{ACAD_REACTORS
330
47
102
}
330
47
100
AcDbScale
 70
     0
300
1/4" = 1'-0"
140
0.25
141
12.0
290
     0
  0
SCALE
  5
61
102
{ACAD_REACTORS
330
47
102
}
330
47
100
AcDbScale
 70
     0
300
3/8" = 1'-0"
140
0.375
141
12.0
290
     0
  0
SCALE
  5
62
102
{ACAD_REACTORS
330
47
102
}
330
47
100
AcDbScale
 70
     0
300
1/2" = 1'-0"
140
0.5
141
12.0
290
     0
  0
SCALE
  5
63
102
{ACAD_REACTORS
330
47
102
}
330
47
100
AcDbScale
 70
     0
300
3/4" = 1'-0"
140
0.75
141
12.0
290
     0
  0
SCALE
  5
64
102
{ACAD_REACTORS
330
47
102
}
330
47
100
AcDbScale
 70
     0
300
1" = 1'-0"
140
1.0
141
12.0
290
     0
  0
SCALE
  5
65
102
{ACAD_REACTORS
330
47
102
}
330
47
100
AcDbScale
 70
     0
300
1-1/2" = 1'-0"
140
1.5
141
12.0
290
     0
  0
SCALE
  5
66
102
{ACAD_REACTORS
330
47
102
}
330
47
100
AcDbScale
 70
     0
300
3" = 1'-0"
140
3.0
141
12.0
290
     0
  0
SCALE
  5
67
102
{ACAD_REACTORS
330
47
102
}
330
47
100
AcDbScale
 70
     0
300
6" = 1'-0"
140
6.0
141
12.0
290
     0
  0
SCALE
  5
68
102
{ACAD_REACTORS
330
47
102
}
330
47
100
AcDbScale
 70
     0
300
1'-0" = 1'-0"
140
12.0
141
12.0
290
     0
  0
ENDSEC
  0
EOF
