  0
SECTION
  2
HEADER
  9
$ACADVER
  1
AC1015
  9
$ACADMAINTVER
 70
     6
  9
$DWGCODEPAGE
  3
ANSI_1252
  9
$INSBASE
 10
0.0
 20
0.0
 30
0.0
  9
$EXTMIN
 10
0.0
 20
0.0
 30
0.0
  9
$EXTMAX
 10
50.0
 20
55.0
 30
0.0
  9
$LIMMIN
 10
0.0
 20
0.0
  9
$LIMMAX
 10
50.0
 20
55.0
  9
$ORTHOMODE
 70
     0
  9
$REGENMODE
 70
     1
  9
$FILLMODE
 70
     1
  9
$QTEXTMODE
 70
     0
  9
$MIRRTEXT
 70
     1
  9
$LTSCALE
 40
1.0
  9
$ATTMODE
 70
     1
  9
$TEXTSIZE
 40
0.125
  9
$TRACEWID
 40
0.05
  9
$TEXTSTYLE
  7
Standard
  9
$CLAYER
  8
0
  9
$CELTYPE
  6
ByLayer
  9
$CECOLOR
 62
   256
  9
$CELTSCALE
 40
1.0
  9
$DISPSILH
 70
     0
  9
$DIMSCALE
 40
1.0
  9
$DIMASZ
 40
0.13
  9
$DIMEXO
 40
0.05
  9
$DIMDLI
 40
0.38
  9
$DIMRND
 40
0.0
  9
$DIMDLE
 40
0.0
  9
$DIMEXE
 40
0.125
  9
$DIMTP
 40
0.0
  9
$DIMTM
 40
0.0
  9
$DIMTXT
 40
0.125
  9
$DIMCEN
 40
0.09
  9
$DIMTSZ
 40
0.0
  9
$DIMTOL
 70
     0
  9
$DIMLIM
 70
     0
  9
$DIMTIH
 70
     1
  9
$DIMTOH
 70
     1
  9
$DIMSE1
 70
     0
  9
$DIMSE2
 70
     0
  9
$DIMTAD
 70
     0
  9
$DIMZIN
 70
     0
  9
$DIMBLK
  1

  9
$DIMASO
 70
     1
  9
$DIMSHO
 70
     1
  9
$DIMPOST
  1

  9
$DIMAPOST
  1

  9
$DIMALT
 70
     0
  9
$DIMALTD
 70
     2
  9
$DIMALTF
 40
25.4
  9
$DIMLFAC
 40
1.0
  9
$DIMTOFL
 70
     0
  9
$DIMTVP
 40
0.0
  9
$DIMTIX
 70
     0
  9
$DIMSOXD
 70
     0
  9
$DIMSAH
 70
     0
  9
$DIMBLK1
  1

  9
$DIMBLK2
  1

  9
$DIMSTYLE
  2
Standard
  9
$DIMCLRD
 70
     0
  9
$DIMCLRE
 70
     0
  9
$DIMCLRT
 70
     0
  9
$DIMTFAC
 40
1.0
  9
$DIMGAP
 40
0.06
  9
$DIMJUST
 70
     0
  9
$DIMSD1
 70
     0
  9
$DIMSD2
 70
     0
  9
$DIMTOLJ
 70
     1
  9
$DIMTZIN
 70
     0
  9
$DIMALTZ
 70
     0
  9
$DIMALTTZ
 70
     0
  9
$DIMUPT
 70
     0
  9
$DIMDEC
 70
     2
  9
$DIMTDEC
 70
     2
  9
$DIMALTU
 70
     2
  9
$DIMALTTD
 70
     2
  9
$DIMTXSTY
  7
Standard
  9
$DIMAUNIT
 70
     0
  9
$DIMADEC
 70
     2
  9
$DIMALTRND
 40
0.0
  9
$DIMAZIN
 70
     0
  9
$DIMDSEP
 70
    46
  9
$DIMATFIT
 70
     3
  9
$DIMFRAC
 70
     0
  9
$DIMLDRBLK
  1

  9
$DIMLUNIT
 70
     2
  9
$DIMLWD
 70
    -2
  9
$DIMLWE
 70
    -2
  9
$DIMTMOVE
 70
     0
  9
$LUNITS
 70
     2
  9
$LUPREC
 70
     2
  9
$SKETCHINC
 40
0.1
  9
$FILLETRAD
 40
0.5
  9
$AUNITS
 70
     0
  9
$AUPREC
 70
     2
  9
$MENU
  1
.
  9
$ELEVATION
 40
0.0
  9
$PELEVATION
 40
0.0
  9
$THICKNESS
 40
0.0
  9
$LIMCHECK
 70
     0
  9
$CHAMFERA
 40
0.0
  9
$CHAMFERB
 40
0.0
  9
$CHAMFERC
 40
0.0
  9
$CHAMFERD
 40
0.0
  9
$SKPOLY
 70
     0
  9
$TDCREATE
 40
2458813.519783171
  9
$TDUCREATE
 40
2458813.853116505
  9
$TDUPDATE
 40
2458813.519783901
  9
$TDUUPDATE
 40
2458813.853117234
  9
$TDINDWG
 40
0.0000000116
  9
$TDUSRTIMER
 40
0.0000000116
  9
$USRTIMER
 70
     1
  9
$ANGBASE
 50
0.0
  9
$ANGDIR
 70
     0
  9
$PDMODE
 70
     0
  9
$PDSIZE
 40
-1.0
  9
$PLINEWID
 40
0.0
  9
$SPLFRAME
 70
     0
  9
$SPLINETYPE
 70
     6
  9
$SPLINESEGS
 70
     8
  9
$HANDSEED
  5
487
  9
$SURFTAB1
 70
     6
  9
$SURFTAB2
 70
     6
  9
$SURFTYPE
 70
     6
  9
$SURFU
 70
     6
  9
$SURFV
 70
     6
  9
$UCSBASE
  2

  9
$UCSNAME
  2

  9
$UCSORG
 10
0.0
 20
0.0
 30
0.0
  9
$UCSXDIR
 10
1.0
 20
0.0
 30
0.0
  9
$UCSYDIR
 10
0.0
 20
1.0
 30
0.0
  9
$UCSORTHOREF
  2

  9
$UCSORTHOVIEW
 70
     0
  9
$UCSORGTOP
 10
0.0
 20
0.0
 30
0.0
  9
$UCSORGBOTTOM
 10
0.0
 20
0.0
 30
0.0
  9
$UCSORGLEFT
 10
0.0
 20
0.0
 30
0.0
  9
$UCSORGRIGHT
 10
0.0
 20
0.0
 30
0.0
  9
$UCSORGFRONT
 10
0.0
 20
0.0
 30
0.0
  9
$UCSORGBACK
 10
0.0
 20
0.0
 30
0.0
  9
$PUCSBASE
  2

  9
$PUCSNAME
  2

  9
$PUCSORG
 10
0.0
 20
0.0
 30
0.0
  9
$PUCSXDIR
 10
1.0
 20
0.0
 30
0.0
  9
$PUCSYDIR
 10
0.0
 20
1.0
 30
0.0
  9
$PUCSORTHOREF
  2

  9
$PUCSORTHOVIEW
 70
     0
  9
$PUCSORGTOP
 10
0.0
 20
0.0
 30
0.0
  9
$PUCSORGBOTTOM
 10
0.0
 20
0.0
 30
0.0
  9
$PUCSORGLEFT
 10
0.0
 20
0.0
 30
0.0
  9
$PUCSORGRIGHT
 10
0.0
 20
0.0
 30
0.0
  9
$PUCSORGFRONT
 10
0.0
 20
0.0
 30
0.0
  9
$PUCSORGBACK
 10
0.0
 20
0.0
 30
0.0
  9
$USERI1
 70
     0
  9
$USERI2
 70
     0
  9
$USERI3
 70
     0
  9
$USERI4
 70
     0
  9
$USERI5
 70
     0
  9
$USERR1
 40
0.0
  9
$USERR2
 40
0.0
  9
$USERR3
 40
0.0
  9
$USERR4
 40
0.0
  9
$USERR5
 40
0.0
  9
$WORLDVIEW
 70
     1
  9
$SHADEDGE
 70
     3
  9
$SHADEDIF
 70
    70
  9
$TILEMODE
 70
     1
  9
$MAXACTVP
 70
    64
  9
$PINSBASE
 10
0.0
 20
0.0
 30
0.0
  9
$PLIMCHECK
 70
     0
  9
$PEXTMIN
 10
1.0000000000E+20
 20
1.0000000000E+20
 30
1.0000000000E+20
  9
$PEXTMAX
 10
-1.0000000000E+20
 20
-1.0000000000E+20
 30
-1.0000000000E+20
  9
$PLIMMIN
 10
0.0
 20
0.0
  9
$PLIMMAX
 10
12.0
 20
9.0
  9
$UNITMODE
 70
     0
  9
$VISRETAIN
 70
     1
  9
$PLINEGEN
 70
     0
  9
$PSLTSCALE
 70
     1
  9
$TREEDEPTH
 70
  3020
  9
$CMLSTYLE
  2
Standard
  9
$CMLJUST
 70
     0
  9
$CMLSCALE
 40
1.0
  9
$PROXYGRAPHICS
 70
     1
  9
$MEASUREMENT
 70
     0
  9
$CELWEIGHT
370
    -1
  9
$ENDCAPS
280
     0
  9
$JOINSTYLE
280
     0
  9
$LWDISPLAY
290
     1
  9
$INSUNITS
 70
     1
  9
$HYPERLINKBASE
  1

  9
$STYLESHEET
  1

  9
$XEDIT
290
     1
  9
$CEPSNTYPE
380
     0
  9
$PSTYLEMODE
290
     1
  9
$FINGERPRINTGUID
  2
{7CDAACAF-0AE0-4C29-82D0-25C40166C8B0}
  9
$VERSIONGUID
  2
{FAEB1C32-E019-11D5-929B-00C0DF256EC4}
  9
$EXTNAMES
290
     1
  9
$PSVPSCALE
 40
0.0
  9
$OLESTARTUP
290
     0
  0
ENDSEC
  0
SECTION
  2
CLASSES
  0
CLASS
  1
ACDBDICTIONARYWDFLT
  2
AcDbDictionaryWithDefault
  3
ObjectDBX Classes
 90
        0
280
     0
281
     0
  0
CLASS
  1
VISUALSTYLE
  2
AcDbVisualStyle
  3
ObjectDBX Classes
 90
     4095
280
     0
281
     0
  0
CLASS
  1
MATERIAL
  2
AcDbMaterial
  3
ObjectDBX Classes
 90
     1153
280
     0
281
     0
  0
CLASS
  1
SCALE
  2
AcDbScale
  3
ObjectDBX Classes
 90
     1153
280
     0
281
     0
  0
CLASS
  1
TABLESTYLE
  2
AcDbTableStyle
  3
ObjectDBX Classes
 90
     4095
280
     0
281
     0
  0
CLASS
  1
MLEADERSTYLE
  2
AcDbMLeaderStyle
  3
ACDB_MLEADERSTYLE_CLASS
 90
     4095
280
     0
281
     0
  0
CLASS
  1
SUN
  2
AcDbSun
  3
SCENEOE
 90
     1153
280
     0
281
     0
  0
CLASS
  1
ACDBPLACEHOLDER
  2
AcDbPlaceHolder
  3
ObjectDBX Classes
 90
        0
280
     0
281
     0
  0
CLASS
  1
LAYOUT
  2
AcDbLayout
  3
ObjectDBX Classes
 90
        0
280
     0
281
     0
  0
ENDSEC
  0
SECTION
  2
TABLES
  0
TABLE
  2
VPORT
  5
8
330
0
100
AcDbSymbolTable
 70
     1
  0
VPORT
  5
29
330
8
100
AcDbSymbolTableRecord
100
AcDbViewportTableRecord
  2
*Active
 70
     0
 10
0.0
 20
0.0
 11
1.0
 21
1.0
 12
25.0
 22
27.5
 13
0.0
 23
0.0
 14
0.5
 24
0.5
 15
0.5
 25
0.5
 16
0.0
 26
0.0
 36
1.0
 17
0.0
 27
0.0
 37
0.0
 40
55.0
 41
0.9090909091
 42
50.0
 43
0.0
 44
0.0
 50
0.0
 51
0.0
 71
     0
 72
  2000
 73
     1
 74
     3
 75
     0
 76
     0
 77
     0
 78
     0
281
     0
 65
     1
110
0.0
120
0.0
130
0.0
111
1.0
121
0.0
131
0.0
112
0.0
122
1.0
132
0.0
 79
     0
146
0.0
  0
ENDTAB
  0
TABLE
  2
LTYPE
  5
5
330
0
100
AcDbSymbolTable
 70
     6
  0
LTYPE
  5
14
330
5
100
AcDbSymbolTableRecord
100
AcDbLinetypeTableRecord
  2
ByBlock
 70
     0
  3

 72
    65
 73
     0
 40
0.0
  0
LTYPE
  5
15
330
5
100
AcDbSymbolTableRecord
100
AcDbLinetypeTableRecord
  2
ByLayer
 70
     0
  3

 72
    65
 73
     0
 40
0.0
  0
LTYPE
  5
16
330
5
100
AcDbSymbolTableRecord
100
AcDbLinetypeTableRecord
  2
Continuous
 70
     0
  3
Solid line
 72
    65
 73
     0
 40
0.0
  0
LTYPE
  5
6E
330
5
100
AcDbSymbolTableRecord
100
AcDbLinetypeTableRecord
  2
HIDDEN
 70
     0
  3
Hidden __ __ __ __ __ __ __ __ __ __ __ __ __ __
 72
    65
 73
     2
 40
0.075
 49
0.05
 74
     0
 49
-0.025
 74
     0
  0
LTYPE
  5
6F
330
5
100
AcDbSymbolTableRecord
100
AcDbLinetypeTableRecord
  2
PHANTOM
 70
     0
  3
Phantom ______  __  __  ______  __  __  ______
 72
    65
 73
     6
 40
0.5
 49
0.25
 74
     0
 49
-0.05
 74
     0
 49
0.05
 74
     0
 49
-0.05
 74
     0
 49
0.05
 74
     0
 49
-0.05
 74
     0
  0
LTYPE
  5
70
330
5
100
AcDbSymbolTableRecord
100
AcDbLinetypeTableRecord
  2
CENTER
 70
     0
  3
Center ____ _ ____ _ ____ _ ____ _ ____ _ ____
 72
    65
 73
     4
 40
0.4
 49
0.25
 74
     0
 49
-0.05
 74
     0
 49
0.05
 74
     0
 49
-0.05
 74
     0
  0
LTYPE
  5
71
330
5
100
AcDbSymbolTableRecord
100
AcDbLinetypeTableRecord
  2
CENTERX2
 70
     0
  3
Center (2x) ________  __  ________  __  _____
 72
    65
 73
     4
 40
0.8
 49
0.5
 74
     0
 49
-0.1
 74
     0
 49
0.1
 74
     0
 49
-0.1
 74
     0
  0
LTYPE
  5
72
330
5
100
AcDbSymbolTableRecord
100
AcDbLinetypeTableRecord
  2
DOT2
 70
     0
  3
Dot (.5x) ........................................
 72
    65
 73
     2
 40
0.025
 49
0.0
 74
     0
 49
-0.025
 74
     0
  0
ENDTAB
  0
TABLE
  2
LAYER
  5
2
330
0
100
AcDbSymbolTable
 70
     1
  0
LAYER
  5
10
330
2
100
AcDbSymbolTableRecord
100
AcDbLayerTableRecord
  2
0
 70
     0
 62
     7
  6
Continuous
370
    -3
390
F
  0
ENDTAB
  0
TABLE
  2
STYLE
  5
3
330
0
100
AcDbSymbolTable
 70
     1
  0
STYLE
  5
11
330
3
100
AcDbSymbolTableRecord
100
AcDbTextStyleTableRecord
  2
Standard
 70
     0
 40
0.0
 41
1.0
 50
0.0
 71
     0
 42
0.125
  3
txt
  4

  0
ENDTAB
  0
TABLE
  2
VIEW
  5
6
330
0
100
AcDbSymbolTable
 70
     0
  0
ENDTAB
  0
TABLE
  2
UCS
  5
7
330
0
100
AcDbSymbolTable
 70
     0
  0
ENDTAB
  0
TABLE
  2
APPID
  5
9
330
0
100
AcDbSymbolTable
 70
     1
  0
APPID
  5
12
330
9
100
AcDbSymbolTableRecord
100
AcDbRegAppTableRecord
  2
ACAD
 70
     0
  0
ENDTAB
  0
TABLE
  2
DIMSTYLE
  5
A
330
0
100
AcDbSymbolTable
 70
     1
100
AcDbDimStyleTable
  0
DIMSTYLE
105
27
330
A
100
AcDbSymbolTableRecord
100
AcDbDimStyleTableRecord
  2
Standard
 70
     0
178
     0
340
11
  0
ENDTAB
  0
TABLE
  2
BLOCK_RECORD
  5
1
330
0
100
AcDbSymbolTable
 70
     1
  0
BLOCK_RECORD
  5
1F
330
1
100
AcDbSymbolTableRecord
100
AcDbBlockTableRecord
  2
*Model_Space
340
22
  0
BLOCK_RECORD
  5
1B
330
1
100
AcDbSymbolTableRecord
100
AcDbBlockTableRecord
  2
*Paper_Space
340
1E
  0
BLOCK_RECORD
  5
23
330
1
100
AcDbSymbolTableRecord
100
AcDbBlockTableRecord
  2
*Paper_Space0
340
26
  0
ENDTAB
  0
ENDSEC
  0
SECTION
  2
BLOCKS
  0
BLOCK
  5
20
330
1F
100
AcDbEntity
  8
0
100
AcDbBlockBegin
  2
*Model_Space
 70
     0
 10
0.0
 20
0.0
 30
0.0
  3
*Model_Space
  1

  0
ENDBLK
  5
21
330
1F
100
AcDbEntity
  8
0
100
AcDbBlockEnd
  0
BLOCK
  5
1C
330
1B
100
AcDbEntity
 67
     1
  8
0
100
AcDbBlockBegin
  2
*Paper_Space
 70
     0
 10
0.0
 20
0.0
 30
0.0
  3
*Paper_Space
  1

  0
ENDBLK
  5
1D
330
1B
100
AcDbEntity
 67
     1
  8
0
100
AcDbBlockEnd
  0
BLOCK
  5
24
330
23
100
AcDbEntity
  8
0
100
AcDbBlockBegin
  2
*Paper_Space0
 70
     0
 10
0.0
 20
0.0
 30
0.0
  3
*Paper_Space0
  1

  0
ENDBLK
  5
25
330
23
100
AcDbEntity
  8
0
100
AcDbBlockEnd
  0
ENDSEC
  0
SECTION
  2
ENTITIES
  0
ARC
  5
73
330
1F
100
AcDbEntity
  8
0
  6
Continuous
 62
     7
370
    25
100
AcDbCircle
 10
39.4492046995
 20
36.5724011033
 30
0.0
 40
0.1496062992125959
100
AcDbArc
 50
192.7995956615
 51
207.2828610693
  0
LINE
  5
74
330
1F
100
AcDbEntity
  8
0
  6
Continuous
 62
     7
370
    25
100
AcDbLine
 10
39.4215929789
 20
38.0943751923
 30
0.0
 11
39.4215929789
 21
37.8384696805
 31
0.0
  0
LINE
  5
75
330
1F
100
AcDbEntity
  8
0
  6
Continuous
 62
     7
370
    25
100
AcDbLine
 10
39.4215929789
 20
15.5353200742
 30
0.0
 11
39.4215929789
 21
15.4484257926
 31
0.0
  0
ARC
  5
76
330
1F
100
AcDbEntity
  8
0
  6
Continuous
 62
     7
370
    25
100
AcDbCircle
 10
11.338968479
 20
36.5724011033
 30
0.0
 40
0.1496062992125977
100
AcDbArc
 50
333.4746479834
 51
347.2004043385
  0
LINE
  5
77
330
1F
100
AcDbEntity
  8
0
  6
Continuous
 62
     7
370
    25
100
AcDbLine
 10
11.3665801995
 20
15.4484257926
 30
0.0
 11
11.3665801995
 21
15.5353200742
 31
0.0
  0
LINE
  5
78
330
1F
100
AcDbEntity
  8
0
  6
Continuous
 62
     7
370
    25
100
AcDbLine
 10
11.3665801995
 20
37.8384696805
 30
0.0
 11
11.3665801995
 21
38.0943751923
 31
0.0
  0
ARC
  5
79
330
1F
100
AcDbEntity
  8
0
  6
Continuous
 62
     7
370
    25
100
AcDbCircle
 10
11.8783385577
 20
14.8640602316
 30
0.0
 40
0.0196850393700778
100
AcDbArc
 50
90.0
 51
126.8698976458
  0
ARC
  5
7A
330
1F
100
AcDbEntity
  8
0
  6
Continuous
 62
     7
370
    25
100
AcDbCircle
 10
11.8783385577
 20
15.0254775545
 30
0.0
 40
0.0196850393700778
100
AcDbArc
 50
233.1301023542
 51
270.0
  0
LINE
  5
7B
330
1F
100
AcDbEntity
  8
0
  6
Continuous
 62
     7
370
    25
100
AcDbLine
 10
11.4885747782
 20
36.539257082
 30
0.0
 11
11.4836503224
 21
36.5343326263
 31
0.0
  0
ARC
  5
7C
330
1F
100
AcDbEntity
  8
0
  6
Continuous
 62
     7
370
    25
100
AcDbCircle
 10
38.9098346207
 20
15.0254775545
 30
0.0
 40
0.0196850393700799
100
AcDbArc
 50
270.0
 51
306.8698976459
  0
ARC
  5
7D
330
1F
100
AcDbEntity
  8
0
  6
Continuous
 62
     7
370
    25
100
AcDbCircle
 10
38.9098346207
 20
14.8640602316
 30
0.0
 40
0.0196850393700799
100
AcDbArc
 50
53.1301023541
 51
90.0
  0
LWPOLYLINE
  5
7E
330
1F
100
AcDbEntity
  8
0
  6
Continuous
 62
     7
370
    25
100
AcDbPolyline
 90
        3
 70
   128
 43
0.0
 10
10.5237047328
 20
36.5682123383
 10
10.5357334565
 20
36.5590020509
 10
10.559745598
 20
36.5406439428
  0
LWPOLYLINE
  5
7F
330
1F
100
AcDbEntity
  8
0
  6
Continuous
 62
     7
370
    25
100
AcDbPolyline
 90
        3
 70
   128
 43
0.0
 10
10.559745598
 20
37.8370828197
 10
10.5357334565
 20
37.8187247116
 10
10.5234738147
 20
37.8093376122
  0
LINE
  5
80
330
1F
100
AcDbEntity
  8
0
  6
Continuous
 62
     7
370
    25
100
AcDbLine
 10
11.0358188727
 20
36.6849263734
 30
0.0
 11
11.0043228097
 21
36.7164224364
 31
0.0
  0
LWPOLYLINE
  5
81
330
1F
100
AcDbEntity
  8
0
  6
Continuous
 62
     7
370
    25
100
AcDbPolyline
 90
        3
 70
   128
 43
0.0
 10
40.2644684442
 20
37.8095144253
 10
40.252439722
 20
37.8187247116
 10
40.2284275805
 20
37.8370828197
  0
LWPOLYLINE
  5
82
330
1F
100
AcDbEntity
  8
0
  6
Continuous
 62
     7
370
    25
100
AcDbPolyline
 90
        3
 70
   128
 43
0.0
 10
40.2284275805
 20
36.5406439428
 10
40.252439722
 20
36.5590020509
 10
40.2646993638
 20
36.5683891503
  0
LINE
  5
83
330
1F
100
AcDbEntity
  8
0
  6
Continuous
 62
     7
370
    25
100
AcDbLine
 10
39.7838503688
 20
36.7164224364
 30
0.0
 11
39.7523543058
 21
36.6849263734
 31
0.0
  0
LINE
  5
84
330
1F
100
AcDbEntity
  8
0
  6
Continuous
 62
     7
370
    25
100
AcDbLine
 10
39.7582598176
 20
36.6770523576
 30
0.0
 11
39.748706086
 21
36.6620560029
 31
0.0
  0
LINE
  5
85
330
1F
100
AcDbEntity
  8
0
  6
Continuous
 62
     7
370
    25
100
AcDbLine
 10
39.6971183395
 20
36.5810794613
 30
0.0
 11
39.6854251719
 21
36.5627248648
 31
0.0
  0
LINE
  5
86
330
1F
100
AcDbEntity
  8
0
  6
Continuous
 62
     7
370
    25
100
AcDbLine
 10
11.1027480066
 20
36.5627248648
 30
0.0
 11
11.091054839
 21
36.5810794613
 31
0.0
  0
LINE
  5
87
330
1F
100
AcDbEntity
  8
0
  6
Continuous
 62
     7
370
    25
100
AcDbLine
 10
11.0394670925
 20
36.6620560029
 30
0.0
 11
11.0299133609
 21
36.6770523576
 31
0.0
  0
LINE
  5
88
330
1F
100
AcDbEntity
  8
0
  6
Continuous
 62
   144
370
    18
100
AcDbLine
 10
39.304522856
 20
36.5343326263
 30
0.0
 11
39.2995984003
 21
36.539257082
 31
0.0
  0
ARC
  5
89
330
1F
100
AcDbEntity
  8
0
  6
Continuous
 62
     7
370
    25
100
AcDbCircle
 10
37.0586535184
 20
37.8384696805
 30
0.0
 40
0.0196850393700814
100
AcDbArc
 50
90.0
 51
180.0
  0
ARC
  5
8A
330
1F
100
AcDbEntity
  8
0
  6
Continuous
 62
     7
370
    25
100
AcDbCircle
 10
36.8932991877
 20
37.8384696805
 30
0.0
 40
0.0196850393700814
100
AcDbArc
 50
0.0
 51
90.0
  0
ARC
  5
8B
330
1F
100
AcDbEntity
  8
0
  6
Continuous
 62
     7
370
    25
100
AcDbCircle
 10
35.2948739908
 20
37.8384696805
 30
0.0
 40
0.0196850393700743
100
AcDbArc
 50
90.0
 51
180.0
  0
ARC
  5
8C
330
1F
100
AcDbEntity
  8
0
  6
Continuous
 62
     7
370
    25
100
AcDbCircle
 10
35.1295196601
 20
37.8384696805
 30
0.0
 40
0.0196850393700743
100
AcDbArc
 50
0.0
 51
90.0
  0
LINE
  5
8D
330
1F
100
AcDbEntity
  8
0
  6
Continuous
 62
     7
370
    25
100
AcDbLine
 10
31.7872183747
 20
37.9368948773
 30
0.0
 11
31.7872183747
 21
37.8778397592
 31
0.0
  0
LINE
  5
8E
330
1F
100
AcDbEntity
  8
0
  6
Continuous
 62
     7
370
    25
100
AcDbLine
 10
31.9132026267
 20
37.8778397592
 30
0.0
 11
31.9132026267
 21
37.9368948773
 31
0.0
  0
LINE
  5
8F
330
1F
100
AcDbEntity
  8
0
  6
Continuous
 62
     7
370
    25
100
AcDbLine
 10
31.4394142263
 20
14.5863944891
 30
0.0
 11
31.473682276
 21
14.5105445838
 31
0.0
  0
LINE
  5
90
330
1F
100
AcDbEntity
  8
0
  6
Continuous
 62
     7
370
    25
100
AcDbLine
 10
31.9129160993
 20
14.5105445838
 30
0.0
 11
31.947184149
 21
14.5863944891
 31
0.0
  0
LINE
  5
91
330
1F
100
AcDbEntity
  8
0
  6
Continuous
 62
     7
370
    25
100
AcDbLine
 10
25.1402016279
 20
14.5863944891
 30
0.0
 11
25.1744696776
 21
14.5105445838
 31
0.0
  0
LINE
  5
92
330
1F
100
AcDbEntity
  8
0
  6
Continuous
 62
     7
370
    25
100
AcDbLine
 10
25.6137035008
 20
14.5105445838
 30
0.0
 11
25.6479715505
 21
14.5863944891
 31
0.0
  0
LINE
  5
93
330
1F
100
AcDbEntity
  8
0
  6
Continuous
 62
     7
370
    25
100
AcDbLine
 10
18.8409890295
 20
14.5863944891
 30
0.0
 11
18.8752570792
 21
14.5105445838
 31
0.0
  0
LINE
  5
94
330
1F
100
AcDbEntity
  8
0
  6
Continuous
 62
     7
370
    25
100
AcDbLine
 10
19.3144909024
 20
14.5105445838
 30
0.0
 11
19.3487589521
 21
14.5863944891
 31
0.0
  0
LINE
  5
95
330
1F
100
AcDbEntity
  8
0
  6
Continuous
 62
     7
370
    25
100
AcDbLine
 10
34.982721313
 20
14.5863944891
 30
0.0
 11
35.0169893627
 21
14.5105445838
 31
0.0
  0
LINE
  5
96
330
1F
100
AcDbEntity
  8
0
  6
Continuous
 62
     7
370
    25
100
AcDbLine
 10
35.4562231859
 20
14.5105445838
 30
0.0
 11
35.4904912356
 21
14.5863944891
 31
0.0
  0
LINE
  5
97
330
1F
100
AcDbEntity
  8
0
  6
Continuous
 62
     7
370
    25
100
AcDbLine
 10
15.2976819429
 20
14.5863944891
 30
0.0
 11
15.3319499926
 21
14.5105445838
 31
0.0
  0
LINE
  5
98
330
1F
100
AcDbEntity
  8
0
  6
Continuous
 62
     7
370
    25
100
AcDbLine
 10
15.7711838158
 20
14.5105445838
 30
0.0
 11
15.8054518655
 21
14.5863944891
 31
0.0
  0
ARC
  5
99
330
1F
100
AcDbEntity
  8
0
  6
Continuous
 62
     7
370
    25
100
AcDbCircle
 10
31.5633782266
 20
14.5510681057
 30
0.0
 40
0.0984251968503949
100
AcDbArc
 50
204.3128643906
 51
270.0
  0
ARC
  5
9A
330
1F
100
AcDbEntity
  8
0
  6
Continuous
 62
     7
370
    25
100
AcDbCircle
 10
31.8232201487
 20
14.5510681057
 30
0.0
 40
0.0984251968503926
100
AcDbArc
 50
270.0
 51
335.6871356094
  0
ARC
  5
9B
330
1F
100
AcDbEntity
  8
0
  6
Continuous
 62
     7
370
    25
100
AcDbCircle
 10
19.2247949518
 20
14.5510681057
 30
0.0
 40
0.0984251968503949
100
AcDbArc
 50
270.0
 51
335.6871356094
  0
ARC
  5
9C
330
1F
100
AcDbEntity
  8
0
  6
Continuous
 62
     7
370
    25
100
AcDbCircle
 10
18.9649530298
 20
14.5510681057
 30
0.0
 40
0.0984251968503926
100
AcDbArc
 50
204.3128643906
 51
270.0
  0
ARC
  5
9D
330
1F
100
AcDbEntity
  8
0
  6
Continuous
 62
     7
370
    25
100
AcDbCircle
 10
25.2641656282
 20
14.5510681057
 30
0.0
 40
0.0984251968503926
100
AcDbArc
 50
204.3128643906
 51
270.0
  0
ARC
  5
9E
330
1F
100
AcDbEntity
  8
0
  6
Continuous
 62
     7
370
    25
100
AcDbCircle
 10
25.5240075502
 20
14.5510681057
 30
0.0
 40
0.0984251968503949
100
AcDbArc
 50
270.0
 51
335.6871356094
  0
ARC
  5
9F
330
1F
100
AcDbEntity
  8
0
  6
Continuous
 62
     7
370
    25
100
AcDbCircle
 10
35.1066853132
 20
14.5510681057
 30
0.0
 40
0.0984251968503949
100
AcDbArc
 50
204.3128643906
 51
270.0
  0
ARC
  5
A0
330
1F
100
AcDbEntity
  8
0
  6
Continuous
 62
     7
370
    25
100
AcDbCircle
 10
35.3665272353
 20
14.5510681057
 30
0.0
 40
0.0984251968503949
100
AcDbArc
 50
270.0
 51
335.6871356094
  0
ARC
  5
A1
330
1F
100
AcDbEntity
  8
0
  6
Continuous
 62
   144
370
    18
100
AcDbCircle
 10
15.6814878652
 20
14.5510681057
 30
0.0
 40
0.0984251968503949
100
AcDbArc
 50
270.0
 51
335.6871356094
  0
ARC
  5
A2
330
1F
100
AcDbEntity
  8
0
  6
Continuous
 62
   144
370
    18
100
AcDbCircle
 10
15.4216459432
 20
14.5510681057
 30
0.0
 40
0.0984251968503933
100
AcDbArc
 50
204.3128643906
 51
270.0
  0
LINE
  5
A3
330
1F
100
AcDbEntity
  8
0
  6
Continuous
 62
     7
370
    25
100
AcDbLine
 10
23.9728267467
 20
14.6690699844
 30
0.0
 11
23.9728267467
 21
14.7085484206
 31
0.0
  0
LINE
  5
A4
330
1F
100
AcDbEntity
  8
0
  6
Continuous
 62
     7
370
    25
100
AcDbLine
 10
23.870464542
 20
14.7085484206
 30
0.0
 11
23.870464542
 21
14.6690699844
 31
0.0
  0
LINE
  5
A5
330
1F
100
AcDbEntity
  8
0
  6
Continuous
 62
     7
370
    25
100
AcDbLine
 10
33.8153464317
 20
14.6690699844
 30
0.0
 11
33.8153464317
 21
14.7085484206
 31
0.0
  0
LINE
  5
A6
330
1F
100
AcDbEntity
  8
0
  6
Continuous
 62
     7
370
    25
100
AcDbLine
 10
33.712984227
 20
14.7085484206
 30
0.0
 11
33.712984227
 21
14.6690699844
 31
0.0
  0
LINE
  5
A7
330
1F
100
AcDbEntity
  8
0
  6
Continuous
 62
     7
370
    25
100
AcDbLine
 10
26.9177086365
 20
14.6690699844
 30
0.0
 11
26.9177086365
 21
14.7085484206
 31
0.0
  0
LINE
  5
A8
330
1F
100
AcDbEntity
  8
0
  6
Continuous
 62
     7
370
    25
100
AcDbLine
 10
26.8153464317
 20
14.7085484206
 30
0.0
 11
26.8153464317
 21
14.6690699844
 31
0.0
  0
LINE
  5
A9
330
1F
100
AcDbEntity
  8
0
  6
Continuous
 62
     7
370
    25
100
AcDbLine
 10
33.2169212349
 20
14.6690699844
 30
0.0
 11
33.2169212349
 21
14.7085484206
 31
0.0
  0
LINE
  5
AA
330
1F
100
AcDbEntity
  8
0
  6
Continuous
 62
     7
370
    25
100
AcDbLine
 10
33.1145590302
 20
14.7085484206
 30
0.0
 11
33.1145590302
 21
14.6690699844
 31
0.0
  0
LINE
  5
AB
330
1F
100
AcDbEntity
  8
0
  6
Continuous
 62
     7
370
    25
100
AcDbLine
 10
17.6736141483
 20
14.6690699844
 30
0.0
 11
17.6736141483
 21
14.7085484206
 31
0.0
  0
LINE
  5
AC
330
1F
100
AcDbEntity
  8
0
  6
Continuous
 62
     7
370
    25
100
AcDbLine
 10
17.5712519436
 20
14.7085484206
 30
0.0
 11
17.5712519436
 21
14.6690699844
 31
0.0
  0
LINE
  5
AD
330
1F
100
AcDbEntity
  8
0
  6
Continuous
 62
     7
370
    25
100
AcDbLine
 10
36.7602283215
 20
14.6690699844
 30
0.0
 11
36.7602283215
 21
14.7085484206
 31
0.0
  0
LINE
  5
AE
330
1F
100
AcDbEntity
  8
0
  6
Continuous
 62
     7
370
    25
100
AcDbLine
 10
36.6578661168
 20
14.7085484206
 30
0.0
 11
36.6578661168
 21
14.6690699844
 31
0.0
  0
LINE
  5
AF
330
1F
100
AcDbEntity
  8
0
  6
Continuous
 62
     7
370
    25
100
AcDbLine
 10
20.618496038
 20
14.6690699844
 30
0.0
 11
20.618496038
 21
14.7085484206
 31
0.0
  0
LINE
  5
B0
330
1F
100
AcDbEntity
  8
0
  6
Continuous
 62
     7
370
    25
100
AcDbLine
 10
20.5161338333
 20
14.7085484206
 30
0.0
 11
20.5161338333
 21
14.6690699844
 31
0.0
  0
LINE
  5
B1
330
1F
100
AcDbEntity
  8
0
  6
Continuous
 62
     7
370
    25
100
AcDbLine
 10
14.1303070617
 20
14.6690699844
 30
0.0
 11
14.1303070617
 21
14.7085484206
 31
0.0
  0
LINE
  5
B2
330
1F
100
AcDbEntity
  8
0
  6
Continuous
 62
     7
370
    25
100
AcDbLine
 10
14.0279448569
 20
14.7085484206
 30
0.0
 11
14.0279448569
 21
14.6690699844
 31
0.0
  0
LINE
  5
B3
330
1F
100
AcDbEntity
  8
0
  6
Continuous
 62
     7
370
    25
100
AcDbLine
 10
30.2720393451
 20
14.6690699844
 30
0.0
 11
30.2720393451
 21
14.7085484206
 31
0.0
  0
LINE
  5
B4
330
1F
100
AcDbEntity
  8
0
  6
Continuous
 62
     7
370
    25
100
AcDbLine
 10
30.1696771404
 20
14.7085484206
 30
0.0
 11
30.1696771404
 21
14.6690699844
 31
0.0
  0
LINE
  5
B5
330
1F
100
AcDbEntity
  8
0
  6
Continuous
 62
     7
370
    25
100
AcDbLine
 10
17.0751889514
 20
14.6690699844
 30
0.0
 11
17.0751889514
 21
14.7085484206
 31
0.0
  0
LINE
  5
B6
330
1F
100
AcDbEntity
  8
0
  6
Continuous
 62
     7
370
    25
100
AcDbLine
 10
16.9728267467
 20
14.7085484206
 30
0.0
 11
16.9728267467
 21
14.6690699844
 31
0.0
  0
LINE
  5
B7
330
1F
100
AcDbEntity
  8
0
  6
Continuous
 62
     7
370
    25
100
AcDbLine
 10
38.2110677697
 20
14.5863944891
 30
0.0
 11
38.2453358194
 21
14.5105445838
 31
0.0
  0
LINE
  5
B8
330
1F
100
AcDbEntity
  8
0
  6
Continuous
 62
     7
370
    25
100
AcDbLine
 10
38.6845696426
 20
14.5105445838
 30
0.0
 11
38.7188376923
 21
14.5863944891
 31
0.0
  0
LINE
  5
B9
330
1F
100
AcDbEntity
  8
0
  6
Continuous
 62
     7
370
    25
100
AcDbLine
 10
12.0693354862
 20
14.5863944891
 30
0.0
 11
12.1036035359
 21
14.5105445838
 31
0.0
  0
LINE
  5
BA
330
1F
100
AcDbEntity
  8
0
  6
Continuous
 62
     7
370
    25
100
AcDbLine
 10
12.5428373591
 20
14.5105445838
 30
0.0
 11
12.5771054088
 21
14.5863944891
 31
0.0
  0
ARC
  5
BB
330
1F
100
AcDbEntity
  8
0
  6
Continuous
 62
     7
370
    25
100
AcDbCircle
 10
12.4531414085
 20
14.5510681057
 30
0.0
 40
0.0984251968503949
100
AcDbArc
 50
270.0
 51
335.6871356094
  0
ARC
  5
BC
330
1F
100
AcDbEntity
  8
0
  6
Continuous
 62
     7
370
    25
100
AcDbCircle
 10
12.1932994865
 20
14.5510681057
 30
0.0
 40
0.0984251968503933
100
AcDbArc
 50
204.3128643906
 51
270.0
  0
ARC
  5
BD
330
1F
100
AcDbEntity
  8
0
  6
Continuous
 62
     7
370
    25
100
AcDbCircle
 10
38.3350317699
 20
14.5510681057
 30
0.0
 40
0.0984251968503949
100
AcDbArc
 50
204.3128643906
 51
270.0
  0
ARC
  5
BE
330
1F
100
AcDbEntity
  8
0
  6
Continuous
 62
     7
370
    25
100
AcDbCircle
 10
38.594873692
 20
14.5510681057
 30
0.0
 40
0.0984251968503949
100
AcDbArc
 50
270.0
 51
335.6871356094
  0
ARC
  5
BF
330
1F
100
AcDbEntity
  8
0
  6
Continuous
 62
     7
370
    25
100
AcDbCircle
 10
36.7928213942
 20
14.9841389718
 30
0.0
 40
0.1574803149606296
100
AcDbArc
 50
270.0
 51
333.4349488229
  0
ARC
  5
C0
330
1F
100
AcDbEntity
  8
0
  6
Continuous
 62
     7
370
    25
100
AcDbCircle
 10
37.6173990284
 20
14.9841389718
 30
0.0
 40
0.1574803149606296
100
AcDbArc
 50
206.5650511771
 51
270.0
  0
LINE
  5
C1
330
1F
100
AcDbEntity
  8
0
  6
Continuous
 62
     7
370
    25
100
AcDbLine
 10
37.4765443527
 20
14.9137116339
 30
0.0
 11
37.4610157231
 21
14.9447688931
 31
0.0
  0
LINE
  5
C2
330
1F
100
AcDbEntity
  8
0
  6
Continuous
 62
     7
370
    25
100
AcDbLine
 10
36.9492046995
 20
14.9447688931
 30
0.0
 11
36.9336760699
 21
14.9137116339
 31
0.0
  0
ARC
  5
C3
330
1F
100
AcDbEntity
  8
0
  6
Continuous
 62
     7
370
    25
100
AcDbCircle
 10
37.3114094239
 20
15.0235090505
 30
0.0
 40
0.0393700787401574
100
AcDbArc
 50
90.0
 51
180.0
  0
ARC
  5
C4
330
1F
100
AcDbEntity
  8
0
  6
Continuous
 62
     7
370
    25
100
AcDbCircle
 10
37.0988109987
 20
15.0235090505
 30
0.0
 40
0.0393700787401574
100
AcDbArc
 50
0.0
 51
90.0
  0
LINE
  5
C5
330
1F
100
AcDbEntity
  8
0
  6
Continuous
 62
     7
370
    25
100
AcDbLine
 10
37.4610157231
 20
14.9447688931
 30
0.0
 11
37.4325272665
 21
15.0017458063
 31
0.0
  0
LINE
  5
C6
330
1F
100
AcDbEntity
  8
0
  6
Continuous
 62
     7
370
    25
100
AcDbLine
 10
36.9776931561
 20
15.0017458063
 30
0.0
 11
36.9492046995
 21
14.9447688931
 31
0.0
  0
ARC
  5
C7
330
1F
100
AcDbEntity
  8
0
  6
Continuous
 62
     7
370
    25
100
AcDbCircle
 10
37.3973135975
 20
14.9841389718
 30
0.0
 40
0.0393700787401574
100
AcDbArc
 50
26.5650511771
 51
90.0
  0
ARC
  5
C8
330
1F
100
AcDbEntity
  8
0
  6
Continuous
 62
     7
370
    25
100
AcDbCircle
 10
37.012906825
 20
14.9841389718
 30
0.0
 40
0.0393700787401574
100
AcDbArc
 50
90.0
 51
153.4349488229
  0
ARC
  5
C9
330
1F
100
AcDbEntity
  8
0
  6
Continuous
 62
     7
370
    25
100
AcDbCircle
 10
37.7214561138
 20
15.7818849896
 30
0.0
 40
0.6398733772525307
100
AcDbArc
 50
266.9851002596
 51
282.5776025404
  0
LINE
  5
CA
330
1F
100
AcDbEntity
  8
0
  6
Continuous
 62
     7
370
    25
100
AcDbLine
 10
37.3625905262
 20
15.1426937889
 30
0.0
 11
37.6775511562
 21
15.1426937889
 31
0.0
  0
LWPOLYLINE
  5
CB
330
1F
100
AcDbEntity
  8
0
  6
Continuous
 62
     7
370
    25
100
AcDbPolyline
 90
        5
 70
   128
 43
0.0
 10
37.1856937129
 20
15.3375626266
 10
37.1863289956
 20
15.3441807391
 10
37.1890875842
 20
15.346992391
 10
37.2005494493
 20
15.3510638372
 10
37.2215774785
 20
15.3535109467
  0
LWPOLYLINE
  5
CC
330
1F
100
AcDbEntity
  8
0
  6
Continuous
 62
     7
370
    25
100
AcDbPolyline
 90
        6
 70
   128
 43
0.0
 10
37.8542926092
 20
15.2771521563
 10
37.8526910601
 20
15.2670187961
 10
37.8449955526
 20
15.2580205839
 10
37.8282735695
 20
15.2489562752
 10
37.7994502364
 20
15.2408486374
 10
37.7939592438
 20
15.2400444836
  0
ARC
  5
CD
330
1F
100
AcDbEntity
  8
0
  6
Continuous
 62
     7
370
    25
100
AcDbCircle
 10
39.9029448569
 20
14.8660287356
 30
0.0
 40
0.1574803149606296
100
AcDbArc
 50
270.0
 51
0.0
  0
LINE
  5
CE
330
1F
100
AcDbEntity
  8
0
  6
Continuous
 62
     7
370
    25
100
AcDbLine
 10
39.9029448569
 20
14.7085484206
 30
0.0
 11
39.5200708412
 21
14.7085484206
 31
0.0
  0
LINE
  5
CF
330
1F
100
AcDbEntity
  8
0
  6
Continuous
 62
     7
370
    25
100
AcDbLine
 10
39.5200708412
 20
14.7085484206
 30
0.0
 11
39.5200708412
 21
15.1573673183
 31
0.0
  0
LINE
  5
D0
330
1F
100
AcDbEntity
  8
0
  6
Continuous
 62
     7
370
    25
100
AcDbLine
 10
39.5200708412
 20
15.4484257926
 30
0.0
 11
39.5200708412
 21
15.5353200742
 31
0.0
  0
LINE
  5
D1
330
1F
100
AcDbEntity
  8
0
  6
Continuous
 62
     7
370
    25
100
AcDbLine
 10
39.5200708412
 20
36.5176035387
 30
0.0
 11
39.5200708412
 21
36.539257082
 31
0.0
  0
LINE
  5
D2
330
1F
100
AcDbEntity
  8
0
  6
Continuous
 62
     7
370
    25
100
AcDbLine
 10
39.5200708412
 20
37.8384696805
 30
0.0
 11
39.5200708412
 21
38.0943751923
 31
0.0
  0
LINE
  5
D3
330
1F
100
AcDbEntity
  8
0
  6
Continuous
 62
   144
370
    18
100
AcDbLine
 10
40.0604251719
 20
14.8660287356
 30
0.0
 11
40.0604251719
 21
14.9053988143
 31
0.0
  0
LINE
  5
D4
330
1F
100
AcDbEntity
  8
0
  6
Continuous
 62
   144
370
    18
100
AcDbLine
 10
40.1116062743
 20
14.9053988143
 30
0.0
 11
40.0604251719
 21
14.9053988143
 31
0.0
  0
LINE
  5
D5
330
1F
100
AcDbEntity
  8
0
  6
Continuous
 62
     7
370
    25
100
AcDbLine
 10
39.5200708412
 20
14.6770523576
 30
0.0
 11
39.5200708412
 21
14.7085484206
 31
0.0
  0
LINE
  5
D6
330
1F
100
AcDbEntity
  8
0
  6
Continuous
 62
     7
370
    25
100
AcDbLine
 10
40.1588503688
 20
38.0943751923
 30
0.0
 11
40.1588503688
 21
37.8368587932
 31
0.0
  0
LINE
  5
D7
330
1F
100
AcDbEntity
  8
0
  6
Continuous
 62
     7
370
    25
100
AcDbLine
 10
40.1588503688
 20
36.5408679693
 30
0.0
 11
40.1588503688
 21
36.5176035387
 31
0.0
  0
LINE
  5
D8
330
1F
100
AcDbEntity
  8
0
  6
Continuous
 62
     7
370
    25
100
AcDbLine
 10
40.1588503688
 20
15.5353200742
 30
0.0
 11
40.1588503688
 21
14.9053988143
 31
0.0
  0
LINE
  5
D9
330
1F
100
AcDbEntity
  8
0
  6
Continuous
 62
   144
370
    18
100
AcDbLine
 10
40.1588503688
 20
14.9053988143
 30
0.0
 11
40.1116062743
 21
14.9053988143
 31
0.0
  0
LINE
  5
DA
330
1F
100
AcDbEntity
  8
0
  6
Continuous
 62
     7
370
    25
100
AcDbLine
 10
39.5673149357
 20
14.6690699844
 30
0.0
 11
39.5673149357
 21
14.7085484206
 31
0.0
  0
LINE
  5
DB
330
1F
100
AcDbEntity
  8
0
  6
Continuous
 62
   144
370
    18
100
AcDbLine
 10
39.5200708412
 20
14.6770523576
 30
0.0
 11
39.4866062743
 21
14.6770523576
 31
0.0
  0
LINE
  5
DC
330
1F
100
AcDbEntity
  8
0
  6
Continuous
 62
   144
370
    18
100
AcDbLine
 10
39.5200708412
 20
14.7006744049
 30
0.0
 11
39.496448794
 21
14.6770523576
 31
0.0
  0
LINE
  5
DD
330
1F
100
AcDbEntity
  8
0
  6
Continuous
 62
     7
370
    25
100
AcDbLine
 10
39.4866062743
 20
14.7108638726
 30
0.0
 11
39.4958085543
 21
14.7085484206
 31
0.0
  0
LINE
  5
DE
330
1F
100
AcDbEntity
  8
0
  6
Continuous
 62
   144
370
    18
100
AcDbLine
 10
39.4958085543
 20
14.7085484206
 30
0.0
 11
39.5200708412
 21
14.7085484206
 31
0.0
  0
LINE
  5
DF
330
1F
100
AcDbEntity
  8
0
  6
Continuous
 62
     7
370
    25
100
AcDbLine
 10
11.2681023373
 20
14.7085484206
 30
0.0
 11
11.2681023373
 21
14.6770523576
 31
0.0
  0
LINE
  5
E0
330
1F
100
AcDbEntity
  8
0
  6
Continuous
 62
     7
370
    25
100
AcDbLine
 10
11.2681023373
 20
38.0943751923
 30
0.0
 11
11.2681023373
 21
37.8384696805
 31
0.0
  0
LINE
  5
E1
330
1F
100
AcDbEntity
  8
0
  6
Continuous
 62
     7
370
    25
100
AcDbLine
 10
11.2681023373
 20
36.539257082
 30
0.0
 11
11.2681023373
 21
36.5176035387
 31
0.0
  0
LINE
  5
E2
330
1F
100
AcDbEntity
  8
0
  6
Continuous
 62
     7
370
    25
100
AcDbLine
 10
11.2681023373
 20
15.5353200742
 30
0.0
 11
11.2681023373
 21
15.4484257926
 31
0.0
  0
LINE
  5
E3
330
1F
100
AcDbEntity
  8
0
  6
Continuous
 62
     7
370
    25
100
AcDbLine
 10
11.2681023373
 20
15.1573673183
 30
0.0
 11
11.2681023373
 21
14.7085484206
 31
0.0
  0
LINE
  5
E4
330
1F
100
AcDbEntity
  8
0
  6
Continuous
 62
     7
370
    25
100
AcDbLine
 10
10.6293228097
 20
14.9053988143
 30
0.0
 11
10.6293228097
 21
15.5353200742
 31
0.0
  0
LINE
  5
E5
330
1F
100
AcDbEntity
  8
0
  6
Continuous
 62
     7
370
    25
100
AcDbLine
 10
10.6293228097
 20
36.5176035387
 30
0.0
 11
10.6293228097
 21
36.5408679693
 31
0.0
  0
LINE
  5
E6
330
1F
100
AcDbEntity
  8
0
  6
Continuous
 62
     7
370
    25
100
AcDbLine
 10
10.6293228097
 20
37.8368587932
 30
0.0
 11
10.6293228097
 21
38.0943751923
 31
0.0
  0
LINE
  5
E7
330
1F
100
AcDbEntity
  8
0
  6
Continuous
 62
   144
370
    18
100
AcDbLine
 10
10.6765669042
 20
14.9053988143
 30
0.0
 11
10.6293228097
 21
14.9053988143
 31
0.0
  0
ARC
  5
E8
330
1F
100
AcDbEntity
  8
0
  6
Continuous
 62
     7
370
    25
100
AcDbCircle
 10
10.8852283215
 20
14.8660287356
 30
0.0
 40
0.1574803149606296
100
AcDbArc
 50
180.0
 51
270.0
  0
LINE
  5
E9
330
1F
100
AcDbEntity
  8
0
  6
Continuous
 62
     7
370
    25
100
AcDbLine
 10
11.2681023373
 20
14.7085484206
 30
0.0
 11
10.8852283215
 21
14.7085484206
 31
0.0
  0
LINE
  5
EA
330
1F
100
AcDbEntity
  8
0
  6
Continuous
 62
   144
370
    18
100
AcDbLine
 10
10.7277480066
 20
14.9053988143
 30
0.0
 11
10.6765669042
 21
14.9053988143
 31
0.0
  0
LINE
  5
EB
330
1F
100
AcDbEntity
  8
0
  6
Continuous
 62
   144
370
    18
100
AcDbLine
 10
10.7277480066
 20
14.9053988143
 30
0.0
 11
10.7277480066
 21
14.8660287356
 31
0.0
  0
LINE
  5
EC
330
1F
100
AcDbEntity
  8
0
  6
Continuous
 62
     7
370
    25
100
AcDbLine
 10
11.2208582428
 20
14.7085484206
 30
0.0
 11
11.2208582428
 21
14.6690699844
 31
0.0
  0
LINE
  5
ED
330
1F
100
AcDbEntity
  8
0
  6
Continuous
 62
   144
370
    18
100
AcDbLine
 10
11.3015705511
 20
14.6770523576
 30
0.0
 11
11.2681023373
 21
14.6770523576
 31
0.0
  0
LINE
  5
EE
330
1F
100
AcDbEntity
  8
0
  6
Continuous
 62
   144
370
    18
100
AcDbLine
 10
11.2917243845
 20
14.6770523576
 30
0.0
 11
11.2681023373
 21
14.7006744049
 31
0.0
  0
LINE
  5
EF
330
1F
100
AcDbEntity
  8
0
  6
Continuous
 62
     7
370
    25
100
AcDbLine
 10
11.2923646242
 20
14.7085484206
 30
0.0
 11
11.3015705511
 21
14.710865722
 31
0.0
  0
LINE
  5
F0
330
1F
100
AcDbEntity
  8
0
  6
Continuous
 62
   144
370
    18
100
AcDbLine
 10
11.2681023373
 20
14.7085484206
 30
0.0
 11
11.2923646242
 21
14.7085484206
 31
0.0
  0
LINE
  5
F1
330
1F
100
AcDbEntity
  8
0
  6
Continuous
 62
   144
370
    18
100
AcDbLine
 10
39.3153464317
 20
36.539257082
 30
0.0
 11
39.3153464317
 21
36.5038240112
 31
0.0
  0
LINE
  5
F2
330
1F
100
AcDbEntity
  8
0
  6
Continuous
 62
   144
370
    18
100
AcDbLine
 10
11.8822755656
 20
15.1573673183
 30
0.0
 11
11.8822755656
 21
14.9438815043
 31
0.0
  0
LINE
  5
F3
330
1F
100
AcDbEntity
  8
0
  6
Continuous
 62
   144
370
    18
100
AcDbLine
 10
11.8822755656
 20
14.7085484206
 30
0.0
 11
11.8822755656
 21
14.9438815043
 31
0.0
  0
LINE
  5
F4
330
1F
100
AcDbEntity
  8
0
  6
Continuous
 62
     7
370
    25
100
AcDbLine
 10
11.8586535184
 20
15.4565799167
 30
0.0
 11
11.8586535184
 21
15.5353200742
 31
0.0
  0
LINE
  5
F5
330
1F
100
AcDbEntity
  8
0
  6
Continuous
 62
   144
370
    18
100
AcDbLine
 10
11.8586535184
 20
14.7085484206
 30
0.0
 11
11.8586535184
 21
14.9438815043
 31
0.0
  0
LINE
  5
F6
330
1F
100
AcDbEntity
  8
0
  6
Continuous
 62
   144
370
    18
100
AcDbLine
 10
11.8586535184
 20
14.9438815043
 30
0.0
 11
11.8586535184
 21
15.1573673183
 31
0.0
  0
LINE
  5
F7
330
1F
100
AcDbEntity
  8
0
  6
Continuous
 62
   144
370
    18
100
AcDbLine
 10
12.2326692664
 20
15.4959499954
 30
0.0
 11
12.2326692664
 21
15.4711888857
 31
0.0
  0
LINE
  5
F8
330
1F
100
AcDbEntity
  8
0
  6
Continuous
 62
   144
370
    18
100
AcDbLine
 10
12.2326692664
 20
15.4959499954
 30
0.0
 11
12.2326692664
 21
15.5353200742
 31
0.0
  0
LINE
  5
F9
330
1F
100
AcDbEntity
  8
0
  6
Continuous
 62
   144
370
    18
100
AcDbLine
 10
12.1819318584
 20
15.4711888857
 30
0.0
 11
12.1819318584
 21
15.5353200742
 31
0.0
  0
LINE
  5
FA
330
1F
100
AcDbEntity
  8
0
  6
Continuous
 62
   144
370
    18
100
AcDbLine
 10
12.1819318584
 20
15.4711888857
 30
0.0
 11
12.2326692664
 21
15.4711888857
 31
0.0
  0
LINE
  5
FB
330
1F
100
AcDbEntity
  8
0
  6
Continuous
 62
   144
370
    18
100
AcDbLine
 10
11.9163096638
 20
15.5353200742
 30
0.0
 11
11.9163096638
 21
15.4565799167
 31
0.0
  0
LINE
  5
FC
330
1F
100
AcDbEntity
  8
0
  6
Continuous
 62
     7
370
    25
100
AcDbLine
 10
11.9531417073
 20
14.8030366096
 30
0.0
 11
11.9531417073
 21
15.1573673183
 31
0.0
  0
LINE
  5
FD
330
1F
100
AcDbEntity
  8
0
  6
Continuous
 62
     7
370
    25
100
AcDbLine
 10
11.9531417073
 20
15.4565799167
 30
0.0
 11
11.9531417073
 21
15.5353200742
 31
0.0
  0
LINE
  5
FE
330
1F
100
AcDbEntity
  8
0
  6
Continuous
 62
   144
370
    18
100
AcDbLine
 10
11.8783385577
 20
14.883745271
 30
0.0
 11
11.8783385577
 21
15.0057925151
 31
0.0
  0
LINE
  5
FF
330
1F
100
AcDbEntity
  8
0
  6
Continuous
 62
   144
370
    18
100
AcDbLine
 10
11.9163096638
 20
14.754673337
 30
0.0
 11
11.8977065659
 21
14.7397908587
 31
0.0
  0
LINE
  5
100
330
1F
100
AcDbEntity
  8
0
  6
Continuous
 62
   144
370
    18
100
AcDbLine
 10
11.9369979866
 20
14.7753616598
 30
0.0
 11
11.9163096638
 21
14.754673337
 31
0.0
  0
LINE
  5
101
330
1F
100
AcDbEntity
  8
0
  6
Continuous
 62
   144
370
    18
100
AcDbLine
 10
11.9531417073
 20
14.8030366096
 30
0.0
 11
11.9369979866
 21
14.7753616598
 31
0.0
  0
LINE
  5
102
330
1F
100
AcDbEntity
  8
0
  6
Continuous
 62
   144
370
    18
100
AcDbLine
 10
11.9033135605
 20
14.7416772337
 30
0.0
 11
11.9163096638
 21
14.754673337
 31
0.0
  0
ARC
  5
103
330
1F
100
AcDbEntity
  8
0
  6
Continuous
 62
   144
370
    18
100
AcDbCircle
 10
12.0038112258
 20
14.7085484206
 30
0.0
 40
0.0944881889763942
100
AcDbArc
 50
132.2753352532
 51
135.0
  0
CIRCLE
  5
104
330
1F
100
AcDbEntity
  8
0
  6
Continuous
 62
   144
370
    18
100
AcDbCircle
 10
12.2051102113
 20
14.9290208616
 30
0.0
 40
0.0846456692913389
  0
ARC
  5
105
330
1F
100
AcDbEntity
  8
0
  6
Continuous
 62
   144
370
    18
100
AcDbCircle
 10
12.3901495814
 20
14.7872885781
 30
0.0
 40
0.0787401574803148
100
AcDbArc
 50
270.0
 51
0.0
  0
LINE
  5
106
330
1F
100
AcDbEntity
  8
0
  6
Continuous
 62
   144
370
    18
100
AcDbLine
 10
12.4688897388
 20
15.5353200742
 30
0.0
 11
12.4688897388
 21
15.3975247986
 31
0.0
  0
LINE
  5
107
330
1F
100
AcDbEntity
  8
0
  6
Continuous
 62
   144
370
    18
100
AcDbLine
 10
12.4688897388
 20
15.1573673183
 30
0.0
 11
12.4688897388
 21
14.7872885781
 31
0.0
  0
LINE
  5
108
330
1F
100
AcDbEntity
  8
0
  6
Continuous
 62
   144
370
    18
100
AcDbLine
 10
38.9295196601
 20
14.9438815043
 30
0.0
 11
38.9295196601
 21
14.7085484206
 31
0.0
  0
LINE
  5
109
330
1F
100
AcDbEntity
  8
0
  6
Continuous
 62
   144
370
    18
100
AcDbLine
 10
38.9295196601
 20
15.1573673183
 30
0.0
 11
38.9295196601
 21
14.9438815043
 31
0.0
  0
LINE
  5
10A
330
1F
100
AcDbEntity
  8
0
  6
Continuous
 62
     7
370
    25
100
AcDbLine
 10
38.9295196601
 20
15.5353200742
 30
0.0
 11
38.9295196601
 21
15.4565799167
 31
0.0
  0
LINE
  5
10B
330
1F
100
AcDbEntity
  8
0
  6
Continuous
 62
   144
370
    18
100
AcDbLine
 10
38.9058976129
 20
14.9438815043
 30
0.0
 11
38.9058976129
 21
15.1573673183
 31
0.0
  0
LINE
  5
10C
330
1F
100
AcDbEntity
  8
0
  6
Continuous
 62
   144
370
    18
100
AcDbLine
 10
38.9058976129
 20
14.9438815043
 30
0.0
 11
38.9058976129
 21
14.7085484206
 31
0.0
  0
LINE
  5
10D
330
1F
100
AcDbEntity
  8
0
  6
Continuous
 62
   144
370
    18
100
AcDbLine
 10
38.5555039121
 20
15.5353200742
 30
0.0
 11
38.5555039121
 21
15.4959499954
 31
0.0
  0
LINE
  5
10E
330
1F
100
AcDbEntity
  8
0
  6
Continuous
 62
   144
370
    18
100
AcDbLine
 10
38.5555039121
 20
15.4711888857
 30
0.0
 11
38.5555039121
 21
15.4959499954
 31
0.0
  0
LINE
  5
10F
330
1F
100
AcDbEntity
  8
0
  6
Continuous
 62
   144
370
    18
100
AcDbLine
 10
38.5555039121
 20
15.4711888857
 30
0.0
 11
38.60624132
 21
15.4711888857
 31
0.0
  0
LINE
  5
110
330
1F
100
AcDbEntity
  8
0
  6
Continuous
 62
   144
370
    18
100
AcDbLine
 10
38.60624132
 20
15.5353200742
 30
0.0
 11
38.60624132
 21
15.4711888857
 31
0.0
  0
LINE
  5
111
330
1F
100
AcDbEntity
  8
0
  6
Continuous
 62
   144
370
    18
100
AcDbLine
 10
38.8718635147
 20
15.4565799167
 30
0.0
 11
38.8718635147
 21
15.5353200742
 31
0.0
  0
LINE
  5
112
330
1F
100
AcDbEntity
  8
0
  6
Continuous
 62
   144
370
    18
100
AcDbLine
 10
38.8350314711
 20
15.5353200742
 30
0.0
 11
38.8350314711
 21
15.4565799167
 31
0.0
  0
LINE
  5
113
330
1F
100
AcDbEntity
  8
0
  6
Continuous
 62
   144
370
    18
100
AcDbLine
 10
38.8350314711
 20
15.1573673183
 30
0.0
 11
38.8350314711
 21
14.8030366096
 31
0.0
  0
LINE
  5
114
330
1F
100
AcDbEntity
  8
0
  6
Continuous
 62
   144
370
    18
100
AcDbLine
 10
38.9098346207
 20
15.0057925151
 30
0.0
 11
38.9098346207
 21
14.883745271
 31
0.0
  0
LINE
  5
115
330
1F
100
AcDbEntity
  8
0
  6
Continuous
 62
   144
370
    18
100
AcDbLine
 10
38.9033352952
 20
14.7294959125
 30
0.0
 11
38.8718635147
 21
14.754673337
 31
0.0
  0
LINE
  5
116
330
1F
100
AcDbEntity
  8
0
  6
Continuous
 62
   144
370
    18
100
AcDbLine
 10
38.8718635147
 20
14.754673337
 30
0.0
 11
38.8511751918
 21
14.7753616598
 31
0.0
  0
LINE
  5
117
330
1F
100
AcDbEntity
  8
0
  6
Continuous
 62
   144
370
    18
100
AcDbLine
 10
38.8511751918
 20
14.7753616598
 30
0.0
 11
38.8350314711
 21
14.8030366096
 31
0.0
  0
LINE
  5
118
330
1F
100
AcDbEntity
  8
0
  6
Continuous
 62
   144
370
    18
100
AcDbLine
 10
38.8718635147
 20
14.754673337
 30
0.0
 11
38.8848596179
 21
14.7416772337
 31
0.0
  0
ARC
  5
119
330
1F
100
AcDbEntity
  8
0
  6
Continuous
 62
   144
370
    18
100
AcDbCircle
 10
38.7843619527
 20
14.7085484206
 30
0.0
 40
0.0944881889763954
100
AcDbArc
 50
45.0
 51
47.7246647468
  0
CIRCLE
  5
11A
330
1F
100
AcDbEntity
  8
0
  6
Continuous
 62
   144
370
    18
100
AcDbCircle
 10
38.5830629672
 20
14.9290208616
 30
0.0
 40
0.0846456692913389
  0
LINE
  5
11B
330
1F
100
AcDbEntity
  8
0
  6
Continuous
 62
   144
370
    18
100
AcDbLine
 10
38.3192834396
 20
14.7872885781
 30
0.0
 11
38.3192834396
 21
15.1573673183
 31
0.0
  0
LINE
  5
11C
330
1F
100
AcDbEntity
  8
0
  6
Continuous
 62
   144
370
    18
100
AcDbLine
 10
38.3192834396
 20
15.3975247986
 30
0.0
 11
38.3192834396
 21
15.5353200742
 31
0.0
  0
ARC
  5
11D
330
1F
100
AcDbEntity
  8
0
  6
Continuous
 62
   144
370
    18
100
AcDbCircle
 10
38.3980235971
 20
14.7872885781
 30
0.0
 40
0.0787401574803184
100
AcDbArc
 50
180.0
 51
270.0
  0
LINE
  5
11E
330
1F
100
AcDbEntity
  8
0
  6
Continuous
 62
     7
370
    25
100
AcDbLine
 10
39.6854251719
 20
37.7966497218
 30
0.0
 11
11.1027480066
 21
37.7966497218
 31
0.0
  0
LINE
  5
11F
330
1F
100
AcDbEntity
  8
0
  6
Continuous
 62
   144
370
    18
100
AcDbLine
 10
39.6854251719
 20
36.5810770407
 30
0.0
 11
39.6854251719
 21
37.7966497218
 31
0.0
  0
LINE
  5
120
330
1F
100
AcDbEntity
  8
0
  6
Continuous
 62
     7
370
    25
100
AcDbLine
 10
11.1027480066
 20
36.5810770407
 30
0.0
 11
39.6854251719
 21
36.5810770407
 31
0.0
  0
LINE
  5
121
330
1F
100
AcDbEntity
  8
0
  6
Continuous
 62
   144
370
    18
100
AcDbLine
 10
11.1027480066
 20
37.7966497218
 30
0.0
 11
11.1027480066
 21
36.5810770407
 31
0.0
  0
LINE
  5
122
330
1F
100
AcDbEntity
  8
0
  6
Continuous
 62
     7
370
    25
100
AcDbLine
 10
39.6854251719
 20
36.5770794293
 30
0.0
 11
11.1027480066
 21
36.5770794293
 31
0.0
  0
LINE
  5
123
330
1F
100
AcDbEntity
  8
0
  6
Continuous
 62
   144
370
    18
100
AcDbLine
 10
11.1027480066
 20
36.5770794293
 30
0.0
 11
11.1027480066
 21
36.5810770407
 31
0.0
  0
LINE
  5
124
330
1F
100
AcDbEntity
  8
0
  6
Continuous
 62
   144
370
    18
100
AcDbLine
 10
39.6854251719
 20
36.5810770407
 30
0.0
 11
39.6854251719
 21
36.5770794293
 31
0.0
  0
LINE
  5
125
330
1F
100
AcDbEntity
  8
0
  6
Continuous
 62
     7
370
    25
100
AcDbLine
 10
11.1027480066
 20
37.8006473332
 30
0.0
 11
39.6854251719
 21
37.8006473332
 31
0.0
  0
LINE
  5
126
330
1F
100
AcDbEntity
  8
0
  6
Continuous
 62
   144
370
    18
100
AcDbLine
 10
11.1027480066
 20
37.7966497218
 30
0.0
 11
11.1027480066
 21
37.8006473332
 31
0.0
  0
LINE
  5
127
330
1F
100
AcDbEntity
  8
0
  6
Continuous
 62
   144
370
    18
100
AcDbLine
 10
39.6854251719
 20
37.8006473332
 30
0.0
 11
39.6854251719
 21
37.7966497218
 31
0.0
  0
LINE
  5
128
330
1F
100
AcDbEntity
  8
0
  6
Continuous
 62
     7
370
    25
100
AcDbLine
 10
11.1027480066
 20
36.5408679841
 30
0.0
 11
39.6854251719
 21
36.5408679841
 31
0.0
  0
LINE
  5
129
330
1F
100
AcDbEntity
  8
0
  6
Continuous
 62
   144
370
    18
100
AcDbLine
 10
11.1027480066
 20
36.5770794293
 30
0.0
 11
11.1027480066
 21
36.5408679841
 31
0.0
  0
LINE
  5
12A
330
1F
100
AcDbEntity
  8
0
  6
Continuous
 62
   144
370
    18
100
AcDbLine
 10
39.6854251719
 20
36.5408679841
 30
0.0
 11
39.6854251719
 21
36.5770794293
 31
0.0
  0
LINE
  5
12B
330
1F
100
AcDbEntity
  8
0
  6
Continuous
 62
     7
370
    25
100
AcDbLine
 10
39.6854251719
 20
37.8368587784
 30
0.0
 11
11.1027480066
 21
37.8368587784
 31
0.0
  0
LINE
  5
12C
330
1F
100
AcDbEntity
  8
0
  6
Continuous
 62
   144
370
    18
100
AcDbLine
 10
11.1027480066
 20
37.8368587784
 30
0.0
 11
11.1027480066
 21
37.8006473332
 31
0.0
  0
LINE
  5
12D
330
1F
100
AcDbEntity
  8
0
  6
Continuous
 62
   144
370
    18
100
AcDbLine
 10
39.6854251719
 20
37.8006473332
 30
0.0
 11
39.6854251719
 21
37.8368587784
 31
0.0
  0
LINE
  5
12E
330
1F
100
AcDbEntity
  8
0
  6
Continuous
 62
     7
370
    25
100
AcDbLine
 10
39.6854251719
 20
36.539257082
 30
0.0
 11
11.1027480066
 21
36.539257082
 31
0.0
  0
LINE
  5
12F
330
1F
100
AcDbEntity
  8
0
  6
Continuous
 62
   144
370
    18
100
AcDbLine
 10
11.1027480066
 20
36.539257082
 30
0.0
 11
11.1027480066
 21
36.5408679841
 31
0.0
  0
LINE
  5
130
330
1F
100
AcDbEntity
  8
0
  6
Continuous
 62
   144
370
    18
100
AcDbLine
 10
39.6854251719
 20
36.5408679841
 30
0.0
 11
39.6854251719
 21
36.539257082
 31
0.0
  0
LINE
  5
131
330
1F
100
AcDbEntity
  8
0
  6
Continuous
 62
     7
370
    25
100
AcDbLine
 10
11.1027480066
 20
37.8384696805
 30
0.0
 11
39.6854251719
 21
37.8384696805
 31
0.0
  0
LINE
  5
132
330
1F
100
AcDbEntity
  8
0
  6
Continuous
 62
   144
370
    18
100
AcDbLine
 10
11.1027480066
 20
37.8368587784
 30
0.0
 11
11.1027480066
 21
37.8384696805
 31
0.0
  0
LINE
  5
133
330
1F
100
AcDbEntity
  8
0
  6
Continuous
 62
   144
370
    18
100
AcDbLine
 10
39.6854251719
 20
37.8384696805
 30
0.0
 11
39.6854251719
 21
37.8368587784
 31
0.0
  0
LINE
  5
134
330
1F
100
AcDbEntity
  8
0
  6
Continuous
 62
   144
370
    18
100
AcDbLine
 10
11.0948739908
 20
36.5408679841
 30
0.0
 11
11.0948739908
 21
36.539257082
 31
0.0
  0
LINE
  5
135
330
1F
100
AcDbEntity
  8
0
  6
Continuous
 62
     7
370
    25
100
AcDbLine
 10
11.0948739908
 20
36.5408679841
 30
0.0
 11
11.0948739908
 21
36.5770773903
 31
0.0
  0
LINE
  5
136
330
1F
100
AcDbEntity
  8
0
  6
Continuous
 62
   144
370
    18
100
AcDbLine
 10
11.0948739908
 20
36.5810755656
 30
0.0
 11
11.0948739908
 21
36.5770773903
 31
0.0
  0
LINE
  5
137
330
1F
100
AcDbEntity
  8
0
  6
Continuous
 62
     7
370
    25
100
AcDbLine
 10
11.0948739908
 20
36.5810755656
 30
0.0
 11
11.0948739908
 21
37.7966511969
 31
0.0
  0
LINE
  5
138
330
1F
100
AcDbEntity
  8
0
  6
Continuous
 62
   144
370
    18
100
AcDbLine
 10
11.0948739908
 20
37.8006493722
 30
0.0
 11
11.0948739908
 21
37.7966511969
 31
0.0
  0
LINE
  5
139
330
1F
100
AcDbEntity
  8
0
  6
Continuous
 62
     7
370
    25
100
AcDbLine
 10
11.0948739908
 20
37.8006493722
 30
0.0
 11
11.0948739908
 21
37.8368587784
 31
0.0
  0
LINE
  5
13A
330
1F
100
AcDbEntity
  8
0
  6
Continuous
 62
   144
370
    18
100
AcDbLine
 10
11.0948739908
 20
37.8384696805
 30
0.0
 11
11.0948739908
 21
37.8368587784
 31
0.0
  0
LWPOLYLINE
  5
13B
330
1F
100
AcDbEntity
  8
0
  6
Continuous
 62
   144
370
    18
100
AcDbPolyline
 90
        4
 70
   128
 43
0.0
 10
11.0378223372
 20
36.5810142162
 10
11.0651186681
 20
36.5811346284
 10
11.0924140039
 20
36.5810765703
 10
11.0948739908
 20
36.5810755656
  0
ARC
  5
13C
330
1F
100
AcDbEntity
  8
0
  6
Continuous
 62
   144
370
    18
100
AcDbCircle
 10
-15.7278848386
 20
37.1651324743
 30
0.0
 40
26.77208013514138
100
AcDbArc
 50
358.7498107504
 51
0.0507872747
  0
ARC
  5
13D
330
1F
100
AcDbEntity
  8
0
  6
Continuous
 62
     7
370
    25
100
AcDbCircle
 10
-15.7278848386
 20
37.2125942882
 30
0.0
 40
26.77208013515488
100
AcDbArc
 50
359.9492127253
 51
1.2501892496
  0
ARC
  5
13E
330
1F
100
AcDbEntity
  8
0
  6
Continuous
 62
   144
370
    18
100
AcDbCircle
 10
11.0786372182
 20
49.2248384289
 30
0.0
 40
11.42819876631928
100
AcDbArc
 50
269.7953723559
 51
270.0814038045
  0
ARC
  5
13F
330
1F
100
AcDbEntity
  8
0
  6
Continuous
 62
     7
370
    25
100
AcDbCircle
 10
-40.4910711694
 20
37.2122884687
 30
0.0
 40
51.50215969187293
100
AcDbArc
 50
359.9739397591
 51
0.6511858926
  0
LWPOLYLINE
  5
140
330
1F
100
AcDbEntity
  8
0
  6
Continuous
 62
   144
370
    18
100
AcDbPolyline
 90
        3
 70
   128
 43
0.0
 10
11.0378223372
 20
37.7967125463
 10
11.0148747495
 20
37.7972918619
 10
11.007762268
 20
37.7976153131
  0
LINE
  5
141
330
1F
100
AcDbEntity
  8
0
  6
Continuous
 62
   144
370
    18
100
AcDbLine
 10
11.0110831952
 20
37.1888633812
 30
0.0
 11
11.0441847789
 21
37.1888633812
 31
0.0
  0
LINE
  5
142
330
1F
100
AcDbEntity
  8
0
  6
Continuous
 62
     7
370
    25
100
AcDbLine
 10
10.9731054192
 20
37.1888633812
 30
0.0
 11
11.0110831952
 21
37.1888633812
 31
0.0
  0
ARC
  5
143
330
1F
100
AcDbEntity
  8
0
  6
Continuous
 62
     7
370
    25
100
AcDbCircle
 10
-201.5403545695
 20
37.1862516407
 30
0.0
 40
212.5134600047482
100
AcDbArc
 50
0.0007041642
 51
0.1649571124
  0
LWPOLYLINE
  5
144
330
1F
100
AcDbEntity
  8
0
  6
Continuous
 62
   144
370
    18
100
AcDbPolyline
 90
        3
 70
   128
 43
0.0
 10
11.007762268
 20
37.7976153131
 10
10.9900081187
 20
37.7979170116
 10
10.9722246846
 20
37.7980865538
  0
LINE
  5
145
330
1F
100
AcDbEntity
  8
0
  6
Continuous
 62
     7
370
    25
100
AcDbLine
 10
10.9461379916
 20
37.1888633812
 30
0.0
 11
10.9731054192
 21
37.1888633812
 31
0.0
  0
ARC
  5
146
330
1F
100
AcDbEntity
  8
0
  6
Continuous
 62
     7
370
    25
100
AcDbCircle
 10
267.378595941
 20
37.2631375647
 30
0.0
 40
256.4324687059853
100
AcDbArc
 50
179.8801289629
 51
180.0165953814
  0
LWPOLYLINE
  5
147
330
1F
100
AcDbEntity
  8
0
  6
Continuous
 62
   144
370
    18
100
AcDbPolyline
 90
        3
 70
   128
 43
0.0
 10
10.9722246846
 20
37.7980865538
 10
10.9513184435
 20
37.7992042116
 10
10.946688446
 20
37.7996308947
  0
ARC
  5
148
330
1F
100
AcDbEntity
  8
0
  6
Continuous
 62
     7
370
    25
100
AcDbCircle
 10
-201.6755224137
 20
37.1916705297
 30
0.0
 40
212.6486278513772
100
AcDbArc
 50
359.8350950905
 51
359.9992436329
  0
ARC
  5
149
330
1F
100
AcDbEntity
  8
0
  6
Continuous
 62
   144
370
    18
100
AcDbCircle
 10
-40.4910711694
 20
37.1654382938
 30
0.0
 40
51.50215969187276
100
AcDbArc
 50
359.3488141074
 51
0.0260602409
  0
LWPOLYLINE
  5
14A
330
1F
100
AcDbEntity
  8
0
  6
Continuous
 62
   144
370
    18
100
AcDbPolyline
 90
        3
 70
   128
 43
0.0
 10
10.9722246846
 20
36.5796402087
 10
10.9900081187
 20
36.5798097509
 10
11.007762268
 20
36.5801114494
  0
ARC
  5
14B
330
1F
100
AcDbEntity
  8
0
  6
Continuous
 62
     7
370
    25
100
AcDbCircle
 10
267.3282358231
 20
37.1145438107
 30
0.0
 40
256.3821086033328
100
AcDbArc
 50
179.9833912158
 51
180.1198844399
  0
LWPOLYLINE
  5
14C
330
1F
100
AcDbEntity
  8
0
  6
Continuous
 62
   144
370
    18
100
AcDbPolyline
 90
        3
 70
   128
 43
0.0
 10
10.946688446
 20
36.5780958678
 10
10.9513184435
 20
36.5785225509
 10
10.9722246846
 20
36.5796402087
  0
ARC
  5
14D
330
1F
100
AcDbEntity
  8
0
  6
Continuous
 62
     7
370
    25
100
AcDbCircle
 10
10.2778630441
 20
83.3490084387
 30
0.0
 40
46.7756944377803
100
AcDbArc
 50
270.3244618246
 51
270.8192754617
  0
LWPOLYLINE
  5
14E
330
1F
100
AcDbEntity
  8
0
  6
Continuous
 62
     7
370
    25
100
AcDbPolyline
 90
        3
 70
   128
 43
0.0
 10
10.5427489777
 20
37.8036627447
 10
10.5229939559
 20
37.1888638492
 10
10.5427489777
 20
36.5740640178
  0
ARC
  5
14F
330
1F
100
AcDbEntity
  8
0
  6
Continuous
 62
   144
370
    18
100
AcDbCircle
 10
10.2778647899
 20
-8.971106773
 30
0.0
 40
46.77551952744322
100
AcDbArc
 50
89.1807236132
 51
89.6755391005
  0
LWPOLYLINE
  5
150
330
1F
100
AcDbEntity
  8
0
  6
Continuous
 62
     7
370
    25
100
AcDbPolyline
 90
        3
 70
   128
 43
0.0
 10
10.9491805611
 20
36.5733482195
 10
10.872545069
 20
36.5720059334
 10
10.5448684553
 20
36.5681589506
  0
LWPOLYLINE
  5
151
330
1F
100
AcDbEntity
  8
0
  6
Continuous
 62
   144
370
    18
100
AcDbPolyline
 90
        8
 70
   128
 43
0.0
 10
10.5234205015
 20
36.5683449894
 10
10.5234198477
 20
36.5683273124
 10
10.5234199181
 20
36.5683259638
 10
10.5234199226
 20
36.5683258781
 10
10.5234199226
 20
36.5683258781
 10
10.5234199226
 20
36.5683258781
 10
10.5234199226
 20
36.5683258781
 10
10.5234199226
 20
36.5683258781
  0
LINE
  5
152
330
1F
100
AcDbEntity
  8
0
  6
Continuous
 62
   144
370
    18
100
AcDbLine
 10
10.5234199226
 20
36.5683258781
 30
0.0
 11
10.5583199855
 21
36.5417338726
 31
0.0
  0
LWPOLYLINE
  5
153
330
1F
100
AcDbEntity
  8
0
  6
Continuous
 62
   144
370
    18
100
AcDbPolyline
 90
       15
 70
   128
 43
0.0
 10
10.5594575134
 20
36.5408679842
 10
10.5594568453
 20
36.5408679842
 10
10.559394386
 20
36.5408679688
 10
10.5604799965
 20
36.5408696578
 10
10.5652215636
 20
36.5408747891
 10
10.5909593743
 20
36.5408677984
 10
10.6117028425
 20
36.5408679655
 10
10.6972996043
 20
36.5408679839
 10
10.8798888929
 20
36.5408679823
 10
10.9677809717
 20
36.5408674572
 10
11.0100740524
 20
36.5408669696
 10
11.0370302286
 20
36.5408675854
 10
11.0632395672
 20
36.5408675404
 10
11.0893634152
 20
36.5408679768
 10
11.0948739908
 20
36.5408679841
  0
LWPOLYLINE
  5
154
330
1F
100
AcDbEntity
  8
0
  6
Continuous
 62
   144
370
    18
100
AcDbPolyline
 90
        3
 70
   128
 43
0.0
 10
11.0948739908
 20
36.5770773903
 10
11.0651150382
 20
36.5771358687
 10
11.0377994015
 20
36.5770146235
  0
LWPOLYLINE
  5
155
330
1F
100
AcDbEntity
  8
0
  6
Continuous
 62
   144
370
    18
100
AcDbPolyline
 90
        3
 70
   128
 43
0.0
 10
11.0377994015
 20
36.5770146235
 10
11.0159731751
 20
36.5762993637
 10
11.0092043722
 20
36.5758904722
  0
LWPOLYLINE
  5
156
330
1F
100
AcDbEntity
  8
0
  6
Continuous
 62
   144
370
    18
100
AcDbPolyline
 90
        3
 70
   128
 43
0.0
 10
11.0092043722
 20
36.5758904722
 10
10.9911287287
 20
36.5755738296
 10
10.9733451471
 20
36.5753884285
  0
LWPOLYLINE
  5
157
330
1F
100
AcDbEntity
  8
0
  6
Continuous
 62
   144
370
    18
100
AcDbPolyline
 90
        3
 70
   128
 43
0.0
 10
10.9733451471
 20
36.5753884285
 10
10.9536260518
 20
36.5738976167
 10
10.9491805611
 20
36.5733482195
  0
ARC
  5
158
330
1F
100
AcDbEntity
  8
0
  6
Continuous
 62
   144
370
    18
100
AcDbCircle
 10
10.5312685408
 20
36.2366922695
 30
0.0
 40
0.3317455626459943
100
AcDbArc
 50
87.6505002354
 51
91.3555614149
  0
LWPOLYLINE
  5
159
330
1F
100
AcDbEntity
  8
0
  6
Continuous
 62
   144
370
    18
100
AcDbPolyline
 90
       15
 70
   128
 43
0.0
 10
11.0948739908
 20
37.8368587784
 10
11.0893634152
 20
37.8368587857
 10
11.0632395672
 20
37.8368592221
 10
11.0370302286
 20
37.8368591771
 10
11.0100740524
 20
37.8368597929
 10
10.9677809717
 20
37.8368593053
 10
10.8798888929
 20
37.8368587802
 10
10.6972996043
 20
37.8368587786
 10
10.6117028425
 20
37.836858797
 10
10.5909593743
 20
37.8368589641
 10
10.5652215636
 20
37.8368519734
 10
10.5604799965
 20
37.8368571047
 10
10.559394386
 20
37.8368587937
 10
10.5594568453
 20
37.8368587783
 10
10.5594581815
 20
37.8368587783
  0
LINE
  5
15A
330
1F
100
AcDbEntity
  8
0
  6
Continuous
 62
   144
370
    18
100
AcDbLine
 10
10.5583199848
 20
37.8359928894
 30
0.0
 11
10.5234199226
 21
37.8094008844
 31
0.0
  0
LWPOLYLINE
  5
15B
330
1F
100
AcDbEntity
  8
0
  6
Continuous
 62
   144
370
    18
100
AcDbPolyline
 90
        8
 70
   128
 43
0.0
 10
10.5234199226
 20
37.8094008844
 10
10.5234199226
 20
37.8094008844
 10
10.5234199226
 20
37.8094008844
 10
10.5234199226
 20
37.8094008844
 10
10.5234199226
 20
37.8094008844
 10
10.5234199181
 20
37.8094007987
 10
10.5234198477
 20
37.8093994501
 10
10.5234205015
 20
37.8093817731
  0
ARC
  5
15C
330
1F
100
AcDbEntity
  8
0
  6
Continuous
 62
   144
370
    18
100
AcDbCircle
 10
10.5312685408
 20
38.1410344933
 30
0.0
 40
0.3317455629187979
100
AcDbArc
 50
268.6444385868
 51
272.3494997632
  0
LWPOLYLINE
  5
15D
330
1F
100
AcDbEntity
  8
0
  6
Continuous
 62
   144
370
    18
100
AcDbPolyline
 90
        3
 70
   128
 43
0.0
 10
10.5448684553
 20
37.8095678119
 10
10.872545069
 20
37.8057208291
 10
10.9491805611
 20
37.804378543
  0
LWPOLYLINE
  5
15E
330
1F
100
AcDbEntity
  8
0
  6
Continuous
 62
   144
370
    18
100
AcDbPolyline
 90
        3
 70
   128
 43
0.0
 10
10.9491805611
 20
37.804378543
 10
10.9536260518
 20
37.8038291458
 10
10.9733451471
 20
37.802338334
  0
LWPOLYLINE
  5
15F
330
1F
100
AcDbEntity
  8
0
  6
Continuous
 62
   144
370
    18
100
AcDbPolyline
 90
        3
 70
   128
 43
0.0
 10
10.9733451471
 20
37.802338334
 10
10.9911287287
 20
37.8021529329
 10
11.0092043722
 20
37.8018362903
  0
LWPOLYLINE
  5
160
330
1F
100
AcDbEntity
  8
0
  6
Continuous
 62
   144
370
    18
100
AcDbPolyline
 90
        3
 70
   128
 43
0.0
 10
11.0092043722
 20
37.8018362903
 10
11.0159731751
 20
37.8014273988
 10
11.0377994015
 20
37.800712139
  0
LWPOLYLINE
  5
161
330
1F
100
AcDbEntity
  8
0
  6
Continuous
 62
   144
370
    18
100
AcDbPolyline
 90
        3
 70
   128
 43
0.0
 10
11.0377994015
 20
37.800712139
 10
11.0651150382
 20
37.8005908938
 10
11.0948739908
 20
37.8006493722
  0
ARC
  5
162
330
1F
100
AcDbEntity
  8
0
  6
Continuous
 62
   144
370
    18
100
AcDbCircle
 10
10.9557576946
 20
36.5798285595
 30
0.0
 40
0.0092332816897085
100
AcDbArc
 50
190.8160920714
 51
224.5752809797
  0
ARC
  5
163
330
1F
100
AcDbEntity
  8
0
  6
Continuous
 62
   144
370
    18
100
AcDbCircle
 10
10.5517379283
 20
36.5739574783
 30
0.0
 40
0.0089895818884712
100
AcDbArc
 50
179.3209462855
 51
220.1677387744
  0
LINE
  5
164
330
1F
100
AcDbEntity
  8
0
  6
Continuous
 62
   144
370
    18
100
AcDbLine
 10
10.5641664603
 20
37.8384696805
 30
0.0
 11
11.0948739908
 21
37.8384696805
 31
0.0
  0
LINE
  5
165
330
1F
100
AcDbEntity
  8
0
  6
Continuous
 62
   144
370
    18
100
AcDbLine
 10
11.0948739908
 20
36.539257082
 30
0.0
 11
10.5641664603
 21
36.539257082
 31
0.0
  0
LWPOLYLINE
  5
166
330
1F
100
AcDbEntity
  8
0
  6
Continuous
 62
     7
370
    25
100
AcDbPolyline
 90
        3
 70
   128
 43
0.0
 10
10.5203277802
 20
36.5741976097
 10
10.5043228097
 20
37.1888638496
 10
10.5203277802
 20
37.8035291528
  0
ARC
  5
167
330
1F
100
AcDbEntity
  8
0
  6
Continuous
 62
   144
370
    18
100
AcDbCircle
 10
10.5281007806
 20
38.3805401271
 30
0.0
 40
0.5770633275633028
100
AcDbArc
 50
269.2282067405
 51
271.4545544438
  0
ARC
  5
168
330
1F
100
AcDbEntity
  8
0
  6
Continuous
 62
   144
370
    18
100
AcDbCircle
 10
10.5281007806
 20
35.9971866353
 30
0.0
 40
0.5770633276627192
100
AcDbArc
 50
88.5454455564
 51
90.7717932594
  0
LINE
  5
169
330
1F
100
AcDbEntity
  8
0
  6
Continuous
 62
   144
370
    18
100
AcDbLine
 10
10.5203277802
 20
37.8035291528
 30
0.0
 11
10.5203278327
 21
37.8035301603
 31
0.0
  0
LINE
  5
16A
330
1F
100
AcDbEntity
  8
0
  6
Continuous
 62
   144
370
    18
100
AcDbLine
 10
10.5203278327
 20
36.5741966022
 30
0.0
 11
10.5203277802
 21
36.5741976097
 31
0.0
  0
LINE
  5
16B
330
1F
100
AcDbEntity
  8
0
  6
Continuous
 62
   144
370
    18
100
AcDbLine
 10
10.6618031247
 20
37.8081949777
 30
0.0
 11
10.6618031247
 21
37.8027160679
 31
0.0
  0
LINE
  5
16C
330
1F
100
AcDbEntity
  8
0
  6
Continuous
 62
   144
370
    18
100
AcDbLine
 10
10.5483110899
 20
37.8036185167
 30
0.0
 11
10.5559483839
 21
37.8094377315
 31
0.0
  0
LINE
  5
16D
330
1F
100
AcDbEntity
  8
0
  6
Continuous
 62
     7
370
    25
100
AcDbLine
 10
40.2681023373
 20
36.4250838537
 30
0.0
 11
40.2681023373
 21
36.4388633812
 31
0.0
  0
ARC
  5
16E
330
1F
100
AcDbEntity
  8
0
  6
Continuous
 62
     7
370
    25
100
AcDbCircle
 10
40.1893621798
 20
36.4388633812
 30
0.0
 40
0.0787401574803113
100
AcDbArc
 50
0.0
 51
90.0
  0
LINE
  5
16F
330
1F
100
AcDbEntity
  8
0
  6
Continuous
 62
   144
370
    18
100
AcDbLine
 10
39.8940865892
 20
36.5038240112
 30
0.0
 11
39.8940865892
 21
36.5176035387
 31
0.0
  0
ARC
  5
170
330
1F
100
AcDbEntity
  8
0
  6
Continuous
 62
   144
370
    18
100
AcDbCircle
 10
40.1893621798
 20
36.4388633812
 30
0.0
 40
0.0393700787401556
100
AcDbArc
 50
0.0
 51
90.0
  0
LINE
  5
171
330
1F
100
AcDbEntity
  8
0
  6
Continuous
 62
   144
370
    18
100
AcDbLine
 10
39.8940865892
 20
36.5176035387
 30
0.0
 11
40.1893621798
 21
36.5176035387
 31
0.0
  0
LINE
  5
172
330
1F
100
AcDbEntity
  8
0
  6
Continuous
 62
   144
370
    18
100
AcDbLine
 10
39.4728267467
 20
36.5176035387
 30
0.0
 11
39.4728267467
 21
36.5038240112
 31
0.0
  0
LINE
  5
173
330
1F
100
AcDbEntity
  8
0
  6
Continuous
 62
   144
370
    18
100
AcDbLine
 10
39.8940865892
 20
36.5176035387
 30
0.0
 11
39.4728267467
 21
36.5176035387
 31
0.0
  0
LINE
  5
174
330
1F
100
AcDbEntity
  8
0
  6
Continuous
 62
   144
370
    18
100
AcDbLine
 10
11.0090315718
 20
36.6849263734
 30
0.0
 11
11.0358188727
 21
36.6849263734
 31
0.0
  0
LINE
  5
175
330
1F
100
AcDbEntity
  8
0
  6
Continuous
 62
     7
370
    25
100
AcDbLine
 10
10.5200708412
 20
36.4388633812
 30
0.0
 11
10.5200708412
 21
36.4250838537
 31
0.0
  0
ARC
  5
176
330
1F
100
AcDbEntity
  8
0
  6
Continuous
 62
     7
370
    25
100
AcDbCircle
 10
10.5988109987
 20
36.4388633812
 30
0.0
 40
0.0787401574803148
100
AcDbArc
 50
90.0
 51
180.0
  0
LINE
  5
177
330
1F
100
AcDbEntity
  8
0
  6
Continuous
 62
   144
370
    18
100
AcDbLine
 10
10.8940865892
 20
36.5176035387
 30
0.0
 11
10.8940865892
 21
36.5038240112
 31
0.0
  0
LINE
  5
178
330
1F
100
AcDbEntity
  8
0
  6
Continuous
 62
   144
370
    18
100
AcDbLine
 10
10.5988109987
 20
36.5176035387
 30
0.0
 11
10.8940865892
 21
36.5176035387
 31
0.0
  0
LINE
  5
179
330
1F
100
AcDbEntity
  8
0
  6
Continuous
 62
   144
370
    18
100
AcDbLine
 10
10.5594409199
 20
36.4388633812
 30
0.0
 11
10.5594409199
 21
36.4250838537
 31
0.0
  0
ARC
  5
17A
330
1F
100
AcDbEntity
  8
0
  6
Continuous
 62
   144
370
    18
100
AcDbCircle
 10
10.5988109987
 20
36.4388633812
 30
0.0
 40
0.0393700787401574
100
AcDbArc
 50
90.0
 51
180.0
  0
LINE
  5
17B
330
1F
100
AcDbEntity
  8
0
  6
Continuous
 62
   144
370
    18
100
AcDbLine
 10
11.3153464317
 20
36.5176035387
 30
0.0
 11
10.8940865892
 21
36.5176035387
 31
0.0
  0
LINE
  5
17C
330
1F
100
AcDbEntity
  8
0
  6
Continuous
 62
   144
370
    18
100
AcDbLine
 10
11.3153464317
 20
36.5038240112
 30
0.0
 11
11.3153464317
 21
36.5176035387
 31
0.0
  0
LINE
  5
17D
330
1F
100
AcDbEntity
  8
0
  6
Continuous
 62
   144
370
    18
100
AcDbLine
 10
12.2562913136
 20
15.5353200742
 30
0.0
 11
12.2562913136
 21
15.4959499954
 31
0.0
  0
LINE
  5
17E
330
1F
100
AcDbEntity
  8
0
  6
Continuous
 62
   144
370
    18
100
AcDbLine
 10
12.2562913136
 20
15.4711888857
 30
0.0
 11
12.2562913136
 21
15.4959499954
 31
0.0
  0
LINE
  5
17F
330
1F
100
AcDbEntity
  8
0
  6
Continuous
 62
   144
370
    18
100
AcDbLine
 10
39.6932991877
 20
37.8368587784
 30
0.0
 11
39.6932991877
 21
37.8384696805
 31
0.0
  0
LINE
  5
180
330
1F
100
AcDbEntity
  8
0
  6
Continuous
 62
     7
370
    25
100
AcDbLine
 10
39.6932991877
 20
37.8368587784
 30
0.0
 11
39.6932991877
 21
37.8006493722
 31
0.0
  0
LINE
  5
181
330
1F
100
AcDbEntity
  8
0
  6
Continuous
 62
   144
370
    18
100
AcDbLine
 10
39.6932991877
 20
37.7966511969
 30
0.0
 11
39.6932991877
 21
37.8006493722
 31
0.0
  0
LINE
  5
182
330
1F
100
AcDbEntity
  8
0
  6
Continuous
 62
     7
370
    25
100
AcDbLine
 10
39.6932991877
 20
37.7966511969
 30
0.0
 11
39.6932991877
 21
36.5810755656
 31
0.0
  0
LINE
  5
183
330
1F
100
AcDbEntity
  8
0
  6
Continuous
 62
   144
370
    18
100
AcDbLine
 10
39.6932991877
 20
36.5770773903
 30
0.0
 11
39.6932991877
 21
36.5810755656
 31
0.0
  0
LINE
  5
184
330
1F
100
AcDbEntity
  8
0
  6
Continuous
 62
     7
370
    25
100
AcDbLine
 10
39.6932991877
 20
36.5770773903
 30
0.0
 11
39.6932991877
 21
36.5408679841
 31
0.0
  0
LINE
  5
185
330
1F
100
AcDbEntity
  8
0
  6
Continuous
 62
   144
370
    18
100
AcDbLine
 10
39.6932991877
 20
36.539257082
 30
0.0
 11
39.6932991877
 21
36.5408679841
 31
0.0
  0
LWPOLYLINE
  5
186
330
1F
100
AcDbEntity
  8
0
  6
Continuous
 62
   144
370
    18
100
AcDbPolyline
 90
        4
 70
   128
 43
0.0
 10
39.7503508412
 20
37.7967125463
 10
39.7230545104
 20
37.7965921341
 10
39.6957591745
 20
37.7966501922
 10
39.6932991877
 20
37.7966511969
  0
ARC
  5
187
330
1F
100
AcDbEntity
  8
0
  6
Continuous
 62
     7
370
    25
100
AcDbCircle
 10
66.5160580027
 20
37.2125942883
 30
0.0
 40
26.77208012081639
100
AcDbArc
 50
178.7498107501
 51
180.050787275
  0
ARC
  5
188
330
1F
100
AcDbEntity
  8
0
  6
Continuous
 62
   144
370
    18
100
AcDbCircle
 10
66.5160580028
 20
37.1651324742
 30
0.0
 40
26.77208012084515
100
AcDbArc
 50
179.949212725
 51
181.2501892499
  0
ARC
  5
189
330
1F
100
AcDbEntity
  8
0
  6
Continuous
 62
   144
370
    18
100
AcDbCircle
 10
39.7095359605
 20
25.1528885144
 30
0.0
 40
11.42819858551991
100
AcDbArc
 50
89.7953723537
 51
90.0814038068
  0
ARC
  5
18A
330
1F
100
AcDbEntity
  8
0
  6
Continuous
 62
     7
370
    25
100
AcDbCircle
 10
91.279244383
 20
37.2122884685
 30
0.0
 40
51.50215972704017
100
AcDbArc
 50
179.3488141077
 51
180.0260602407
  0
LINE
  5
18B
330
1F
100
AcDbEntity
  8
0
  6
Continuous
 62
   144
370
    18
100
AcDbLine
 10
39.7770899832
 20
37.1888633812
 30
0.0
 11
39.7439883995
 21
37.1888633812
 31
0.0
  0
LWPOLYLINE
  5
18C
330
1F
100
AcDbEntity
  8
0
  6
Continuous
 62
   144
370
    18
100
AcDbPolyline
 90
        3
 70
   128
 43
0.0
 10
39.7804109104
 20
37.7976153131
 10
39.7732984289
 20
37.7972918619
 10
39.7503508412
 20
37.7967125463
  0
LINE
  5
18D
330
1F
100
AcDbEntity
  8
0
  6
Continuous
 62
     7
370
    25
100
AcDbLine
 10
39.8420351869
 20
37.1888633812
 30
0.0
 11
39.8150677593
 21
37.1888633812
 31
0.0
  0
ARC
  5
18E
330
1F
100
AcDbEntity
  8
0
  6
Continuous
 62
     7
370
    25
100
AcDbCircle
 10
-216.5904227604
 20
37.1145891978
 30
0.0
 40
256.432468703771
100
AcDbArc
 50
359.8801289629
 51
0.0165953814
  0
ARC
  5
18F
330
1F
100
AcDbEntity
  8
0
  6
Continuous
 62
     7
370
    25
100
AcDbCircle
 10
252.3285277526
 20
37.1914751218
 30
0.0
 40
212.5134600093489
100
AcDbArc
 50
180.0007041642
 51
180.1649571124
  0
LWPOLYLINE
  5
190
330
1F
100
AcDbEntity
  8
0
  6
Continuous
 62
   144
370
    18
100
AcDbPolyline
 90
        3
 70
   128
 43
0.0
 10
39.8159484939
 20
36.5796402087
 10
39.836854735
 20
36.5785225509
 10
39.8414847325
 20
36.5780958678
  0
ARC
  5
191
330
1F
100
AcDbEntity
  8
0
  6
Continuous
 62
     7
370
    25
100
AcDbCircle
 10
252.4636956011
 20
37.1860562328
 30
0.0
 40
212.6486278603605
100
AcDbArc
 50
179.8350950905
 51
179.9992436329
  0
LINE
  5
192
330
1F
100
AcDbEntity
  8
0
  6
Continuous
 62
     7
370
    25
100
AcDbLine
 10
39.8150677593
 20
37.1888633812
 30
0.0
 11
39.7770899832
 21
37.1888633812
 31
0.0
  0
LWPOLYLINE
  5
193
330
1F
100
AcDbEntity
  8
0
  6
Continuous
 62
   144
370
    18
100
AcDbPolyline
 90
        3
 70
   128
 43
0.0
 10
39.8159484939
 20
37.7980865538
 10
39.7981650597
 20
37.7979170116
 10
39.7804109104
 20
37.7976153131
  0
ARC
  5
194
330
1F
100
AcDbEntity
  8
0
  6
Continuous
 62
   144
370
    18
100
AcDbCircle
 10
91.2792443829
 20
37.165438294
 30
0.0
 40
51.50215972700515
100
AcDbArc
 50
179.9739397593
 51
180.6511858923
  0
LWPOLYLINE
  5
195
330
1F
100
AcDbEntity
  8
0
  6
Continuous
 62
   144
370
    18
100
AcDbPolyline
 90
        3
 70
   128
 43
0.0
 10
39.7804109104
 20
36.5801114494
 10
39.7981650597
 20
36.5798097509
 10
39.8159484939
 20
36.5796402087
  0
ARC
  5
196
330
1F
100
AcDbEntity
  8
0
  6
Continuous
 62
     7
370
    25
100
AcDbCircle
 10
-216.5400626411
 20
37.2631829518
 30
0.0
 40
256.3821085997507
100
AcDbArc
 50
359.9833912158
 51
0.1198844399
  0
LWPOLYLINE
  5
197
330
1F
100
AcDbEntity
  8
0
  6
Continuous
 62
   144
370
    18
100
AcDbPolyline
 90
        3
 70
   128
 43
0.0
 10
39.8414847325
 20
37.7996308947
 10
39.836854735
 20
37.7992042116
 10
39.8159484939
 20
37.7980865538
  0
LWPOLYLINE
  5
198
330
1F
100
AcDbEntity
  8
0
  6
Continuous
 62
     7
370
    25
100
AcDbPolyline
 90
        3
 70
   128
 43
0.0
 10
40.2454242008
 20
36.5740640178
 10
40.2651792226
 20
37.1888629133
 10
40.2454242008
 20
37.8036627447
  0
ARC
  5
199
330
1F
100
AcDbEntity
  8
0
  6
Continuous
 62
     7
370
    25
100
AcDbCircle
 10
40.5103083886
 20
83.3488335367
 30
0.0
 40
46.77551952871352
100
AcDbArc
 50
269.1807236132
 51
269.6755391005
  0
ARC
  5
19A
330
1F
100
AcDbEntity
  8
0
  6
Continuous
 62
   144
370
    18
100
AcDbCircle
 10
40.5103101344
 20
-8.9712816762
 30
0.0
 40
46.77569443778165
100
AcDbArc
 50
90.3244618246
 51
90.8192754617
  0
LWPOLYLINE
  5
19B
330
1F
100
AcDbEntity
  8
0
  6
Continuous
 62
   144
370
    18
100
AcDbPolyline
 90
        8
 70
   128
 43
0.0
 10
40.264752677
 20
37.8093817731
 10
40.2647533308
 20
37.8093994501
 10
40.2647532603
 20
37.8094007987
 10
40.2647532559
 20
37.8094008844
 10
40.2647532559
 20
37.8094008844
 10
40.2647532559
 20
37.8094008844
 10
40.2647532559
 20
37.8094008844
 10
40.2647532559
 20
37.8094008844
  0
LINE
  5
19C
330
1F
100
AcDbEntity
  8
0
  6
Continuous
 62
   144
370
    18
100
AcDbLine
 10
40.2647532559
 20
37.8094008844
 30
0.0
 11
40.2298531896
 21
37.8359928925
 31
0.0
  0
LWPOLYLINE
  5
19D
330
1F
100
AcDbEntity
  8
0
  6
Continuous
 62
   144
370
    18
100
AcDbPolyline
 90
       15
 70
   128
 43
0.0
 10
40.228715665
 20
37.8368587783
 10
40.2287163331
 20
37.8368587783
 10
40.2287787924
 20
37.8368587937
 10
40.227693182
 20
37.8368571047
 10
40.2229516148
 20
37.8368519734
 10
40.1972138041
 20
37.8368589641
 10
40.1764703359
 20
37.836858797
 10
40.0908735741
 20
37.8368587786
 10
39.9082842855
 20
37.8368587802
 10
39.8203922068
 20
37.8368593053
 10
39.778099126
 20
37.8368597929
 10
39.7511429499
 20
37.8368591771
 10
39.7249336113
 20
37.8368592221
 10
39.6988097633
 20
37.8368587857
 10
39.6932991877
 20
37.8368587784
  0
LWPOLYLINE
  5
19E
330
1F
100
AcDbEntity
  8
0
  6
Continuous
 62
   144
370
    18
100
AcDbPolyline
 90
        3
 70
   128
 43
0.0
 10
39.6932991877
 20
37.8006493722
 10
39.7230581403
 20
37.8005908938
 10
39.750373777
 20
37.800712139
  0
LWPOLYLINE
  5
19F
330
1F
100
AcDbEntity
  8
0
  6
Continuous
 62
   144
370
    18
100
AcDbPolyline
 90
        3
 70
   128
 43
0.0
 10
39.750373777
 20
37.800712139
 10
39.7722000034
 20
37.8014273988
 10
39.7789688062
 20
37.8018362903
  0
LWPOLYLINE
  5
1A0
330
1F
100
AcDbEntity
  8
0
  6
Continuous
 62
   144
370
    18
100
AcDbPolyline
 90
        3
 70
   128
 43
0.0
 10
39.7789688062
 20
37.8018362903
 10
39.7970444497
 20
37.8021529329
 10
39.8148280313
 20
37.802338334
  0
LWPOLYLINE
  5
1A1
330
1F
100
AcDbEntity
  8
0
  6
Continuous
 62
   144
370
    18
100
AcDbPolyline
 90
        3
 70
   128
 43
0.0
 10
39.8148280313
 20
37.802338334
 10
39.8345471267
 20
37.8038291458
 10
39.8389926173
 20
37.804378543
  0
LWPOLYLINE
  5
1A2
330
1F
100
AcDbEntity
  8
0
  6
Continuous
 62
   144
370
    18
100
AcDbPolyline
 90
        3
 70
   128
 43
0.0
 10
39.8389926173
 20
37.804378543
 10
39.9156281095
 20
37.8057208291
 10
40.2433047232
 20
37.8095678119
  0
ARC
  5
1A3
330
1F
100
AcDbEntity
  8
0
  6
Continuous
 62
   144
370
    18
100
AcDbCircle
 10
40.2569046376
 20
38.141034493
 30
0.0
 40
0.3317455626276523
100
AcDbArc
 50
267.6505002354
 51
271.3555614151
  0
LWPOLYLINE
  5
1A4
330
1F
100
AcDbEntity
  8
0
  6
Continuous
 62
     7
370
    25
100
AcDbPolyline
 90
        3
 70
   128
 43
0.0
 10
40.2433047232
 20
36.5681589506
 10
39.9156281095
 20
36.5720059334
 10
39.8389926173
 20
36.5733482195
  0
LWPOLYLINE
  5
1A5
330
1F
100
AcDbEntity
  8
0
  6
Continuous
 62
     7
370
    25
100
AcDbPolyline
 90
        8
 70
   128
 43
0.0
 10
40.2647532559
 20
36.5683258781
 10
40.2647532559
 20
36.5683258781
 10
40.2647532559
 20
36.5683258781
 10
40.2647532559
 20
36.5683258781
 10
40.2647532559
 20
36.5683258781
 10
40.2647532603
 20
36.5683259638
 10
40.2647533308
 20
36.5683273124
 10
40.2647528602
 20
36.568340035
  0
LWPOLYLINE
  5
1A6
330
1F
100
AcDbEntity
  8
0
  6
Continuous
 62
   144
370
    18
100
AcDbPolyline
 90
       15
 70
   128
 43
0.0
 10
39.6932991877
 20
36.5408679841
 10
39.6988097633
 20
36.5408679768
 10
39.7249336113
 20
36.5408675404
 10
39.7511429499
 20
36.5408675854
 10
39.778099126
 20
36.5408669696
 10
39.8203922068
 20
36.5408674572
 10
39.9082842855
 20
36.5408679823
 10
40.0908735741
 20
36.5408679839
 10
40.1764703359
 20
36.5408679655
 10
40.1972138041
 20
36.5408677984
 10
40.2229516148
 20
36.5408747891
 10
40.227693182
 20
36.5408696578
 10
40.2287787924
 20
36.5408679688
 10
40.2287163331
 20
36.5408679842
 10
40.228715665
 20
36.5408679842
  0
LINE
  5
1A7
330
1F
100
AcDbEntity
  8
0
  6
Continuous
 62
   144
370
    18
100
AcDbLine
 10
40.229853193
 20
36.5417338726
 30
0.0
 11
40.2647532559
 21
36.5683258781
 31
0.0
  0
ARC
  5
1A8
330
1F
100
AcDbEntity
  8
0
  6
Continuous
 62
   144
370
    18
100
AcDbCircle
 10
40.2569046376
 20
36.2366922692
 30
0.0
 40
0.3317455629440002
100
AcDbArc
 50
88.6444385869
 51
92.3494997631
  0
LWPOLYLINE
  5
1A9
330
1F
100
AcDbEntity
  8
0
  6
Continuous
 62
   144
370
    18
100
AcDbPolyline
 90
        3
 70
   128
 43
0.0
 10
39.8389926173
 20
36.5733482195
 10
39.8345471267
 20
36.5738976167
 10
39.8148280313
 20
36.5753884285
  0
LWPOLYLINE
  5
1AA
330
1F
100
AcDbEntity
  8
0
  6
Continuous
 62
   144
370
    18
100
AcDbPolyline
 90
        3
 70
   128
 43
0.0
 10
39.8148280313
 20
36.5753884285
 10
39.7970444497
 20
36.5755738296
 10
39.7789688062
 20
36.5758904722
  0
LWPOLYLINE
  5
1AB
330
1F
100
AcDbEntity
  8
0
  6
Continuous
 62
   144
370
    18
100
AcDbPolyline
 90
        3
 70
   128
 43
0.0
 10
39.7789688062
 20
36.5758904722
 10
39.7722000034
 20
36.5762993637
 10
39.750373777
 20
36.5770146235
  0
LWPOLYLINE
  5
1AC
330
1F
100
AcDbEntity
  8
0
  6
Continuous
 62
   144
370
    18
100
AcDbPolyline
 90
        3
 70
   128
 43
0.0
 10
39.750373777
 20
36.5770146235
 10
39.7230581403
 20
36.5771358687
 10
39.6932991877
 20
36.5770773903
  0
ARC
  5
1AD
330
1F
100
AcDbEntity
  8
0
  6
Continuous
 62
   144
370
    18
100
AcDbCircle
 10
39.8324154839
 20
36.5798285595
 30
0.0
 40
0.009233281689775
100
AcDbArc
 50
315.4247190202
 51
349.1839079278
  0
ARC
  5
1AE
330
1F
100
AcDbEntity
  8
0
  6
Continuous
 62
   144
370
    18
100
AcDbCircle
 10
40.2364352502
 20
36.5739574783
 30
0.0
 40
0.0089895818885425
100
AcDbArc
 50
319.8322612257
 51
0.6790537143
  0
LINE
  5
1AF
330
1F
100
AcDbEntity
  8
0
  6
Continuous
 62
   144
370
    18
100
AcDbLine
 10
39.6932991877
 20
37.8384696805
 30
0.0
 11
40.2240067182
 21
37.8384696805
 31
0.0
  0
LINE
  5
1B0
330
1F
100
AcDbEntity
  8
0
  6
Continuous
 62
   144
370
    18
100
AcDbLine
 10
40.2240067182
 20
36.539257082
 30
0.0
 11
39.6932991877
 21
36.539257082
 31
0.0
  0
LWPOLYLINE
  5
1B1
330
1F
100
AcDbEntity
  8
0
  6
Continuous
 62
     7
370
    25
100
AcDbPolyline
 90
        3
 70
   128
 43
0.0
 10
40.2678453982
 20
37.8035291528
 10
40.2838503688
 20
37.1888629129
 10
40.2678453982
 20
36.5741976097
  0
ARC
  5
1B2
330
1F
100
AcDbEntity
  8
0
  6
Continuous
 62
   144
370
    18
100
AcDbCircle
 10
40.2600723978
 20
35.9971866353
 30
0.0
 40
0.5770633276640404
100
AcDbArc
 50
89.2282067406
 51
91.4545544436
  0
ARC
  5
1B3
330
1F
100
AcDbEntity
  8
0
  6
Continuous
 62
   144
370
    18
100
AcDbCircle
 10
40.2600723978
 20
38.3805401271
 30
0.0
 40
0.57706332756461
100
AcDbArc
 50
268.5454455562
 51
270.7717932595
  0
LINE
  5
1B4
330
1F
100
AcDbEntity
  8
0
  6
Continuous
 62
   144
370
    18
100
AcDbLine
 10
40.2678453457
 20
37.8035301603
 30
0.0
 11
40.2678453982
 21
37.8035291528
 31
0.0
  0
ARC
  5
1B5
330
1F
100
AcDbEntity
  8
0
  6
Continuous
 62
   144
370
    18
100
AcDbCircle
 10
40.2599856751
 20
36.5746074925
 30
0.0
 40
0.007870403494454
100
AcDbArc
 50
307.2783009699
 51
357.0147426203
  0
LINE
  5
1B6
330
1F
100
AcDbEntity
  8
0
  6
Continuous
 62
   144
370
    18
100
AcDbLine
 10
40.1263700538
 20
37.8027160701
 30
0.0
 11
40.1263700538
 21
37.8081949777
 31
0.0
  0
LINE
  5
1B7
330
1F
100
AcDbEntity
  8
0
  6
Continuous
 62
   144
370
    18
100
AcDbLine
 10
40.2322247946
 20
37.8094377315
 30
0.0
 11
40.2398620884
 21
37.8036185168
 31
0.0
  0
LINE
  5
1B8
330
1F
100
AcDbEntity
  8
0
  6
Continuous
 62
   144
370
    18
100
AcDbLine
 10
39.7523543058
 20
36.6849263734
 30
0.0
 11
39.7776342523
 21
36.6849263734
 31
0.0
  0
LINE
  5
1B9
330
1F
100
AcDbEntity
  8
0
  6
Continuous
 62
   144
370
    18
100
AcDbLine
 10
40.118496038
 20
37.8081025353
 30
0.0
 11
40.118496038
 21
37.8026534589
 31
0.0
  0
LINE
  5
1BA
330
1F
100
AcDbEntity
  8
0
  6
Continuous
 62
   144
370
    18
100
AcDbLine
 10
40.0931273341
 20
37.8078047021
 30
0.0
 11
40.0931273341
 21
37.8024517363
 31
0.0
  0
LINE
  5
1BB
330
1F
100
AcDbEntity
  8
0
  6
Continuous
 62
     7
370
    25
100
AcDbLine
 10
10.5594409199
 20
36.4250838537
 30
0.0
 11
10.5594409199
 21
15.6140602316
 31
0.0
  0
LINE
  5
1BC
330
1F
100
AcDbEntity
  8
0
  6
Continuous
 62
   144
370
    18
100
AcDbLine
 10
10.5594409199
 20
15.6140602316
 30
0.0
 11
10.5200708412
 21
15.6140602316
 31
0.0
  0
LINE
  5
1BD
330
1F
100
AcDbEntity
  8
0
  6
Continuous
 62
     7
370
    25
100
AcDbLine
 10
10.5200708412
 20
15.6140602316
 30
0.0
 11
10.5200708412
 21
36.4250838537
 31
0.0
  0
LINE
  5
1BE
330
1F
100
AcDbEntity
  8
0
  6
Continuous
 62
   144
370
    18
100
AcDbLine
 10
10.5594409199
 20
36.4250838537
 30
0.0
 11
10.5200708412
 21
36.4250838537
 31
0.0
  0
LINE
  5
1BF
330
1F
100
AcDbEntity
  8
0
  6
Continuous
 62
   144
370
    18
100
AcDbLine
 10
10.5988109987
 20
36.4644539324
 30
0.0
 11
10.5988109987
 21
36.5038240112
 31
0.0
  0
LINE
  5
1C0
330
1F
100
AcDbEntity
  8
0
  6
Continuous
 62
   144
370
    18
100
AcDbLine
 10
10.5988109987
 20
36.5038240112
 30
0.0
 11
40.1893621798
 21
36.5038240112
 31
0.0
  0
LINE
  5
1C1
330
1F
100
AcDbEntity
  8
0
  6
Continuous
 62
   144
370
    18
100
AcDbLine
 10
40.1893621798
 20
36.5038240112
 30
0.0
 11
40.1893621798
 21
36.4644539324
 31
0.0
  0
LINE
  5
1C2
330
1F
100
AcDbEntity
  8
0
  6
Continuous
 62
     7
370
    25
100
AcDbLine
 10
40.1893621798
 20
36.4644539324
 30
0.0
 11
10.5988109987
 21
36.4644539324
 31
0.0
  0
LINE
  5
1C3
330
1F
100
AcDbEntity
  8
0
  6
Continuous
 62
     7
370
    25
100
AcDbLine
 10
10.5988109987
 20
15.5746901529
 30
0.0
 11
40.1893621798
 21
15.5746901529
 31
0.0
  0
LINE
  5
1C4
330
1F
100
AcDbEntity
  8
0
  6
Continuous
 62
     7
370
    25
100
AcDbLine
 10
40.1893621798
 20
15.5353200742
 30
0.0
 11
10.5988109987
 21
15.5353200742
 31
0.0
  0
LINE
  5
1C5
330
1F
100
AcDbEntity
  8
0
  6
Continuous
 62
   144
370
    18
100
AcDbLine
 10
40.1893621798
 20
15.5746901529
 30
0.0
 11
40.1893621798
 21
15.5353200742
 31
0.0
  0
LINE
  5
1C6
330
1F
100
AcDbEntity
  8
0
  6
Continuous
 62
   144
370
    18
100
AcDbLine
 10
10.5988109987
 20
15.5353200742
 30
0.0
 11
10.5988109987
 21
15.5746901529
 31
0.0
  0
LINE
  5
1C7
330
1F
100
AcDbEntity
  8
0
  6
Continuous
 62
     7
370
    25
100
AcDbLine
 10
40.2681023373
 20
36.4250838537
 30
0.0
 11
40.2681023373
 21
15.6140602316
 31
0.0
  0
LINE
  5
1C8
330
1F
100
AcDbEntity
  8
0
  6
Continuous
 62
     7
370
    25
100
AcDbLine
 10
40.2287322585
 20
15.6140602316
 30
0.0
 11
40.2287322585
 21
36.4250838537
 31
0.0
  0
LINE
  5
1C9
330
1F
100
AcDbEntity
  8
0
  6
Continuous
 62
   144
370
    18
100
AcDbLine
 10
40.2681023373
 20
36.4250838537
 30
0.0
 11
40.2287322585
 21
36.4250838537
 31
0.0
  0
LINE
  5
1CA
330
1F
100
AcDbEntity
  8
0
  6
Continuous
 62
   144
370
    18
100
AcDbLine
 10
40.2681023373
 20
15.6140602316
 30
0.0
 11
40.2287322585
 21
15.6140602316
 31
0.0
  0
LINE
  5
1CB
330
1F
100
AcDbEntity
  8
0
  6
Continuous
 62
     7
370
    25
100
AcDbLine
 10
35.7484172979
 20
20.6435877907
 30
0.0
 11
15.0397558806
 21
20.6435877907
 31
0.0
  0
LINE
  5
1CC
330
1F
100
AcDbEntity
  8
0
  6
Continuous
 62
     7
370
    25
100
AcDbLine
 10
15.0397558806
 20
32.7341389718
 30
0.0
 11
35.7484172979
 21
32.7341389718
 31
0.0
  0
LINE
  5
1CD
330
1F
100
AcDbEntity
  8
0
  6
Continuous
 62
     7
370
    25
100
AcDbLine
 10
35.7484172979
 20
32.7341389718
 30
0.0
 11
35.7484172979
 21
20.6435877907
 31
0.0
  0
LINE
  5
1CE
330
1F
100
AcDbEntity
  8
0
  6
Continuous
 62
     7
370
    25
100
AcDbLine
 10
15.0397558806
 20
20.6435877907
 30
0.0
 11
15.0397558806
 21
32.7341389718
 31
0.0
  0
ARC
  5
1CF
330
1F
100
AcDbEntity
  8
0
  6
Continuous
 62
   144
370
    18
100
AcDbCircle
 10
40.1893621798
 20
36.4250838537
 30
0.0
 40
0.0393700787401627
100
AcDbArc
 50
0.0
 51
90.0
  0
ARC
  5
1D0
330
1F
100
AcDbEntity
  8
0
  6
Continuous
 62
   144
370
    18
100
AcDbCircle
 10
10.5988109987
 20
36.4250838537
 30
0.0
 40
0.0393700787401627
100
AcDbArc
 50
90.0
 51
180.0
  0
ARC
  5
1D1
330
1F
100
AcDbEntity
  8
0
  6
Continuous
 62
   144
370
    18
100
AcDbCircle
 10
10.5988109987
 20
15.6140602316
 30
0.0
 40
0.0393700787401574
100
AcDbArc
 50
180.0
 51
270.0
  0
ARC
  5
1D2
330
1F
100
AcDbEntity
  8
0
  6
Continuous
 62
   144
370
    18
100
AcDbCircle
 10
40.1893621798
 20
15.6140602316
 30
0.0
 40
0.0393700787401574
100
AcDbArc
 50
270.0
 51
0.0
  0
ARC
  5
1D3
330
1F
100
AcDbEntity
  8
0
  6
Continuous
 62
   144
370
    18
100
AcDbCircle
 10
40.1893621798
 20
36.4250838537
 30
0.0
 40
0.0787401574803184
100
AcDbArc
 50
0.0
 51
90.0
  0
ARC
  5
1D4
330
1F
100
AcDbEntity
  8
0
  6
Continuous
 62
   144
370
    18
100
AcDbCircle
 10
40.1893621798
 20
15.6140602316
 30
0.0
 40
0.0787401574803148
100
AcDbArc
 50
270.0
 51
0.0
  0
ARC
  5
1D5
330
1F
100
AcDbEntity
  8
0
  6
Continuous
 62
   144
370
    18
100
AcDbCircle
 10
10.5988109987
 20
36.4250838537
 30
0.0
 40
0.0787401574803184
100
AcDbArc
 50
90.0
 51
180.0
  0
ARC
  5
1D6
330
1F
100
AcDbEntity
  8
0
  6
Continuous
 62
   144
370
    18
100
AcDbCircle
 10
10.5988109987
 20
15.6140602316
 30
0.0
 40
0.0787401574803148
100
AcDbArc
 50
180.0
 51
270.0
  0
LINE
  5
1D7
330
1F
100
AcDbEntity
  8
0
  6
Continuous
 62
     7
370
    25
100
AcDbLine
 10
13.4452676916
 20
36.5372885781
 30
0.0
 11
13.4452676916
 21
36.539257082
 31
0.0
  0
LINE
  5
1D8
330
1F
100
AcDbEntity
  8
0
  6
Continuous
 62
     7
370
    25
100
AcDbLine
 10
37.3429054869
 20
36.539257082
 30
0.0
 11
37.3429054869
 21
36.5372885781
 31
0.0
  0
LINE
  5
1D9
330
1F
100
AcDbEntity
  8
0
  6
Continuous
 62
     7
370
    25
100
AcDbLine
 10
13.4531417073
 20
37.8365011765
 30
0.0
 11
37.3350314711
 21
37.8365011765
 31
0.0
  0
LINE
  5
1DA
330
1F
100
AcDbEntity
  8
0
  6
Continuous
 62
     7
370
    25
100
AcDbLine
 10
37.3429054869
 20
36.5372885781
 30
0.0
 11
13.4452676916
 21
36.5372885781
 31
0.0
  0
LINE
  5
1DB
330
1F
100
AcDbEntity
  8
0
  6
Continuous
 62
     7
370
    25
100
AcDbLine
 10
39.6854251719
 20
37.8384696805
 30
0.0
 11
39.6932991877
 21
37.8384696805
 31
0.0
  0
LINE
  5
1DC
330
1F
100
AcDbEntity
  8
0
  6
Continuous
 62
   144
370
    18
100
AcDbLine
 10
39.6932991877
 20
36.539257082
 30
0.0
 11
39.6854251719
 21
36.539257082
 31
0.0
  0
LINE
  5
1DD
330
1F
100
AcDbEntity
  8
0
  6
Continuous
 62
   144
370
    18
100
AcDbLine
 10
39.6854251719
 20
36.5471310978
 30
0.0
 11
39.6932991877
 21
36.5471310978
 31
0.0
  0
LINE
  5
1DE
330
1F
100
AcDbEntity
  8
0
  6
Continuous
 62
   144
370
    18
100
AcDbLine
 10
39.6854251719
 20
37.7085484206
 30
0.0
 11
39.6975838796
 21
37.7085484206
 31
0.0
  0
LINE
  5
1DF
330
1F
100
AcDbEntity
  8
0
  6
Continuous
 62
   144
370
    18
100
AcDbLine
 10
39.7532615789
 20
36.5471310978
 30
0.0
 11
40.0898658099
 21
36.5471310978
 31
0.0
  0
LINE
  5
1E0
330
1F
100
AcDbEntity
  8
0
  6
Continuous
 62
   144
370
    18
100
AcDbLine
 10
39.7783547051
 20
36.6770523576
 30
0.0
 11
39.7582598176
 21
36.6770523576
 31
0.0
  0
LINE
  5
1E1
330
1F
100
AcDbEntity
  8
0
  6
Continuous
 62
     7
370
    25
100
AcDbLine
 10
11.1027480066
 20
36.539257082
 30
0.0
 11
11.0948739908
 21
36.539257082
 31
0.0
  0
LINE
  5
1E2
330
1F
100
AcDbEntity
  8
0
  6
Continuous
 62
   144
370
    18
100
AcDbLine
 10
11.0948739908
 20
36.5471310978
 30
0.0
 11
11.1027480066
 21
36.5471310978
 31
0.0
  0
LINE
  5
1E3
330
1F
100
AcDbEntity
  8
0
  6
Continuous
 62
     7
370
    25
100
AcDbLine
 10
11.0948739908
 20
37.8384696805
 30
0.0
 11
11.1027480066
 21
37.8384696805
 31
0.0
  0
LINE
  5
1E4
330
1F
100
AcDbEntity
  8
0
  6
Continuous
 62
   144
370
    18
100
AcDbLine
 10
11.0905892989
 20
37.7085484206
 30
0.0
 11
11.1027480066
 21
37.7085484206
 31
0.0
  0
LINE
  5
1E5
330
1F
100
AcDbEntity
  8
0
  6
Continuous
 62
   144
370
    18
100
AcDbLine
 10
10.6983073685
 20
36.5471310978
 30
0.0
 11
11.0349115996
 21
36.5471310978
 31
0.0
  0
LINE
  5
1E6
330
1F
100
AcDbEntity
  8
0
  6
Continuous
 62
   144
370
    18
100
AcDbLine
 10
11.0299133609
 20
36.6770523576
 30
0.0
 11
11.0105977692
 21
36.6770523576
 31
0.0
  0
ARC
  5
1E7
330
1F
100
AcDbEntity
  8
0
  6
Continuous
 62
     7
370
    25
100
AcDbCircle
 10
31.0086473335
 20
38.9998870334
 30
0.0
 40
0.0866141732283481
100
AcDbArc
 50
270.0
 51
0.0
  0
LINE
  5
1E8
330
1F
100
AcDbEntity
  8
0
  6
Continuous
 62
     7
370
    25
100
AcDbLine
 10
31.0952615067
 20
42.3857145517
 30
0.0
 11
31.0952615067
 21
38.9998870334
 31
0.0
  0
ARC
  5
1E9
330
1F
100
AcDbEntity
  8
0
  6
Continuous
 62
   144
370
    18
100
AcDbCircle
 10
31.0086473335
 20
42.3857145517
 30
0.0
 40
0.0866141732283552
100
AcDbArc
 50
0.0
 51
90.0
  0
LINE
  5
1EA
330
1F
100
AcDbEntity
  8
0
  6
Continuous
 62
     7
370
    25
100
AcDbLine
 10
19.7795394083
 20
42.472328725
 30
0.0
 11
31.0086473335
 21
42.472328725
 31
0.0
  0
ARC
  5
1EB
330
1F
100
AcDbEntity
  8
0
  6
Continuous
 62
   144
370
    18
100
AcDbCircle
 10
19.7795394083
 20
42.3857145517
 30
0.0
 40
0.0866141732283552
100
AcDbArc
 50
90.0
 51
180.0
  0
LINE
  5
1EC
330
1F
100
AcDbEntity
  8
0
  6
Continuous
 62
   144
370
    18
100
AcDbLine
 10
19.6929252351
 20
38.9998870334
 30
0.0
 11
19.6929252351
 21
42.3857145517
 31
0.0
  0
ARC
  5
1ED
330
1F
100
AcDbEntity
  8
0
  6
Continuous
 62
     7
370
    25
100
AcDbCircle
 10
19.7795394083
 20
38.9998870334
 30
0.0
 40
0.0866141732283481
100
AcDbArc
 50
180.0
 51
270.0
  0
LINE
  5
1EE
330
1F
100
AcDbEntity
  8
0
  6
Continuous
 62
     7
370
    25
100
AcDbLine
 10
31.0086473335
 20
38.9132728602
 30
0.0
 11
19.7795394083
 21
38.9132728602
 31
0.0
  0
LINE
  5
1EF
330
1F
100
AcDbEntity
  8
0
  6
Continuous
 62
     7
370
    25
100
AcDbLine
 10
10.5387716286
 20
43.2321704679
 30
0.0
 11
10.5387716286
 21
38.1140602317
 31
0.0
  0
LINE
  5
1F0
330
1F
100
AcDbEntity
  8
0
  6
Continuous
 62
     7
370
    25
100
AcDbLine
 10
40.2494015499
 20
43.2321704679
 30
0.0
 11
10.5387716286
 21
43.2321704679
 31
0.0
  0
LINE
  5
1F1
330
1F
100
AcDbEntity
  8
0
  6
Continuous
 62
   144
370
    18
100
AcDbLine
 10
40.2494015499
 20
38.1140602317
 30
0.0
 11
40.2494015499
 21
43.2321704679
 31
0.0
  0
LINE
  5
1F2
330
1F
100
AcDbEntity
  8
0
  6
Continuous
 62
     7
370
    25
100
AcDbLine
 10
10.5387716286
 20
38.1140602317
 30
0.0
 11
40.2494015499
 21
38.1140602317
 31
0.0
  0
LINE
  5
1F3
330
1F
100
AcDbEntity
  8
0
  6
Continuous
 62
   144
370
    18
100
AcDbLine
 10
31.0086473335
 20
42.4644547092
 30
0.0
 11
19.7795394083
 21
42.4644547092
 31
0.0
  0
LINE
  5
1F4
330
1F
100
AcDbEntity
  8
0
  6
Continuous
 62
   144
370
    18
100
AcDbLine
 10
19.7795394083
 20
42.4644547092
 30
0.0
 11
19.7795394083
 21
42.472328725
 31
0.0
  0
LINE
  5
1F5
330
1F
100
AcDbEntity
  8
0
  6
Continuous
 62
   144
370
    18
100
AcDbLine
 10
31.0086473335
 20
42.4644547092
 30
0.0
 11
31.0086473335
 21
42.472328725
 31
0.0
  0
LINE
  5
1F6
330
1F
100
AcDbEntity
  8
0
  6
Continuous
 62
     7
370
    25
100
AcDbLine
 10
19.7007992508
 20
38.9998870334
 30
0.0
 11
19.6929252351
 21
38.9998870334
 31
0.0
  0
ARC
  5
1F7
330
1F
100
AcDbEntity
  8
0
  6
Continuous
 62
   144
370
    18
100
AcDbCircle
 10
19.7795394083
 20
38.9998870334
 30
0.0
 40
0.0787401574803184
100
AcDbArc
 50
180.0
 51
270.0
  0
LINE
  5
1F8
330
1F
100
AcDbEntity
  8
0
  6
Continuous
 62
     7
370
    25
100
AcDbLine
 10
19.7795394083
 20
38.9132728602
 30
0.0
 11
19.7795394083
 21
38.9211468759
 31
0.0
  0
LINE
  5
1F9
330
1F
100
AcDbEntity
  8
0
  6
Continuous
 62
     7
370
    25
100
AcDbLine
 10
40.2690865892
 20
43.2321704679
 30
0.0
 11
40.2690865892
 21
38.1140602317
 31
0.0
  0
LINE
  5
1FA
330
1F
100
AcDbEntity
  8
0
  6
Continuous
 62
   144
370
    18
100
AcDbLine
 10
40.2690865892
 20
38.1140602317
 30
0.0
 11
40.2494015499
 21
38.1140602317
 31
0.0
  0
LINE
  5
1FB
330
1F
100
AcDbEntity
  8
0
  6
Continuous
 62
   144
370
    18
100
AcDbLine
 10
40.2690865892
 20
43.2321704679
 30
0.0
 11
40.2494015499
 21
43.2321704679
 31
0.0
  0
LINE
  5
1FC
330
1F
100
AcDbEntity
  8
0
  6
Continuous
 62
     7
370
    25
100
AcDbLine
 10
31.0086473335
 20
38.9132728602
 30
0.0
 11
31.0086473335
 21
38.9211468759
 31
0.0
  0
ARC
  5
1FD
330
1F
100
AcDbEntity
  8
0
  6
Continuous
 62
   144
370
    18
100
AcDbCircle
 10
31.0086473335
 20
38.9998870334
 30
0.0
 40
0.0787401574803184
100
AcDbArc
 50
270.0
 51
0.0
  0
LINE
  5
1FE
330
1F
100
AcDbEntity
  8
0
  6
Continuous
 62
   144
370
    18
100
AcDbLine
 10
31.0952615067
 20
38.9998870334
 30
0.0
 11
31.087387491
 21
38.9998870334
 31
0.0
  0
LINE
  5
1FF
330
1F
100
AcDbEntity
  8
0
  6
Continuous
 62
   144
370
    18
100
AcDbLine
 10
10.5387716286
 20
43.2518555072
 30
0.0
 11
40.2494015499
 21
43.2518555072
 31
0.0
  0
LINE
  5
200
330
1F
100
AcDbEntity
  8
0
  6
Continuous
 62
   144
370
    18
100
AcDbLine
 10
40.2494015499
 20
43.2518555072
 30
0.0
 11
40.2494015499
 21
43.2321704679
 31
0.0
  0
LINE
  5
201
330
1F
100
AcDbEntity
  8
0
  6
Continuous
 62
   144
370
    18
100
AcDbLine
 10
10.5387716286
 20
43.2518555072
 30
0.0
 11
10.5387716286
 21
43.2321704679
 31
0.0
  0
LINE
  5
202
330
1F
100
AcDbEntity
  8
0
  6
Continuous
 62
   144
370
    18
100
AcDbLine
 10
10.5387716286
 20
38.1140602317
 30
0.0
 11
10.5190865892
 21
38.1140602317
 31
0.0
  0
LINE
  5
203
330
1F
100
AcDbEntity
  8
0
  6
Continuous
 62
     7
370
    25
100
AcDbLine
 10
10.5190865892
 20
38.1140602317
 30
0.0
 11
10.5190865892
 21
43.2321704679
 31
0.0
  0
LINE
  5
204
330
1F
100
AcDbEntity
  8
0
  6
Continuous
 62
   144
370
    18
100
AcDbLine
 10
10.5387716286
 20
43.2321704679
 30
0.0
 11
10.5190865892
 21
43.2321704679
 31
0.0
  0
LINE
  5
205
330
1F
100
AcDbEntity
  8
0
  6
Continuous
 62
     7
370
    25
100
AcDbLine
 10
19.7795394083
 20
38.9211468759
 30
0.0
 11
31.0086473335
 21
38.9211468759
 31
0.0
  0
LINE
  5
206
330
1F
100
AcDbEntity
  8
0
  6
Continuous
 62
   144
370
    18
100
AcDbLine
 10
40.2494015499
 20
38.0943751923
 30
0.0
 11
10.5387716286
 21
38.0943751923
 31
0.0
  0
LINE
  5
207
330
1F
100
AcDbEntity
  8
0
  6
Continuous
 62
   144
370
    18
100
AcDbLine
 10
10.5387716286
 20
38.1140602317
 30
0.0
 11
10.5387716286
 21
38.0943751923
 31
0.0
  0
LINE
  5
208
330
1F
100
AcDbEntity
  8
0
  6
Continuous
 62
   144
370
    18
100
AcDbLine
 10
40.2494015499
 20
38.1140602317
 30
0.0
 11
40.2494015499
 21
38.0943751923
 31
0.0
  0
LINE
  5
209
330
1F
100
AcDbEntity
  8
0
  6
Continuous
 62
   144
370
    18
100
AcDbLine
 10
31.087387491
 20
38.9998870334
 30
0.0
 11
31.087387491
 21
42.3857145517
 31
0.0
  0
LINE
  5
20A
330
1F
100
AcDbEntity
  8
0
  6
Continuous
 62
   144
370
    18
100
AcDbLine
 10
31.0952615067
 20
42.3857145517
 30
0.0
 11
31.087387491
 21
42.3857145517
 31
0.0
  0
LINE
  5
20B
330
1F
100
AcDbEntity
  8
0
  6
Continuous
 62
   144
370
    18
100
AcDbLine
 10
19.7007992508
 20
42.3857145517
 30
0.0
 11
19.7007992508
 21
38.9998870334
 31
0.0
  0
LINE
  5
20C
330
1F
100
AcDbEntity
  8
0
  6
Continuous
 62
   144
370
    18
100
AcDbLine
 10
19.7007992508
 20
42.3857145517
 30
0.0
 11
19.6929252351
 21
42.3857145517
 31
0.0
  0
ARC
  5
20D
330
1F
100
AcDbEntity
  8
0
  6
Continuous
 62
   144
370
    18
100
AcDbCircle
 10
19.7795394083
 20
42.3857145517
 30
0.0
 40
0.0787401574803255
100
AcDbArc
 50
90.0
 51
180.0
  0
ARC
  5
20E
330
1F
100
AcDbEntity
  8
0
  6
Continuous
 62
   144
370
    18
100
AcDbCircle
 10
31.0086473335
 20
42.3857145517
 30
0.0
 40
0.0787401574803255
100
AcDbArc
 50
0.0
 51
90.0
  0
ARC
  5
20F
330
1F
100
AcDbEntity
  8
0
  6
Continuous
 62
   144
370
    18
100
AcDbCircle
 10
40.2494015499
 20
38.1140602317
 30
0.0
 40
0.0196850393700814
100
AcDbArc
 50
270.0
 51
0.0
  0
ARC
  5
210
330
1F
100
AcDbEntity
  8
0
  6
Continuous
 62
   144
370
    18
100
AcDbCircle
 10
10.5387716286
 20
38.1140602317
 30
0.0
 40
0.0196850393700814
100
AcDbArc
 50
180.0
 51
270.0
  0
ARC
  5
211
330
1F
100
AcDbEntity
  8
0
  6
Continuous
 62
   144
370
    18
100
AcDbCircle
 10
10.5387716286
 20
43.2321704679
 30
0.0
 40
0.0196850393700778
100
AcDbArc
 50
90.0
 51
180.0
  0
ARC
  5
212
330
1F
100
AcDbEntity
  8
0
  6
Continuous
 62
   144
370
    18
100
AcDbCircle
 10
40.2494015499
 20
43.2321704679
 30
0.0
 40
0.0196850393700814
100
AcDbArc
 50
0.0
 51
90.0
  0
LINE
  5
213
330
1F
100
AcDbEntity
  8
0
  6
Continuous
 62
     7
370
    25
100
AcDbLine
 10
22.3901427997
 20
38.9211476226
 30
0.0
 11
22.3901427997
 21
42.4644547092
 31
0.0
  0
LINE
  5
214
330
1F
100
AcDbEntity
  8
0
  6
Continuous
 62
     7
370
    25
100
AcDbLine
 10
28.3980168154
 20
42.4644547092
 30
0.0
 11
28.3980168154
 21
38.9211476226
 31
0.0
  0
LINE
  5
215
330
1F
100
AcDbEntity
  8
0
  6
Continuous
 62
   144
370
    18
100
AcDbLine
 10
28.7799133609
 20
37.9368948773
 30
0.0
 11
28.7799133609
 21
38.0353200742
 31
0.0
  0
LINE
  5
216
330
1F
100
AcDbEntity
  8
0
  6
Continuous
 62
   144
370
    18
100
AcDbLine
 10
28.7799133609
 20
38.0943751923
 30
0.0
 11
28.7799133609
 21
38.0353200742
 31
0.0
  0
ARC
  5
217
330
1F
100
AcDbEntity
  8
0
  6
Continuous
 62
     7
370
    25
100
AcDbCircle
 10
32.9520037035
 20
38.133745271
 30
0.0
 40
0.1771653543111722
100
AcDbArc
 50
269.9999999989
 51
289.3299041281
  0
ARC
  5
218
330
1F
100
AcDbEntity
  8
0
  6
Continuous
 62
   144
370
    18
100
AcDbCircle
 10
32.9520037036
 20
38.133745271
 30
0.0
 40
0.1771653542625929
100
AcDbArc
 50
289.3299041233
 51
308.6598082578
  0
LINE
  5
219
330
1F
100
AcDbEntity
  8
0
  6
Continuous
 62
   144
370
    18
100
AcDbLine
 10
28.7995984003
 20
38.0353200742
 30
0.0
 11
28.7995984003
 21
38.0943751923
 31
0.0
  0
LINE
  5
21A
330
1F
100
AcDbEntity
  8
0
  6
Continuous
 62
   144
370
    18
100
AcDbLine
 10
28.7995984003
 20
37.9565799167
 30
0.0
 11
28.7995984003
 21
38.0353200742
 31
0.0
  0
LINE
  5
21B
330
1F
100
AcDbEntity
  8
0
  6
Continuous
 62
     7
370
    25
100
AcDbLine
 10
30.7484172979
 20
37.9565799167
 30
0.0
 11
32.9520037035
 21
37.9565799167
 31
0.0
  0
LINE
  5
21C
330
1F
100
AcDbEntity
  8
0
  6
Continuous
 62
   144
370
    18
100
AcDbLine
 10
33.0106466656
 20
37.9665670255
 30
0.0
 11
33.0072448152
 21
37.9762649561
 31
0.0
  0
LINE
  5
21D
330
1F
100
AcDbEntity
  8
0
  6
Continuous
 62
   144
370
    18
100
AcDbLine
 10
30.7484172979
 20
37.9762649561
 30
0.0
 11
30.7484172979
 21
37.9565799167
 31
0.0
  0
LINE
  5
21E
330
1F
100
AcDbEntity
  8
0
  6
Continuous
 62
   144
370
    18
100
AcDbLine
 10
33.0503808764
 20
38.010773805
 30
0.0
 11
33.0072448152
 21
37.9762649561
 31
0.0
  0
LINE
  5
21F
330
1F
100
AcDbEntity
  8
0
  6
Continuous
 62
   144
370
    18
100
AcDbLine
 10
33.062678023
 20
37.9954023717
 30
0.0
 11
33.1863940487
 21
38.0943751923
 31
0.0
  0
LINE
  5
220
330
1F
100
AcDbEntity
  8
0
  6
Continuous
 62
   144
370
    18
100
AcDbLine
 10
33.2179054869
 20
38.0943751923
 30
0.0
 11
33.0749751696
 21
37.9800309384
 31
0.0
  0
LINE
  5
221
330
1F
100
AcDbEntity
  8
0
  6
Continuous
 62
     7
370
    25
100
AcDbLine
 10
29.7980869359
 20
37.9565799167
 30
0.0
 11
30.4619802184
 21
37.9565799167
 31
0.0
  0
LINE
  5
222
330
1F
100
AcDbEntity
  8
0
  6
Continuous
 62
     7
370
    25
100
AcDbLine
 10
29.0663504403
 20
37.9565799167
 30
0.0
 11
29.7464438971
 21
37.9565799167
 31
0.0
  0
LINE
  5
223
330
1F
100
AcDbEntity
  8
0
  6
Continuous
 62
   144
370
    18
100
AcDbLine
 10
38.3558545143
 20
37.9565799167
 30
0.0
 11
38.8232204475
 21
37.9565799167
 31
0.0
  0
LINE
  5
224
330
1F
100
AcDbEntity
  8
0
  6
Continuous
 62
   144
370
    18
100
AcDbLine
 10
28.9706360235
 20
37.9565799167
 30
0.0
 11
28.7995984003
 21
37.9565799167
 31
0.0
  0
LINE
  5
225
330
1F
100
AcDbEntity
  8
0
  6
Continuous
 62
   144
370
    18
100
AcDbLine
 10
29.7464438971
 20
37.9565799167
 30
0.0
 11
29.7980869359
 21
37.9565799167
 31
0.0
  0
LINE
  5
226
330
1F
100
AcDbEntity
  8
0
  6
Continuous
 62
   144
370
    18
100
AcDbLine
 10
30.5489605725
 20
37.9565799167
 30
0.0
 11
30.5576946353
 21
37.9565799167
 31
0.0
  0
LINE
  5
227
330
1F
100
AcDbEntity
  8
0
  6
Continuous
 62
   144
370
    18
100
AcDbLine
 10
30.7484172979
 20
37.9565799167
 30
0.0
 11
30.5576946353
 21
37.9565799167
 31
0.0
  0
ARC
  5
228
330
1F
100
AcDbEntity
  8
0
  6
Continuous
 62
   144
370
    18
100
AcDbCircle
 10
38.3558545143
 20
38.133745271
 30
0.0
 40
0.1771653543307193
100
AcDbArc
 50
231.3401917459
 51
270.0
  0
ARC
  5
229
330
1F
100
AcDbEntity
  8
0
  6
Continuous
 62
   144
370
    18
100
AcDbCircle
 10
32.9520037035
 20
38.133745271
 30
0.0
 40
0.1968503937008827
100
AcDbArc
 50
270.0
 51
308.6598082541
  0
LINE
  5
22A
330
1F
100
AcDbEntity
  8
0
  6
Continuous
 62
     7
370
    25
100
AcDbLine
 10
38.3558545143
 20
37.9368948773
 30
0.0
 11
37.7697811045
 21
37.9368948773
 31
0.0
  0
LINE
  5
22B
330
1F
100
AcDbEntity
  8
0
  6
Continuous
 62
   144
370
    18
100
AcDbLine
 10
38.8232204475
 20
37.9368948773
 30
0.0
 11
38.3558545143
 21
37.9368948773
 31
0.0
  0
LINE
  5
22C
330
1F
100
AcDbEntity
  8
0
  6
Continuous
 62
   144
370
    18
100
AcDbLine
 10
37.7697811045
 20
37.9368948773
 30
0.0
 11
37.7044932149
 21
37.9368948773
 31
0.0
  0
LINE
  5
22D
330
1F
100
AcDbEntity
  8
0
  6
Continuous
 62
   144
370
    18
100
AcDbLine
 10
32.9773410625
 20
37.9368948773
 30
0.0
 11
32.9520037035
 21
37.9368948773
 31
0.0
  0
LINE
  5
22E
330
1F
100
AcDbEntity
  8
0
  6
Continuous
 62
   144
370
    18
100
AcDbLine
 10
32.9520037035
 20
37.9368948773
 30
0.0
 11
30.7484172979
 21
37.9368948773
 31
0.0
  0
LINE
  5
22F
330
1F
100
AcDbEntity
  8
0
  6
Continuous
 62
   144
370
    18
100
AcDbLine
 10
30.5576946353
 20
37.9368948773
 30
0.0
 11
30.7484172979
 21
37.9368948773
 31
0.0
  0
LINE
  5
230
330
1F
100
AcDbEntity
  8
0
  6
Continuous
 62
   144
370
    18
100
AcDbLine
 10
30.5576946353
 20
37.9368948773
 30
0.0
 11
30.5489605725
 21
37.9368948773
 31
0.0
  0
LINE
  5
231
330
1F
100
AcDbEntity
  8
0
  6
Continuous
 62
   144
370
    18
100
AcDbLine
 10
30.5489605725
 20
37.9368948773
 30
0.0
 11
30.4619802184
 21
37.9368948773
 31
0.0
  0
LINE
  5
232
330
1F
100
AcDbEntity
  8
0
  6
Continuous
 62
   144
370
    18
100
AcDbLine
 10
30.4619802184
 20
37.9368948773
 30
0.0
 11
30.4411114338
 21
37.9368948773
 31
0.0
  0
LINE
  5
233
330
1F
100
AcDbEntity
  8
0
  6
Continuous
 62
   144
370
    18
100
AcDbLine
 10
29.7924364847
 20
37.9368948773
 30
0.0
 11
29.7493947034
 21
37.9368948773
 31
0.0
  0
LINE
  5
234
330
1F
100
AcDbEntity
  8
0
  6
Continuous
 62
   144
370
    18
100
AcDbLine
 10
29.0663504403
 20
37.9368948773
 30
0.0
 11
28.9793700863
 21
37.9368948773
 31
0.0
  0
LINE
  5
235
330
1F
100
AcDbEntity
  8
0
  6
Continuous
 62
   144
370
    18
100
AcDbLine
 10
28.9793700863
 20
37.9368948773
 30
0.0
 11
28.9706360235
 21
37.9368948773
 31
0.0
  0
LINE
  5
236
330
1F
100
AcDbEntity
  8
0
  6
Continuous
 62
   144
370
    18
100
AcDbLine
 10
28.7799133609
 20
37.9368948773
 30
0.0
 11
28.9706360235
 21
37.9368948773
 31
0.0
  0
LINE
  5
237
330
1F
100
AcDbEntity
  8
0
  6
Continuous
 62
   144
370
    18
100
AcDbLine
 10
38.1214641691
 20
38.0943751923
 30
0.0
 11
38.2451801949
 21
37.9954023717
 31
0.0
  0
ARC
  5
238
330
1F
100
AcDbEntity
  8
0
  6
Continuous
 62
   144
370
    18
100
AcDbCircle
 10
28.9706360235
 20
37.5628791293
 30
0.0
 40
0.3937007874015777
100
AcDbArc
 50
44.0272172097
 51
90.0
  0
LINE
  5
239
330
1F
100
AcDbEntity
  8
0
  6
Continuous
 62
     7
370
    25
100
AcDbLine
 10
11.9846377703
 20
38.0943751923
 30
0.0
 11
11.9846377703
 21
37.8384696805
 31
0.0
  0
LINE
  5
23A
330
1F
100
AcDbEntity
  8
0
  6
Continuous
 62
     7
370
    25
100
AcDbLine
 10
12.1027480066
 20
38.0943751923
 30
0.0
 11
12.1027480066
 21
37.8384696805
 31
0.0
  0
ELLIPSE
  5
23B
330
1F
100
AcDbEntity
  8
0
  6
Continuous
 62
   144
370
    18
100
AcDbEllipse
 10
36.8117940437
 20
38.133745271
 30
0.0
 11
1.435250123704925
 21
-0.1413361772324677
 31
0.0
210
0.0
220
0.0
230
1.0
 40
0.0355345854
 41
5.436274009177979
 42
6.337774821831851
  0
LINE
  5
23C
330
1F
100
AcDbEntity
  8
0
  6
Continuous
 62
   144
370
    18
100
AcDbLine
 10
37.7585979663
 20
38.0019263359
 30
0.0
 11
37.6813141446
 21
37.9949061833
 31
0.0
  0
ARC
  5
23D
330
1F
100
AcDbEntity
  8
0
  6
Continuous
 62
   144
370
    18
100
AcDbCircle
 10
30.5492029261
 20
37.5664360353
 30
0.0
 40
0.3901439566114632
100
AcDbArc
 50
90.0355915723
 51
136.1939637399
  0
LWPOLYLINE
  5
23E
330
1F
100
AcDbEntity
  8
0
  6
Continuous
 62
   144
370
    18
100
AcDbPolyline
 90
        3
 70
   128
 43
0.0
 10
37.7585979663
 20
38.0019263359
 10
37.7597821648
 20
37.9916661297
 10
37.7603958275
 20
37.9870511161
  0
ARC
  5
23F
330
1F
100
AcDbEntity
  8
0
  6
Continuous
 62
   144
370
    18
100
AcDbCircle
 10
38.3558545143
 20
38.133745271
 30
0.0
 40
0.1968503937007924
100
AcDbArc
 50
231.3401917459
 51
270.0
  0
ELLIPSE
  5
240
330
1F
100
AcDbEntity
  8
0
  6
Continuous
 62
   144
370
    18
100
AcDbEllipse
 10
36.8117940437
 20
38.133745271
 30
0.0
 11
1.423407401322969
 21
-0.1574315707530474
 31
0.0
210
0.0
220
0.0
230
1.0
 40
0.0390409978
 41
5.443247914714259
 42
6.344748727368028
  0
ARC
  5
241
330
1F
100
AcDbEntity
  8
0
  6
Continuous
 62
   144
370
    18
100
AcDbCircle
 10
37.8429346927
 20
37.9816603419
 30
0.0
 40
0.085763595356433
100
AcDbArc
 50
176.2431455794
 51
211.4640501878
  0
LWPOLYLINE
  5
242
330
1F
100
AcDbEntity
  8
0
  6
Continuous
 62
     7
370
    25
100
AcDbPolyline
 90
        3
 70
   128
 43
0.0
 10
33.1231942561
 20
38.0438153582
 10
33.1444209235
 20
38.0539407086
 10
33.1710534908
 20
38.055093163
  0
LWPOLYLINE
  5
243
330
1F
100
AcDbEntity
  8
0
  6
Continuous
 62
     7
370
    25
100
AcDbPolyline
 90
        3
 70
   128
 43
0.0
 10
33.1710534908
 20
38.055093163
 10
33.2014823796
 20
38.0472030711
 10
33.2338685755
 20
38.0307472823
  0
LINE
  5
244
330
1F
100
AcDbEntity
  8
0
  6
Continuous
 62
   144
370
    18
100
AcDbLine
 10
33.2338685755
 20
38.0307472823
 30
0.0
 11
33.1051242776
 21
37.927751844
 31
0.0
  0
LWPOLYLINE
  5
245
330
1F
100
AcDbEntity
  8
0
  6
Continuous
 62
     7
370
    25
100
AcDbPolyline
 90
        3
 70
   128
 43
0.0
 10
31.1122108154
 20
37.927751844
 10
31.0968999828
 20
37.922254865
 10
31.0961863268
 20
37.9219862294
  0
LINE
  5
246
330
1F
100
AcDbEntity
  8
0
  6
Continuous
 62
     7
370
    25
100
AcDbLine
 10
37.5609897321
 20
37.9219862294
 30
0.0
 11
37.5259862952
 21
37.8869827925
 31
0.0
  0
ARC
  5
247
330
1F
100
AcDbEntity
  8
0
  6
Continuous
 62
     7
370
    25
100
AcDbCircle
 10
37.7697811045
 20
37.713194857
 30
0.0
 40
0.2952755905512202
100
AcDbArc
 50
107.4340664824
 51
135.0
  0
LINE
  5
248
330
1F
100
AcDbEntity
  8
0
  6
Continuous
 62
   144
370
    18
100
AcDbLine
 10
31.0961863268
 20
37.9219862294
 30
0.0
 11
31.0961863268
 21
37.8869827925
 31
0.0
  0
ARC
  5
249
330
1F
100
AcDbEntity
  8
0
  6
Continuous
 62
     7
370
    25
100
AcDbCircle
 10
32.9836094114
 20
37.8787362477
 30
0.0
 40
0.1310282083691366
100
AcDbArc
 50
21.9677286249
 51
53.6691129468
  0
ARC
  5
24A
330
1F
100
AcDbEntity
  8
0
  6
Continuous
 62
     7
370
    25
100
AcDbCircle
 10
32.9761618303
 20
38.1010071362
 30
0.0
 40
0.1444290688314968
100
AcDbArc
 50
270.2899436397
 51
306.0891213159
  0
ARC
  5
24B
330
1F
100
AcDbEntity
  8
0
  6
Continuous
 62
     7
370
    25
100
AcDbCircle
 10
32.956555702
 20
37.5665072624
 30
0.0
 40
0.3906024441815021
100
AcDbArc
 50
67.6441701938
 51
87.0155035312
  0
ARC
  5
24C
330
1F
100
AcDbEntity
  8
0
  6
Continuous
 62
     7
370
    25
100
AcDbCircle
 10
30.7191794756
 20
37.8384696805
 30
0.0
 40
0.1181102362204878
100
AcDbArc
 50
45.0
 51
90.0
  0
ARC
  5
24D
330
1F
100
AcDbEntity
  8
0
  6
Continuous
 62
     7
370
    25
100
AcDbCircle
 10
31.2896184816
 20
37.6274492916
 30
0.0
 40
0.3487909158676593
100
AcDbArc
 50
109.3290905225
 51
120.5730265585
  0
LINE
  5
24E
330
1F
100
AcDbEntity
  8
0
  6
Continuous
 62
   144
370
    18
100
AcDbLine
 10
30.8026960245
 20
37.9219862294
 30
0.0
 11
31.0961863268
 21
37.9219862294
 31
0.0
  0
ARC
  5
24F
330
1F
100
AcDbEntity
  8
0
  6
Continuous
 62
     7
370
    25
100
AcDbCircle
 10
37.6236271438
 20
38.0119188257
 30
0.0
 40
0.1095961551691882
100
AcDbArc
 50
235.1430638682
 51
304.8569361318
  0
LWPOLYLINE
  5
250
330
1F
100
AcDbEntity
  8
0
  6
Continuous
 62
   144
370
    18
100
AcDbPolyline
 90
        9
 70
   128
 43
0.0
 10
37.6813141446
 20
37.9949061833
 10
37.6887643364
 20
37.9837182903
 10
37.6961343399
 20
37.9739991789
 10
37.7033448301
 20
37.9658534584
 10
37.7103181986
 20
37.9593688032
 10
37.7169793893
 20
37.9546150093
 10
37.7232567062
 20
37.9516432428
 10
37.7290825851
 20
37.9504854896
 10
37.7343943205
 20
37.951154211
  0
ARC
  5
251
330
1F
100
AcDbEntity
  8
0
  6
Continuous
 62
   144
370
    18
100
AcDbCircle
 10
37.7697811045
 20
37.8384696805
 30
0.0
 40
0.1181102362205375
100
AcDbArc
 50
107.4340664825
 51
135.0
  0
LINE
  5
252
330
1F
100
AcDbEntity
  8
0
  6
Continuous
 62
     7
370
    25
100
AcDbLine
 10
37.6512611186
 20
37.8869827925
 30
0.0
 11
37.6862645555
 21
37.9219862294
 31
0.0
  0
ELLIPSE
  5
253
330
1F
100
AcDbEntity
  8
0
  6
Continuous
 62
   144
370
    18
100
AcDbEllipse
 10
37.4703085959
 20
37.9565799167
 30
0.0
 11
0.1845913298890807
 21
-0.06392779621987899
 31
0.0
210
0.0
220
0.0
230
1.0
 40
0.2638200976
 41
5.108588891199055
 42
6.155786442394727
  0
ARC
  5
254
330
1F
100
AcDbEntity
  8
0
  6
Continuous
 62
   144
370
    18
100
AcDbCircle
 10
30.1960180432
 20
37.8518737316
 30
0.0
 40
0.4114760641356906
100
AcDbArc
 50
165.2581240904
 51
182.1410420172
  0
ARC
  5
255
330
1F
100
AcDbEntity
  8
0
  6
Continuous
 62
   144
370
    18
100
AcDbCircle
 10
28.9833353724
 20
37.8523320401
 30
0.0
 40
0.7701962349040462
100
AcDbArc
 50
358.8222409961
 51
7.7789955341
  0
LINE
  5
256
330
1F
100
AcDbEntity
  8
0
  6
Continuous
 62
     7
370
    25
100
AcDbLine
 10
31.0961863268
 20
37.8581547198
 30
0.0
 11
31.0961863268
 21
37.8869827925
 31
0.0
  0
LINE
  5
257
330
1F
100
AcDbEntity
  8
0
  6
Continuous
 62
     7
370
    25
100
AcDbLine
 10
31.0961863268
 20
37.8581547198
 30
0.0
 11
37.5259862952
 21
37.8581547198
 31
0.0
  0
LINE
  5
258
330
1F
100
AcDbEntity
  8
0
  6
Continuous
 62
   144
370
    18
100
AcDbLine
 10
37.5259862952
 20
37.8869827925
 30
0.0
 11
37.5259862952
 21
37.8581547198
 31
0.0
  0
LINE
  5
259
330
1F
100
AcDbEntity
  8
0
  6
Continuous
 62
   144
370
    18
100
AcDbLine
 10
30.9072965855
 20
37.8581547198
 30
0.0
 11
31.0961863268
 21
37.8581547198
 31
0.0
  0
ARC
  5
25A
330
1F
100
AcDbEntity
  8
0
  6
Continuous
 62
     7
370
    25
100
AcDbCircle
 10
30.9072965855
 20
37.9565799167
 30
0.0
 40
0.0984251968503997
100
AcDbArc
 50
225.0
 51
270.0
  0
LINE
  5
25B
330
1F
100
AcDbEntity
  8
0
  6
Continuous
 62
   144
370
    18
100
AcDbLine
 10
31.0961863268
 20
37.8869827925
 30
0.0
 11
30.8376994614
 21
37.8869827925
 31
0.0
  0
LINE
  5
25C
330
1F
100
AcDbEntity
  8
0
  6
Continuous
 62
   144
370
    18
100
AcDbLine
 10
37.5816639945
 20
37.8581547198
 30
0.0
 11
37.5259862952
 21
37.8581547198
 31
0.0
  0
LINE
  5
25D
330
1F
100
AcDbEntity
  8
0
  6
Continuous
 62
   144
370
    18
100
AcDbLine
 10
12.1224330459
 20
38.0943751923
 30
0.0
 11
12.1224330459
 21
37.8384696805
 31
0.0
  0
LINE
  5
25E
330
1F
100
AcDbEntity
  8
0
  6
Continuous
 62
   144
370
    18
100
AcDbLine
 10
28.8907884698
 20
37.9565799167
 30
0.0
 11
28.7995984003
 21
38.0477699862
 31
0.0
  0
ARC
  5
25F
330
1F
100
AcDbEntity
  8
0
  6
Continuous
 62
   144
370
    18
100
AcDbCircle
 10
37.5816639945
 20
37.9565799167
 30
0.0
 40
0.0984251968503997
100
AcDbArc
 50
270.0
 51
315.0
  0
LINE
  5
260
330
1F
100
AcDbEntity
  8
0
  6
Continuous
 62
   144
370
    18
100
AcDbLine
 10
38.7366062743
 20
37.9290208616
 30
0.0
 11
38.5948739908
 21
37.9290208616
 31
0.0
  0
LINE
  5
261
330
1F
100
AcDbEntity
  8
0
  6
Continuous
 62
   144
370
    18
100
AcDbLine
 10
38.7366062743
 20
37.9290208616
 30
0.0
 11
38.8232204475
 21
37.9290208616
 31
0.0
  0
LINE
  5
262
330
1F
100
AcDbEntity
  8
0
  6
Continuous
 62
   144
370
    18
100
AcDbLine
 10
38.4767637546
 20
37.9290208616
 30
0.0
 11
38.5948739908
 21
37.9290208616
 31
0.0
  0
LINE
  5
263
330
1F
100
AcDbEntity
  8
0
  6
Continuous
 62
   144
370
    18
100
AcDbLine
 10
38.4058976129
 20
37.9368948773
 30
0.0
 11
38.4058976129
 21
37.9565799167
 31
0.0
  0
LINE
  5
264
330
1F
100
AcDbEntity
  8
0
  6
Continuous
 62
     7
370
    25
100
AcDbLine
 10
38.3665275341
 20
37.8620917277
 30
0.0
 11
38.3665275341
 21
37.8384696805
 31
0.0
  0
LINE
  5
265
330
1F
100
AcDbEntity
  8
0
  6
Continuous
 62
   144
370
    18
100
AcDbLine
 10
38.4452676916
 20
37.8620917277
 30
0.0
 11
38.3665275341
 21
37.8620917277
 31
0.0
  0
LINE
  5
266
330
1F
100
AcDbEntity
  8
0
  6
Continuous
 62
   144
370
    18
100
AcDbLine
 10
12.4216456443
 20
37.8384696805
 30
0.0
 11
12.4216456443
 21
38.0943751923
 31
0.0
  0
LINE
  5
267
330
1F
100
AcDbEntity
  8
0
  6
Continuous
 62
   144
370
    18
100
AcDbLine
 10
38.4452676916
 20
37.8620917277
 30
0.0
 11
38.4767637546
 21
37.8620917277
 31
0.0
  0
LINE
  5
268
330
1F
100
AcDbEntity
  8
0
  6
Continuous
 62
   144
370
    18
100
AcDbLine
 10
38.4767637546
 20
37.8620917277
 30
0.0
 11
38.4767637546
 21
37.9290208616
 31
0.0
  0
LINE
  5
269
330
1F
100
AcDbEntity
  8
0
  6
Continuous
 62
   144
370
    18
100
AcDbLine
 10
30.8376994614
 20
37.8869827925
 30
0.0
 11
30.8026960245
 21
37.9219862294
 31
0.0
  0
LINE
  5
26A
330
1F
100
AcDbEntity
  8
0
  6
Continuous
 62
   144
370
    18
100
AcDbLine
 10
38.3665275341
 20
37.8620917277
 30
0.0
 11
38.3665275341
 21
37.9290208616
 31
0.0
  0
LINE
  5
26B
330
1F
100
AcDbEntity
  8
0
  6
Continuous
 62
   144
370
    18
100
AcDbLine
 10
28.7326692664
 20
37.9841389718
 30
0.0
 11
28.7799133609
 21
37.9841389718
 31
0.0
  0
LINE
  5
26C
330
1F
100
AcDbEntity
  8
0
  6
Continuous
 62
   144
370
    18
100
AcDbLine
 10
28.7799133609
 20
37.9841389718
 30
0.0
 11
28.7995984003
 21
37.9841389718
 31
0.0
  0
LINE
  5
26D
330
1F
100
AcDbEntity
  8
0
  6
Continuous
 62
     7
370
    25
100
AcDbLine
 10
28.7326692664
 20
38.0943751923
 30
0.0
 11
28.7326692664
 21
37.8620917277
 31
0.0
  0
LINE
  5
26E
330
1F
100
AcDbEntity
  8
0
  6
Continuous
 62
   144
370
    18
100
AcDbLine
 10
12.4688897388
 20
38.0943751923
 30
0.0
 11
12.4688897388
 21
37.8384696805
 31
0.0
  0
LINE
  5
26F
330
1F
100
AcDbEntity
  8
0
  6
Continuous
 62
   144
370
    18
100
AcDbLine
 10
38.2877873766
 20
37.9368948773
 30
0.0
 11
38.2877873766
 21
37.8384696805
 31
0.0
  0
LINE
  5
270
330
1F
100
AcDbEntity
  8
0
  6
Continuous
 62
   144
370
    18
100
AcDbLine
 10
28.9177086365
 20
37.9565799167
 30
0.0
 11
28.9177086365
 21
37.8620917277
 31
0.0
  0
LINE
  5
271
330
1F
100
AcDbEntity
  8
0
  6
Continuous
 62
   144
370
    18
100
AcDbLine
 10
12.4413306837
 20
37.8384696805
 30
0.0
 11
12.4413306837
 21
38.0943751923
 31
0.0
  0
LINE
  5
272
330
1F
100
AcDbEntity
  8
0
  6
Continuous
 62
   144
370
    18
100
AcDbLine
 10
38.2877873766
 20
37.8620917277
 30
0.0
 11
38.3665275341
 21
37.8620917277
 31
0.0
  0
LINE
  5
273
330
1F
100
AcDbEntity
  8
0
  6
Continuous
 62
   144
370
    18
100
AcDbLine
 10
33.0503808764
 20
38.010773805
 30
0.0
 11
33.1548826105
 21
38.0943751923
 31
0.0
  0
ARC
  5
274
330
1F
100
AcDbEntity
  8
0
  6
Continuous
 62
   144
370
    18
100
AcDbCircle
 10
32.9520037035
 20
38.133745271
 30
0.0
 40
0.1574803149606791
100
AcDbArc
 50
270.0
 51
308.6598082541
  0
LINE
  5
275
330
1F
100
AcDbEntity
  8
0
  6
Continuous
 62
   144
370
    18
100
AcDbLine
 10
30.7484172979
 20
37.9762649561
 30
0.0
 11
32.9520037035
 21
37.9762649561
 31
0.0
  0
LINE
  5
276
330
1F
100
AcDbEntity
  8
0
  6
Continuous
 62
   144
370
    18
100
AcDbLine
 10
30.7484172979
 20
37.9762649561
 30
0.0
 11
30.7484172979
 21
38.0943751923
 31
0.0
  0
LINE
  5
277
330
1F
100
AcDbEntity
  8
0
  6
Continuous
 62
   144
370
    18
100
AcDbLine
 10
38.3558545143
 20
37.9762649561
 30
0.0
 11
38.8232204475
 21
37.9762649561
 31
0.0
  0
ARC
  5
278
330
1F
100
AcDbEntity
  8
0
  6
Continuous
 62
   144
370
    18
100
AcDbCircle
 10
38.3558545143
 20
38.133745271
 30
0.0
 40
0.1574803149606791
100
AcDbArc
 50
231.3401917459
 51
270.0
  0
LINE
  5
279
330
1F
100
AcDbEntity
  8
0
  6
Continuous
 62
   144
370
    18
100
AcDbLine
 10
38.1529756073
 20
38.0943751923
 30
0.0
 11
38.2574773415
 21
38.010773805
 31
0.0
  0
LINE
  5
27A
330
1F
100
AcDbEntity
  8
0
  6
Continuous
 62
   144
370
    18
100
AcDbLine
 10
12.0043228097
 20
38.0943751923
 30
0.0
 11
12.0043228097
 21
37.8384696805
 31
0.0
  0
LINE
  5
27B
330
1F
100
AcDbEntity
  8
0
  6
Continuous
 62
   144
370
    18
100
AcDbLine
 10
37.7001839803
 20
37.9080668046
 30
0.0
 11
37.6651805435
 21
37.8730633677
 31
0.0
  0
LINE
  5
27C
330
1F
100
AcDbEntity
  8
0
  6
Continuous
 62
   144
370
    18
100
AcDbLine
 10
31.9132026267
 20
37.8778397592
 30
0.0
 11
31.7872183747
 21
37.8778397592
 31
0.0
  0
LINE
  5
27D
330
1F
100
AcDbEntity
  8
0
  6
Continuous
 62
   144
370
    18
100
AcDbLine
 10
12.4807007625
 20
15.3975247986
 30
0.0
 11
12.4807007625
 21
15.5353200742
 31
0.0
  0
LINE
  5
27E
330
1F
100
AcDbEntity
  8
0
  6
Continuous
 62
   144
370
    18
100
AcDbLine
 10
38.307472416
 20
15.5353200742
 30
0.0
 11
38.307472416
 21
15.3975247986
 31
0.0
  0
CIRCLE
  5
27F
330
1F
100
AcDbEntity
  8
0
  6
Continuous
 62
   144
370
    18
100
AcDbCircle
 10
37.5988109987
 20
15.0235090505
 30
0.0
 40
0.0610236220472373
  0
LINE
  5
280
330
1F
100
AcDbEntity
  8
0
  6
Continuous
 62
   144
370
    18
100
AcDbLine
 10
38.1893621798
 20
14.8857137749
 30
0.0
 11
38.1893621798
 21
15.1573673183
 31
0.0
  0
LINE
  5
281
330
1F
100
AcDbEntity
  8
0
  6
Continuous
 62
   144
370
    18
100
AcDbLine
 10
38.1787594128
 20
14.8857137749
 30
0.0
 11
38.1893621798
 21
14.8857137749
 31
0.0
  0
CIRCLE
  5
282
330
1F
100
AcDbEntity
  8
0
  6
Continuous
 62
     7
370
    25
100
AcDbCircle
 10
26.5751889514
 20
14.9447688931
 30
0.0
 40
0.0807086614173222
  0
CIRCLE
  5
283
330
1F
100
AcDbEntity
  8
0
  6
Continuous
 62
   144
370
    18
100
AcDbCircle
 10
26.5751889514
 20
14.9447688931
 30
0.0
 40
0.0610236220472462
  0
CIRCLE
  5
284
330
1F
100
AcDbEntity
  8
0
  6
Continuous
 62
     7
370
    25
100
AcDbCircle
 10
19.8822755656
 20
14.9447688931
 30
0.0
 40
0.0807086614173222
  0
CIRCLE
  5
285
330
1F
100
AcDbEntity
  8
0
  6
Continuous
 62
   144
370
    18
100
AcDbCircle
 10
19.8822755656
 20
14.9447688931
 30
0.0
 40
0.0610236220472462
  0
CIRCLE
  5
286
330
1F
100
AcDbEntity
  8
0
  6
Continuous
 62
     7
370
    25
100
AcDbCircle
 10
37.5988109987
 20
15.0235090505
 30
0.0
 40
0.0807086614173222
  0
LINE
  5
287
330
1F
100
AcDbEntity
  8
0
  6
Continuous
 62
     7
370
    25
100
AcDbLine
 10
37.8547165105
 20
15.259729523
 30
0.0
 11
37.8523721167
 21
15.259729523
 31
0.0
  0
LINE
  5
288
330
1F
100
AcDbEntity
  8
0
  6
Continuous
 62
     7
370
    25
100
AcDbLine
 10
37.8464570822
 20
15.259729523
 30
0.0
 11
37.1618031247
 21
15.259729523
 31
0.0
  0
CIRCLE
  5
289
330
1F
100
AcDbEntity
  8
0
  6
Continuous
 62
   144
370
    18
100
AcDbCircle
 10
32.0869999751
 20
14.9447688931
 30
0.0
 40
0.0807086614173222
  0
CIRCLE
  5
28A
330
1F
100
AcDbEntity
  8
0
  6
Continuous
 62
   144
370
    18
100
AcDbCircle
 10
13.1893621798
 20
14.9447688931
 30
0.0
 40
0.0807086614173222
  0
ARC
  5
28B
330
1F
100
AcDbEntity
  8
0
  6
Continuous
 62
   144
370
    18
100
AcDbCircle
 10
38.2877873766
 20
37.854217712
 30
0.0
 40
0.0196850393700828
100
AcDbArc
 50
180.0
 51
233.1301023541
  0
LINE
  5
28C
330
1F
100
AcDbEntity
  8
0
  6
Continuous
 62
   144
370
    18
100
AcDbLine
 10
38.2681023373
 20
37.854217712
 30
0.0
 11
38.2681023373
 21
37.8620917277
 31
0.0
  0
LINE
  5
28D
330
1F
100
AcDbEntity
  8
0
  6
Continuous
 62
   144
370
    18
100
AcDbLine
 10
38.2681023373
 20
37.8620917277
 30
0.0
 11
37.6092230496
 21
37.8620917277
 31
0.0
  0
LINE
  5
28E
330
1F
100
AcDbEntity
  8
0
  6
Continuous
 62
   144
370
    18
100
AcDbLine
 10
30.8797375304
 20
37.8620917277
 30
0.0
 11
30.2946718177
 21
37.8620917277
 31
0.0
  0
LINE
  5
28F
330
1F
100
AcDbEntity
  8
0
  6
Continuous
 62
   144
370
    18
100
AcDbLine
 10
29.7861031126
 20
37.8620917277
 30
0.0
 11
29.7527034996
 21
37.8620917277
 31
0.0
  0
LINE
  5
290
330
1F
100
AcDbEntity
  8
0
  6
Continuous
 62
   144
370
    18
100
AcDbLine
 10
29.2265112488
 20
37.8620917277
 30
0.0
 11
12.5200708412
 21
37.8620917277
 31
0.0
  0
LINE
  5
291
330
1F
100
AcDbEntity
  8
0
  6
Continuous
 62
   144
370
    18
100
AcDbLine
 10
12.5200708412
 20
37.854217712
 30
0.0
 11
12.5200708412
 21
37.8620917277
 31
0.0
  0
ARC
  5
292
330
1F
100
AcDbEntity
  8
0
  6
Continuous
 62
   144
370
    18
100
AcDbCircle
 10
12.5003858018
 20
37.854217712
 30
0.0
 40
0.0196850393700778
100
AcDbArc
 50
306.8698976459
 51
0.0
  0
LINE
  5
293
330
1F
100
AcDbEntity
  8
0
  6
Continuous
 62
   144
370
    18
100
AcDbLine
 10
12.5003858018
 20
15.5353200742
 30
0.0
 11
12.5003858018
 21
15.3975247986
 31
0.0
  0
LINE
  5
294
330
1F
100
AcDbEntity
  8
0
  6
Continuous
 62
   144
370
    18
100
AcDbLine
 10
37.8547165105
 20
15.2794145624
 30
0.0
 11
37.1618031247
 21
15.2794145624
 31
0.0
  0
LINE
  5
295
330
1F
100
AcDbEntity
  8
0
  6
Continuous
 62
   144
370
    18
100
AcDbLine
 10
38.2877873766
 20
15.5353200742
 30
0.0
 11
38.2877873766
 21
15.3975247986
 31
0.0
  0
ARC
  5
296
330
1F
100
AcDbEntity
  8
0
  6
Continuous
 62
   144
370
    18
100
AcDbCircle
 10
37.5988109987
 20
15.5746901529
 30
0.0
 40
0.1635459024745689
100
AcDbArc
 50
270.0
 51
346.0704882537
  0
LINE
  5
297
330
1F
100
AcDbEntity
  8
0
  6
Continuous
 62
   144
370
    18
100
AcDbLine
 10
37.5988109987
 20
15.4111442504
 30
0.0
 11
13.1893621798
 21
15.4111442504
 31
0.0
  0
ARC
  5
298
330
1F
100
AcDbEntity
  8
0
  6
Continuous
 62
   144
370
    18
100
AcDbCircle
 10
13.1893621798
 20
15.5746901529
 30
0.0
 40
0.1635459024745689
100
AcDbArc
 50
193.9295117463
 51
270.0
  0
LINE
  5
299
330
1F
100
AcDbEntity
  8
0
  6
Continuous
 62
     7
370
    25
100
AcDbLine
 10
37.5988109987
 20
15.4111442504
 30
0.0
 11
37.5988109987
 21
15.4659755511
 31
0.0
  0
ARC
  5
29A
330
1F
100
AcDbEntity
  8
0
  6
Continuous
 62
   144
370
    18
100
AcDbCircle
 10
37.5988109987
 20
15.5746901529
 30
0.0
 40
0.1087146018317302
100
AcDbArc
 50
270.0
 51
338.7682232343
  0
LINE
  5
29B
330
1F
100
AcDbEntity
  8
0
  6
Continuous
 62
     7
370
    25
100
AcDbLine
 10
13.1893621798
 20
15.4659755511
 30
0.0
 11
13.1893621798
 21
15.4111442504
 31
0.0
  0
ARC
  5
29C
330
1F
100
AcDbEntity
  8
0
  6
Continuous
 62
   144
370
    18
100
AcDbCircle
 10
13.1893621798
 20
15.5746901529
 30
0.0
 40
0.1087146018317306
100
AcDbArc
 50
201.2317767657
 51
270.0
  0
LINE
  5
29D
330
1F
100
AcDbEntity
  8
0
  6
Continuous
 62
     7
370
    25
100
AcDbLine
 10
37.5988109987
 20
15.4659755511
 30
0.0
 11
13.1893621798
 21
15.4659755511
 31
0.0
  0
LINE
  5
29E
330
1F
100
AcDbEntity
  8
0
  6
Continuous
 62
     7
370
    25
100
AcDbLine
 10
13.1893621798
 20
15.4677735358
 30
0.0
 11
37.5988109987
 21
15.4677735358
 31
0.0
  0
LINE
  5
29F
330
1F
100
AcDbEntity
  8
0
  6
Continuous
 62
   144
370
    18
100
AcDbLine
 10
37.5988109987
 20
15.4677735358
 30
0.0
 11
37.5988109987
 21
15.4659755511
 31
0.0
  0
LINE
  5
2A0
330
1F
100
AcDbEntity
  8
0
  6
Continuous
 62
   144
370
    18
100
AcDbLine
 10
13.1893621798
 20
15.4677735358
 30
0.0
 11
13.1893621798
 21
15.4659755511
 31
0.0
  0
LINE
  5
2A1
330
1F
100
AcDbEntity
  8
0
  6
Continuous
 62
     7
370
    25
100
AcDbLine
 10
37.5988109987
 20
15.4677735358
 30
0.0
 11
37.5988109987
 21
15.5226048364
 31
0.0
  0
ARC
  5
2A2
330
1F
100
AcDbEntity
  8
0
  6
Continuous
 62
   144
370
    18
100
AcDbCircle
 10
37.5988109987
 20
15.5746901529
 30
0.0
 40
0.1069166171220914
100
AcDbArc
 50
270.0
 51
338.393402245
  0
LINE
  5
2A3
330
1F
100
AcDbEntity
  8
0
  6
Continuous
 62
     7
370
    25
100
AcDbLine
 10
13.1893621798
 20
15.4677735358
 30
0.0
 11
13.1893621798
 21
15.5226048364
 31
0.0
  0
ARC
  5
2A4
330
1F
100
AcDbEntity
  8
0
  6
Continuous
 62
   144
370
    18
100
AcDbCircle
 10
13.1893621798
 20
15.5746901529
 30
0.0
 40
0.1069166171220881
100
AcDbArc
 50
201.606597755
 51
270.0
  0
CIRCLE
  5
2A5
330
1F
100
AcDbEntity
  8
0
  6
Continuous
 62
   144
370
    18
100
AcDbCircle
 10
32.0869999751
 20
14.9447688931
 30
0.0
 40
0.0610236220472462
  0
ARC
  5
2A6
330
1F
100
AcDbEntity
  8
0
  6
Continuous
 62
   144
370
    18
100
AcDbCircle
 10
13.1893621798
 20
15.5746901529
 30
0.0
 40
0.0520853164792572
100
AcDbArc
 50
229.1020356414
 51
270.0
  0
LINE
  5
2A7
330
1F
100
AcDbEntity
  8
0
  6
Continuous
 62
   144
370
    18
100
AcDbLine
 10
37.5988109987
 20
15.5226048364
 30
0.0
 11
13.1893621798
 21
15.5226048364
 31
0.0
  0
ARC
  5
2A8
330
1F
100
AcDbEntity
  8
0
  6
Continuous
 62
   144
370
    18
100
AcDbCircle
 10
37.5988109987
 20
15.5746901529
 30
0.0
 40
0.0520853164792619
100
AcDbArc
 50
270.0
 51
310.8979643586
  0
LINE
  5
2A9
330
1F
100
AcDbEntity
  8
0
  6
Continuous
 62
   144
370
    18
100
AcDbLine
 10
12.5082598176
 20
15.1573673183
 30
0.0
 11
12.5082598176
 21
14.8857137749
 31
0.0
  0
LINE
  5
2AA
330
1F
100
AcDbEntity
  8
0
  6
Continuous
 62
   144
370
    18
100
AcDbLine
 10
12.5082598176
 20
14.8069736175
 30
0.0
 11
12.5082598176
 21
14.8857137749
 31
0.0
  0
LINE
  5
2AB
330
1F
100
AcDbEntity
  8
0
  6
Continuous
 62
   144
370
    18
100
AcDbLine
 10
12.5279448569
 20
15.1573673183
 30
0.0
 11
12.5279448569
 21
14.8857137749
 31
0.0
  0
LINE
  5
2AC
330
1F
100
AcDbEntity
  8
0
  6
Continuous
 62
   144
370
    18
100
AcDbLine
 10
12.5279448569
 20
14.8857137749
 30
0.0
 11
12.5082598176
 21
14.8857137749
 31
0.0
  0
LINE
  5
2AD
330
1F
100
AcDbEntity
  8
0
  6
Continuous
 62
   144
370
    18
100
AcDbLine
 10
38.2799133609
 20
14.8857137749
 30
0.0
 11
38.2799133609
 21
14.8069736175
 31
0.0
  0
LINE
  5
2AE
330
1F
100
AcDbEntity
  8
0
  6
Continuous
 62
   144
370
    18
100
AcDbLine
 10
38.2799133609
 20
15.1573673183
 30
0.0
 11
38.2799133609
 21
14.8857137749
 31
0.0
  0
LINE
  5
2AF
330
1F
100
AcDbEntity
  8
0
  6
Continuous
 62
   144
370
    18
100
AcDbLine
 10
38.2602283215
 20
14.8857137749
 30
0.0
 11
38.2602283215
 21
15.1573673183
 31
0.0
  0
LINE
  5
2B0
330
1F
100
AcDbEntity
  8
0
  6
Continuous
 62
   144
370
    18
100
AcDbLine
 10
38.2799133609
 20
14.8857137749
 30
0.0
 11
38.2602283215
 21
14.8857137749
 31
0.0
  0
CIRCLE
  5
2B1
330
1F
100
AcDbEntity
  8
0
  6
Continuous
 62
   144
370
    18
100
AcDbCircle
 10
13.1893621798
 20
14.9447688931
 30
0.0
 40
0.0610236220472444
  0
LINE
  5
2B2
330
1F
100
AcDbEntity
  8
0
  6
Continuous
 62
   144
370
    18
100
AcDbLine
 10
28.9373936758
 20
38.0195720427
 30
0.0
 11
29.0335723361
 21
38.0195720427
 31
0.0
  0
LINE
  5
2B3
330
1F
100
AcDbEntity
  8
0
  6
Continuous
 62
   144
370
    18
100
AcDbLine
 10
28.8586535184
 20
38.0195720427
 30
0.0
 11
28.9373936758
 21
38.0195720427
 31
0.0
  0
LINE
  5
2B4
330
1F
100
AcDbEntity
  8
0
  6
Continuous
 62
   144
370
    18
100
AcDbLine
 10
28.838968479
 20
38.0195720427
 30
0.0
 11
28.8586535184
 21
38.0195720427
 31
0.0
  0
LINE
  5
2B5
330
1F
100
AcDbEntity
  8
0
  6
Continuous
 62
   144
370
    18
100
AcDbLine
 10
28.838968479
 20
38.0195720427
 30
0.0
 11
28.681488164
 21
38.0195720427
 31
0.0
  0
LINE
  5
2B6
330
1F
100
AcDbEntity
  8
0
  6
Continuous
 62
   144
370
    18
100
AcDbLine
 10
28.6027480066
 20
38.0195720427
 30
0.0
 11
28.681488164
 21
38.0195720427
 31
0.0
  0
ARC
  5
2B7
330
1F
100
AcDbEntity
  8
0
  6
Continuous
 62
   144
370
    18
100
AcDbCircle
 10
30.4961756255
 20
38.1534303104
 30
0.0
 40
0.1338582677165405
100
AcDbArc
 50
206.1789686994
 51
270.0
  0
LINE
  5
2B8
330
1F
100
AcDbEntity
  8
0
  6
Continuous
 62
   144
370
    18
100
AcDbLine
 10
30.4961756255
 20
38.0195720427
 30
0.0
 11
30.7484172979
 21
38.0195720427
 31
0.0
  0
LINE
  5
2B9
330
1F
100
AcDbEntity
  8
0
  6
Continuous
 62
   144
370
    18
100
AcDbLine
 10
28.9373936758
 20
37.9565799167
 30
0.0
 11
28.9373936758
 21
38.0195720427
 31
0.0
  0
ARC
  5
2BA
330
1F
100
AcDbEntity
  8
0
  6
Continuous
 62
   144
370
    18
100
AcDbCircle
 10
29.0335723361
 20
38.1534303104
 30
0.0
 40
0.1338582677165405
100
AcDbArc
 50
270.0
 51
333.8210313006
  0
LINE
  5
2BB
330
1F
100
AcDbEntity
  8
0
  6
Continuous
 62
   144
370
    18
100
AcDbLine
 10
30.542070415
 20
37.9565799167
 30
0.0
 11
30.4963123225
 21
37.9565799167
 31
0.0
  0
ARC
  5
2BC
330
1F
100
AcDbEntity
  8
0
  6
Continuous
 62
   144
370
    18
100
AcDbCircle
 10
30.4963123225
 20
38.1534303104
 30
0.0
 40
0.1968503937008278
100
AcDbArc
 50
199.2594143326
 51
270.0
  0
ARC
  5
2BD
330
1F
100
AcDbEntity
  8
0
  6
Continuous
 62
   144
370
    18
100
AcDbCircle
 10
29.0358412149
 20
38.1534303104
 30
0.0
 40
0.196850393700817
100
AcDbArc
 50
270.0
 51
340.7405856592
  0
LWPOLYLINE
  5
2BE
330
1F
100
AcDbEntity
  8
0
  6
Continuous
 62
   144
370
    18
100
AcDbPolyline
 90
        2
 70
   128
 43
0.0
 10
30.7285420764
 20
38.0195720427
 10
30.7285420764
 20
38.0195720427
  0
LINE
  5
2BF
330
1F
100
AcDbEntity
  8
0
  6
Continuous
 62
   144
370
    18
100
AcDbLine
 10
30.7484172979
 20
38.0116980269
 30
0.0
 11
30.56501211
 21
38.0116980269
 31
0.0
  0
LINE
  5
2C0
330
1F
100
AcDbEntity
  8
0
  6
Continuous
 62
     7
370
    25
100
AcDbLine
 10
11.8507795026
 20
37.8384696805
 30
0.0
 11
11.8507795026
 21
38.0943751923
 31
0.0
  0
LINE
  5
2C1
330
1F
100
AcDbEntity
  8
0
  6
Continuous
 62
     7
370
    25
100
AcDbLine
 10
38.9216456443
 20
38.0943751923
 30
0.0
 11
38.9216456443
 21
37.8384696805
 31
0.0
  0
LINE
  5
2C2
330
1F
100
AcDbEntity
  8
0
  6
Continuous
 62
     7
370
    25
100
AcDbLine
 10
38.8232204475
 20
37.8384696805
 30
0.0
 11
38.8232204475
 21
38.0943751923
 31
0.0
  0
LINE
  5
2C3
330
1F
100
AcDbEntity
  8
0
  6
Continuous
 62
   144
370
    18
100
AcDbLine
 10
11.6539291089
 20
38.0943751923
 30
0.0
 11
11.6539291089
 21
37.8384696805
 31
0.0
  0
LINE
  5
2C4
330
1F
100
AcDbEntity
  8
0
  6
Continuous
 62
   144
370
    18
100
AcDbLine
 10
39.275976353
 20
37.8384696805
 30
0.0
 11
39.275976353
 21
38.0943751923
 31
0.0
  0
LINE
  5
2C5
330
1F
100
AcDbEntity
  8
0
  6
Continuous
 62
     7
370
    25
100
AcDbLine
 10
11.9492046995
 20
38.0943751923
 30
0.0
 11
11.9492046995
 21
37.8384696805
 31
0.0
  0
LINE
  5
2C6
330
1F
100
AcDbEntity
  8
0
  6
Continuous
 62
     7
370
    25
100
AcDbLine
 10
28.838968479
 20
38.0943751923
 30
0.0
 11
28.838968479
 21
38.0825641687
 31
0.0
  0
ARC
  5
2C7
330
1F
100
AcDbEntity
  8
0
  6
Continuous
 62
   144
370
    18
100
AcDbCircle
 10
29.0764281803
 20
38.2794145624
 30
0.0
 40
0.1968503937007853
100
AcDbArc
 50
270.0
 51
289.9484435971
  0
LINE
  5
2C8
330
1F
100
AcDbEntity
  8
0
  6
Continuous
 62
   144
370
    18
100
AcDbLine
 10
29.0173730622
 20
38.0825641687
 30
0.0
 11
29.0764281803
 21
38.0825641687
 31
0.0
  0
LINE
  5
2C9
330
1F
100
AcDbEntity
  8
0
  6
Continuous
 62
   144
370
    18
100
AcDbLine
 10
29.0173730622
 20
38.0825641687
 30
0.0
 11
29.0173730622
 21
38.0943751923
 31
0.0
  0
ARC
  5
2CA
330
1F
100
AcDbEntity
  8
0
  6
Continuous
 62
   144
370
    18
100
AcDbCircle
 10
28.9583179441
 20
38.102249208
 30
0.0
 40
0.0196850393700814
100
AcDbArc
 50
270.0
 51
336.4218215526
  0
LINE
  5
2CB
330
1F
100
AcDbEntity
  8
0
  6
Continuous
 62
   144
370
    18
100
AcDbLine
 10
28.838968479
 20
38.0825641687
 30
0.0
 11
28.9583179441
 21
38.0825641687
 31
0.0
  0
LINE
  5
2CC
330
1F
100
AcDbEntity
  8
0
  6
Continuous
 62
   144
370
    18
100
AcDbLine
 10
30.5542646832
 20
38.0825641687
 30
0.0
 11
30.7484172979
 21
38.0825641687
 31
0.0
  0
ARC
  5
2CD
330
1F
100
AcDbEntity
  8
0
  6
Continuous
 62
   144
370
    18
100
AcDbCircle
 10
30.5542646832
 20
38.102249208
 30
0.0
 40
0.019685039370083
100
AcDbArc
 50
203.5781784474
 51
270.0
  0
ARC
  5
2CE
330
1F
100
AcDbEntity
  8
0
  6
Continuous
 62
   144
370
    18
100
AcDbCircle
 10
38.4809313902
 20
38.1534303104
 30
0.0
 40
0.1968503937007924
100
AcDbArc
 50
244.1580672368
 51
270.0
  0
LINE
  5
2CF
330
1F
100
AcDbEntity
  8
0
  6
Continuous
 62
   144
370
    18
100
AcDbLine
 10
38.7641653294
 20
37.9762649561
 30
0.0
 11
38.7641653294
 21
37.9565799167
 31
0.0
  0
ARC
  5
2D0
330
1F
100
AcDbEntity
  8
0
  6
Continuous
 62
   144
370
    18
100
AcDbCircle
 10
38.8822755656
 20
14.7479184994
 30
0.0
 40
0.1181102362204811
100
AcDbArc
 50
318.1191233131
 51
0.0
  0
ARC
  5
2D1
330
1F
100
AcDbEntity
  8
0
  6
Continuous
 62
   144
370
    18
100
AcDbCircle
 10
11.9058976129
 20
14.7479184994
 30
0.0
 40
0.118110236220474
100
AcDbArc
 50
180.0
 51
221.8808766869
  0
LINE
  5
2D2
330
1F
100
AcDbEntity
  8
0
  6
Continuous
 62
     7
370
    25
100
AcDbLine
 10
11.7877873766
 20
15.5353200742
 30
0.0
 11
11.7877873766
 21
15.4565799167
 31
0.0
  0
LINE
  5
2D3
330
1F
100
AcDbEntity
  8
0
  6
Continuous
 62
     7
370
    25
100
AcDbLine
 10
11.7877873766
 20
15.1573673183
 30
0.0
 11
11.7877873766
 21
14.9666436849
 31
0.0
  0
LINE
  5
2D4
330
1F
100
AcDbEntity
  8
0
  6
Continuous
 62
   144
370
    18
100
AcDbLine
 10
11.7877873766
 20
14.7479184994
 30
0.0
 11
11.7877873766
 21
14.9272736062
 31
0.0
  0
LINE
  5
2D5
330
1F
100
AcDbEntity
  8
0
  6
Continuous
 62
   144
370
    18
100
AcDbLine
 10
11.7877873766
 20
14.9666436849
 30
0.0
 11
11.7877873766
 21
14.9272736062
 31
0.0
  0
LINE
  5
2D6
330
1F
100
AcDbEntity
  8
0
  6
Continuous
 62
     7
370
    25
100
AcDbLine
 10
39.0003858018
 20
15.5353200742
 30
0.0
 11
39.0003858018
 21
15.4565799167
 31
0.0
  0
LINE
  5
2D7
330
1F
100
AcDbEntity
  8
0
  6
Continuous
 62
     7
370
    25
100
AcDbLine
 10
39.0003858018
 20
15.1573673183
 30
0.0
 11
39.0003858018
 21
14.9666436849
 31
0.0
  0
LINE
  5
2D8
330
1F
100
AcDbEntity
  8
0
  6
Continuous
 62
   144
370
    18
100
AcDbLine
 10
39.0003858018
 20
14.9666436849
 30
0.0
 11
39.0003858018
 21
14.9272736062
 31
0.0
  0
LINE
  5
2D9
330
1F
100
AcDbEntity
  8
0
  6
Continuous
 62
   144
370
    18
100
AcDbLine
 10
39.0003858018
 20
14.9272736062
 30
0.0
 11
39.0003858018
 21
14.7479184994
 31
0.0
  0
LINE
  5
2DA
330
1F
100
AcDbEntity
  8
0
  6
Continuous
 62
   144
370
    18
100
AcDbLine
 10
11.8271574554
 20
15.5353200742
 30
0.0
 11
11.8271574554
 21
15.4565799167
 31
0.0
  0
LINE
  5
2DB
330
1F
100
AcDbEntity
  8
0
  6
Continuous
 62
   144
370
    18
100
AcDbLine
 10
11.8271574554
 20
15.1573673183
 30
0.0
 11
11.8271574554
 21
14.9809732217
 31
0.0
  0
LINE
  5
2DC
330
1F
100
AcDbEntity
  8
0
  6
Continuous
 62
   144
370
    18
100
AcDbLine
 10
11.8271574554
 20
14.9809732217
 30
0.0
 11
11.8271574554
 21
14.9272736062
 31
0.0
  0
LINE
  5
2DD
330
1F
100
AcDbEntity
  8
0
  6
Continuous
 62
   144
370
    18
100
AcDbLine
 10
11.8271574554
 20
14.7479184994
 30
0.0
 11
11.8271574554
 21
14.9272736062
 31
0.0
  0
LINE
  5
2DE
330
1F
100
AcDbEntity
  8
0
  6
Continuous
 62
   144
370
    18
100
AcDbLine
 10
38.9610157231
 20
14.9809732217
 30
0.0
 11
38.9610157231
 21
14.9272736062
 31
0.0
  0
LINE
  5
2DF
330
1F
100
AcDbEntity
  8
0
  6
Continuous
 62
   144
370
    18
100
AcDbLine
 10
38.9610157231
 20
15.5353200742
 30
0.0
 11
38.9610157231
 21
15.4565799167
 31
0.0
  0
LINE
  5
2E0
330
1F
100
AcDbEntity
  8
0
  6
Continuous
 62
   144
370
    18
100
AcDbLine
 10
38.9610157231
 20
15.1573673183
 30
0.0
 11
38.9610157231
 21
14.9809732217
 31
0.0
  0
LINE
  5
2E1
330
1F
100
AcDbEntity
  8
0
  6
Continuous
 62
   144
370
    18
100
AcDbLine
 10
38.9610157231
 20
14.9272736062
 30
0.0
 11
38.9610157231
 21
14.7479184994
 31
0.0
  0
LINE
  5
2E2
330
1F
100
AcDbEntity
  8
0
  6
Continuous
 62
   144
370
    18
100
AcDbLine
 10
11.370464542
 20
15.4639896724
 30
0.0
 11
11.3834132424
 21
15.4485580121
 31
0.0
  0
LINE
  5
2E3
330
1F
100
AcDbEntity
  8
0
  6
Continuous
 62
   144
370
    18
100
AcDbLine
 10
11.7464524409
 20
15.0159047431
 30
0.0
 11
11.7877873766
 21
14.9666436849
 31
0.0
  0
LINE
  5
2E4
330
1F
100
AcDbEntity
  8
0
  6
Continuous
 62
   144
370
    18
100
AcDbLine
 10
11.4098346207
 20
15.4783192091
 30
0.0
 11
11.4327326024
 21
15.4510304572
 31
0.0
  0
LINE
  5
2E5
330
1F
100
AcDbEntity
  8
0
  6
Continuous
 62
   144
370
    18
100
AcDbLine
 10
11.7464524409
 20
15.0771537126
 30
0.0
 11
11.8271574554
 21
14.9809732217
 31
0.0
  0
LINE
  5
2E6
330
1F
100
AcDbEntity
  8
0
  6
Continuous
 62
   144
370
    18
100
AcDbLine
 10
39.4177086365
 20
15.4639896724
 30
0.0
 11
39.404759936
 21
15.4485580121
 31
0.0
  0
LINE
  5
2E7
330
1F
100
AcDbEntity
  8
0
  6
Continuous
 62
   144
370
    18
100
AcDbLine
 10
39.0417243845
 20
15.0159090893
 30
0.0
 11
39.0003858018
 21
14.9666436849
 31
0.0
  0
LINE
  5
2E8
330
1F
100
AcDbEntity
  8
0
  6
Continuous
 62
     7
370
    25
100
AcDbLine
 10
31.8232201487
 20
14.4526429088
 30
0.0
 11
31.5633782423
 21
14.4526429088
 31
0.0
  0
LINE
  5
2E9
330
1F
100
AcDbEntity
  8
0
  6
Continuous
 62
     7
370
    25
100
AcDbLine
 10
19.2247949362
 20
14.4526429088
 30
0.0
 11
18.9649530298
 21
14.4526429088
 31
0.0
  0
LINE
  5
2EA
330
1F
100
AcDbEntity
  8
0
  6
Continuous
 62
     7
370
    25
100
AcDbLine
 10
25.5240075502
 20
14.4526429088
 30
0.0
 11
25.2641656439
 21
14.4526429088
 31
0.0
  0
LINE
  5
2EB
330
1F
100
AcDbEntity
  8
0
  6
Continuous
 62
     7
370
    25
100
AcDbLine
 10
35.3665272353
 20
14.4526429088
 30
0.0
 11
35.1066853289
 21
14.4526429088
 31
0.0
  0
LINE
  5
2EC
330
1F
100
AcDbEntity
  8
0
  6
Continuous
 62
     7
370
    25
100
AcDbLine
 10
15.6814878496
 20
14.4526429088
 30
0.0
 11
15.4216459432
 21
14.4526429088
 31
0.0
  0
LINE
  5
2ED
330
1F
100
AcDbEntity
  8
0
  6
Continuous
 62
   144
370
    18
100
AcDbLine
 10
23.9728267467
 20
14.7085484206
 30
0.0
 11
23.870464542
 21
14.7085484206
 31
0.0
  0
LINE
  5
2EE
330
1F
100
AcDbEntity
  8
0
  6
Continuous
 62
   144
370
    18
100
AcDbLine
 10
33.8153464317
 20
14.7085484206
 30
0.0
 11
33.712984227
 21
14.7085484206
 31
0.0
  0
LINE
  5
2EF
330
1F
100
AcDbEntity
  8
0
  6
Continuous
 62
   144
370
    18
100
AcDbLine
 10
26.9177086365
 20
14.7085484206
 30
0.0
 11
26.8153464317
 21
14.7085484206
 31
0.0
  0
LINE
  5
2F0
330
1F
100
AcDbEntity
  8
0
  6
Continuous
 62
   144
370
    18
100
AcDbLine
 10
33.2169212349
 20
14.7085484206
 30
0.0
 11
33.1145590302
 21
14.7085484206
 31
0.0
  0
LINE
  5
2F1
330
1F
100
AcDbEntity
  8
0
  6
Continuous
 62
   144
370
    18
100
AcDbLine
 10
17.6736141483
 20
14.7085484206
 30
0.0
 11
17.5712519436
 21
14.7085484206
 31
0.0
  0
LINE
  5
2F2
330
1F
100
AcDbEntity
  8
0
  6
Continuous
 62
   144
370
    18
100
AcDbLine
 10
36.7602283215
 20
14.7085484206
 30
0.0
 11
36.6578661168
 21
14.7085484206
 31
0.0
  0
LINE
  5
2F3
330
1F
100
AcDbEntity
  8
0
  6
Continuous
 62
   144
370
    18
100
AcDbLine
 10
20.618496038
 20
14.7085484206
 30
0.0
 11
20.5161338333
 21
14.7085484206
 31
0.0
  0
LINE
  5
2F4
330
1F
100
AcDbEntity
  8
0
  6
Continuous
 62
   144
370
    18
100
AcDbLine
 10
14.1303070617
 20
14.7085484206
 30
0.0
 11
14.0279448569
 21
14.7085484206
 31
0.0
  0
LINE
  5
2F5
330
1F
100
AcDbEntity
  8
0
  6
Continuous
 62
   144
370
    18
100
AcDbLine
 10
30.2720393451
 20
14.7085484206
 30
0.0
 11
30.1696771404
 21
14.7085484206
 31
0.0
  0
LINE
  5
2F6
330
1F
100
AcDbEntity
  8
0
  6
Continuous
 62
   144
370
    18
100
AcDbLine
 10
17.0751889514
 20
14.7085484206
 30
0.0
 11
16.9728267467
 21
14.7085484206
 31
0.0
  0
LINE
  5
2F7
330
1F
100
AcDbEntity
  8
0
  6
Continuous
 62
   144
370
    18
100
AcDbLine
 10
39.4177086365
 20
15.5353200742
 30
0.0
 11
39.4177086365
 21
15.4639896724
 31
0.0
  0
LINE
  5
2F8
330
1F
100
AcDbEntity
  8
0
  6
Continuous
 62
   144
370
    18
100
AcDbLine
 10
11.370464542
 20
15.4639896724
 30
0.0
 11
11.370464542
 21
15.5353200742
 31
0.0
  0
LINE
  5
2F9
330
1F
100
AcDbEntity
  8
0
  6
Continuous
 62
     7
370
    25
100
AcDbLine
 10
13.5830629672
 20
14.6874644086
 30
0.0
 11
12.8533175378
 21
14.6874644086
 31
0.0
  0
LWPOLYLINE
  5
2FA
330
1F
100
AcDbEntity
  8
0
  6
Continuous
 62
     7
370
    25
100
AcDbPolyline
 90
        3
 70
   128
 43
0.0
 10
12.8533175378
 20
14.6874644086
 10
12.8390038573
 20
14.6744912448
 10
12.8320889109
 20
14.6690699844
  0
LWPOLYLINE
  5
2FB
330
1F
100
AcDbEntity
  8
0
  6
Continuous
 62
     7
370
    25
100
AcDbPolyline
 90
        3
 70
   128
 43
0.0
 10
37.9560842676
 20
14.6690699844
 10
37.9491693212
 20
14.6744912448
 10
37.9348556406
 20
14.6874644086
  0
LINE
  5
2FC
330
1F
100
AcDbEntity
  8
0
  6
Continuous
 62
     7
370
    25
100
AcDbLine
 10
37.9348556406
 20
14.6874644086
 30
0.0
 11
37.2051102113
 21
14.6874644086
 31
0.0
  0
LINE
  5
2FD
330
1F
100
AcDbEntity
  8
0
  6
Continuous
 62
     7
370
    25
100
AcDbLine
 10
13.5830629672
 20
14.7782274947
 30
0.0
 11
12.9440806239
 21
14.7782274947
 31
0.0
  0
LINE
  5
2FE
330
1F
100
AcDbEntity
  8
0
  6
Continuous
 62
     7
370
    25
100
AcDbLine
 10
12.8533175378
 20
14.6874644086
 30
0.0
 11
12.9440806239
 21
14.7782274947
 31
0.0
  0
LINE
  5
2FF
330
1F
100
AcDbEntity
  8
0
  6
Continuous
 62
     7
370
    25
100
AcDbLine
 10
13.5830629672
 20
14.7782274947
 30
0.0
 11
13.5830629672
 21
14.6874644086
 31
0.0
  0
LINE
  5
300
330
1F
100
AcDbEntity
  8
0
  6
Continuous
 62
     7
370
    25
100
AcDbLine
 10
37.8440925545
 20
14.7782274947
 30
0.0
 11
37.2051102113
 21
14.7782274947
 31
0.0
  0
LINE
  5
301
330
1F
100
AcDbEntity
  8
0
  6
Continuous
 62
     7
370
    25
100
AcDbLine
 10
37.2051102113
 20
14.6874644086
 30
0.0
 11
37.2051102113
 21
14.7782274947
 31
0.0
  0
LINE
  5
302
330
1F
100
AcDbEntity
  8
0
  6
Continuous
 62
     7
370
    25
100
AcDbLine
 10
37.9348556406
 20
14.6874644086
 30
0.0
 11
37.8440925545
 21
14.7782274947
 31
0.0
  0
LINE
  5
303
330
1F
100
AcDbEntity
  8
0
  6
Continuous
 62
     7
370
    25
100
AcDbLine
 10
37.2051102113
 20
14.7782274947
 30
0.0
 11
13.5830629672
 21
14.7782274947
 31
0.0
  0
LINE
  5
304
330
1F
100
AcDbEntity
  8
0
  6
Continuous
 62
     7
370
    25
100
AcDbLine
 10
37.2051102113
 20
14.8266586568
 30
0.0
 11
37.727169386
 21
14.8266586568
 31
0.0
  0
LINE
  5
305
330
1F
100
AcDbEntity
  8
0
  6
Continuous
 62
     7
370
    25
100
AcDbLine
 10
37.2051102113
 20
14.7782274947
 30
0.0
 11
37.2051102113
 21
14.8266586568
 31
0.0
  0
ARC
  5
306
330
1F
100
AcDbEntity
  8
0
  6
Continuous
 62
     7
370
    25
100
AcDbCircle
 10
37.727169386
 20
14.6613043261
 30
0.0
 40
0.1653543307086797
100
AcDbArc
 50
45.0
 51
90.0
  0
LINE
  5
307
330
1F
100
AcDbEntity
  8
0
  6
Continuous
 62
     7
370
    25
100
AcDbLine
 10
13.0610037925
 20
14.8266586568
 30
0.0
 11
13.5830629672
 21
14.8266586568
 31
0.0
  0
ARC
  5
308
330
1F
100
AcDbEntity
  8
0
  6
Continuous
 62
     7
370
    25
100
AcDbCircle
 10
13.0610037925
 20
14.6613043261
 30
0.0
 40
0.1653543307086746
100
AcDbArc
 50
90.0
 51
135.0
  0
LINE
  5
309
330
1F
100
AcDbEntity
  8
0
  6
Continuous
 62
     7
370
    25
100
AcDbLine
 10
13.5830629672
 20
14.7782274947
 30
0.0
 11
13.5830629672
 21
14.8266586568
 31
0.0
  0
LINE
  5
30A
330
1F
100
AcDbEntity
  8
0
  6
Continuous
 62
     7
370
    25
100
AcDbLine
 10
13.5830629672
 20
14.8266586568
 30
0.0
 11
37.2051102113
 21
14.8266586568
 31
0.0
  0
LINE
  5
30B
330
1F
100
AcDbEntity
  8
0
  6
Continuous
 62
     7
370
    25
100
AcDbLine
 10
12.4531413929
 20
14.4526429088
 30
0.0
 11
12.1932994865
 21
14.4526429088
 31
0.0
  0
LINE
  5
30C
330
1F
100
AcDbEntity
  8
0
  6
Continuous
 62
     7
370
    25
100
AcDbLine
 10
38.594873692
 20
14.4526429088
 30
0.0
 11
38.3350317856
 21
14.4526429088
 31
0.0
  0
LINE
  5
30D
330
1F
100
AcDbEntity
  8
0
  6
Continuous
 62
   144
370
    18
100
AcDbLine
 10
37.4610157231
 20
14.9447688931
 30
0.0
 11
36.9492046995
 21
14.9447688931
 31
0.0
  0
LINE
  5
30E
330
1F
100
AcDbEntity
  8
0
  6
Continuous
 62
   144
370
    18
100
AcDbLine
 10
39.0003858018
 20
15.1416192868
 30
0.0
 11
38.9773233437
 21
15.1416192868
 31
0.0
  0
LINE
  5
30F
330
1F
100
AcDbEntity
  8
0
  6
Continuous
 62
     7
370
    25
100
AcDbLine
 10
38.9773233437
 20
15.1416192868
 30
0.0
 11
38.9773233437
 21
14.7479184994
 31
0.0
  0
LINE
  5
310
330
1F
100
AcDbEntity
  8
0
  6
Continuous
 62
   144
370
    18
100
AcDbLine
 10
39.0003858018
 20
14.7479184994
 30
0.0
 11
38.9773233437
 21
14.7479184994
 31
0.0
  0
LINE
  5
311
330
1F
100
AcDbEntity
  8
0
  6
Continuous
 62
     7
370
    25
100
AcDbLine
 10
11.8108498348
 20
14.7479184994
 30
0.0
 11
11.8108498348
 21
15.1416192868
 31
0.0
  0
LINE
  5
312
330
1F
100
AcDbEntity
  8
0
  6
Continuous
 62
     7
370
    25
100
AcDbLine
 10
11.8108498348
 20
15.1416192868
 30
0.0
 11
11.7877873766
 21
15.1416192868
 31
0.0
  0
LINE
  5
313
330
1F
100
AcDbEntity
  8
0
  6
Continuous
 62
   144
370
    18
100
AcDbLine
 10
11.8108498348
 20
14.7479184994
 30
0.0
 11
11.7877873766
 21
14.7479184994
 31
0.0
  0
LWPOLYLINE
  5
314
330
1F
100
AcDbEntity
  8
0
  6
Continuous
 62
   144
370
    18
100
AcDbPolyline
 90
        9
 70
   128
 43
0.0
 10
11.8121913377
 20
14.7377287732
 10
11.8071624875
 20
14.7348776301
 10
11.8027691964
 20
14.7320563367
 10
11.7990574595
 20
14.7292944301
 10
11.7960661362
 20
14.7266208258
 10
11.7938265439
 20
14.7240635146
 10
11.7923621297
 20
14.72164927
 10
11.7916882251
 20
14.7194033677
 10
11.7918118853
 20
14.7173493208
  0
LWPOLYLINE
  5
315
330
1F
100
AcDbEntity
  8
0
  6
Continuous
 62
   144
370
    18
100
AcDbPolyline
 90
        9
 70
   128
 43
0.0
 10
38.9963612931
 20
14.7173493208
 10
38.9964849534
 20
14.7194033677
 10
38.9958110487
 20
14.72164927
 10
38.9943466345
 20
14.7240635146
 10
38.9921070422
 20
14.7266208258
 10
38.989115719
 20
14.7292944301
 10
38.9854039821
 20
14.7320563367
 10
38.981010691
 20
14.7348776301
 10
38.9759818408
 20
14.7377287732
  0
LINE
  5
316
330
1F
100
AcDbEntity
  8
0
  6
Continuous
 62
     7
370
    25
100
AcDbLine
 10
38.9773233437
 20
15.1416192868
 30
0.0
 11
38.9354831193
 21
15.0997790624
 31
0.0
  0
LINE
  5
317
330
1F
100
AcDbEntity
  8
0
  6
Continuous
 62
     7
370
    25
100
AcDbLine
 10
38.9354831193
 20
15.1554567617
 30
0.0
 11
38.9373936758
 21
15.1573673183
 31
0.0
  0
ELLIPSE
  5
318
330
1F
100
AcDbEntity
  8
0
  6
Continuous
 62
   144
370
    18
100
AcDbEllipse
 10
38.9688897388
 20
15.0775079826
 30
0.0
 11
-0.03061953087155445
 21
0.07979321839546927
 31
0.0
210
0.0
220
0.0
230
1.0
 40
0.2940301684
 41
0.1302090852868314
 42
1.177406636483172
  0
LINE
  5
319
330
1F
100
AcDbEntity
  8
0
  6
Continuous
 62
     7
370
    25
100
AcDbLine
 10
11.8507795026
 20
15.1573673183
 30
0.0
 11
11.8526900592
 21
15.1554567617
 31
0.0
  0
LINE
  5
31A
330
1F
100
AcDbEntity
  8
0
  6
Continuous
 62
     7
370
    25
100
AcDbLine
 10
11.8526900592
 20
15.0997790624
 30
0.0
 11
11.8108498348
 21
15.1416192868
 31
0.0
  0
ELLIPSE
  5
31B
330
1F
100
AcDbEntity
  8
0
  6
Continuous
 62
   144
370
    18
100
AcDbEllipse
 10
11.8192834396
 20
15.0775079826
 30
0.0
 11
0.03061953087155445
 21
0.07979321839546927
 31
0.0
210
0.0
220
0.0
230
1.0
 40
0.2940301684
 41
5.105778670696443
 42
6.152976221892867
  0
LINE
  5
31C
330
1F
100
AcDbEntity
  8
0
  6
Continuous
 62
     7
370
    25
100
AcDbLine
 10
38.9759818408
 20
14.7377287732
 30
0.0
 11
38.9354831193
 21
14.7782274947
 31
0.0
  0
ARC
  5
31D
330
1F
100
AcDbEntity
  8
0
  6
Continuous
 62
   144
370
    18
100
AcDbCircle
 10
38.7630853263
 20
14.8671087386
 30
0.0
 40
0.1939610129292006
100
AcDbArc
 50
297.2737787003
 51
332.7262212998
  0
LINE
  5
31E
330
1F
100
AcDbEntity
  8
0
  6
Continuous
 62
     7
370
    25
100
AcDbLine
 10
11.8526900592
 20
14.7782274947
 30
0.0
 11
11.8121913377
 21
14.7377287732
 31
0.0
  0
ARC
  5
31F
330
1F
100
AcDbEntity
  8
0
  6
Continuous
 62
   144
370
    18
100
AcDbCircle
 10
12.0250878521
 20
14.8671087386
 30
0.0
 40
0.1939610129291695
100
AcDbArc
 50
207.2737787002
 51
242.7262212997
  0
LINE
  5
320
330
1F
100
AcDbEntity
  8
0
  6
Continuous
 62
     7
370
    25
100
AcDbLine
 10
12.2577581759
 20
14.6947109457
 30
0.0
 11
11.9362066082
 21
14.6947109457
 31
0.0
  0
LINE
  5
321
330
1F
100
AcDbEntity
  8
0
  6
Continuous
 62
   144
370
    18
100
AcDbLine
 10
12.2833991372
 20
14.6690699844
 30
0.0
 11
12.2577581759
 21
14.6947109457
 31
0.0
  0
LINE
  5
322
330
1F
100
AcDbEntity
  8
0
  6
Continuous
 62
     7
370
    25
100
AcDbLine
 10
38.8519665703
 20
14.6947109457
 30
0.0
 11
38.5304150026
 21
14.6947109457
 31
0.0
  0
LINE
  5
323
330
1F
100
AcDbEntity
  8
0
  6
Continuous
 62
   144
370
    18
100
AcDbLine
 10
38.5304150026
 20
14.6947109457
 30
0.0
 11
38.5047740413
 21
14.6690699844
 31
0.0
  0
LINE
  5
324
330
1F
100
AcDbEntity
  8
0
  6
Continuous
 62
     7
370
    25
100
AcDbLine
 10
11.8526900592
 20
14.7782274947
 30
0.0
 11
11.8526900592
 21
15.0997790624
 31
0.0
  0
ARC
  5
325
330
1F
100
AcDbEntity
  8
0
  6
Continuous
 62
   144
370
    18
100
AcDbCircle
 10
11.8502199135
 20
14.7479184994
 30
0.0
 40
0.0393700787401574
100
AcDbArc
 50
180.0
 51
195.0
  0
LINE
  5
326
330
1F
100
AcDbEntity
  8
0
  6
Continuous
 62
   144
370
    18
100
AcDbLine
 10
38.9354831193
 20
15.0997790624
 30
0.0
 11
38.9354831193
 21
14.7782274947
 31
0.0
  0
ARC
  5
327
330
1F
100
AcDbEntity
  8
0
  6
Continuous
 62
   144
370
    18
100
AcDbCircle
 10
38.9379532649
 20
14.7479184994
 30
0.0
 40
0.0393700787401627
100
AcDbArc
 50
345.0
 51
0.0
  0
LINE
  5
328
330
1F
100
AcDbEntity
  8
0
  6
Continuous
 62
     7
370
    25
100
AcDbLine
 10
38.5304150026
 20
14.7085484206
 30
0.0
 11
38.8035354081
 21
14.7085484206
 31
0.0
  0
LWPOLYLINE
  5
329
330
1F
100
AcDbEntity
  8
0
  6
Continuous
 62
   144
370
    18
100
AcDbPolyline
 90
        6
 70
   128
 43
0.0
 10
38.8035354081
 20
14.7085484206
 10
38.8041219808
 20
14.7083870887
 10
38.8058816988
 20
14.7078901897
 10
38.8117022989
 20
14.7062150233
 10
38.8267027618
 20
14.7019291767
 10
38.8519665703
 20
14.6947109457
  0
LINE
  5
32A
330
1F
100
AcDbEntity
  8
0
  6
Continuous
 62
   144
370
    18
100
AcDbLine
 10
38.5304150026
 20
14.7085484206
 30
0.0
 11
38.5304150026
 21
14.6947109457
 31
0.0
  0
LINE
  5
32B
330
1F
100
AcDbEntity
  8
0
  6
Continuous
 62
     7
370
    25
100
AcDbLine
 10
11.9846377703
 20
14.7085484206
 30
0.0
 11
12.2577581759
 21
14.7085484206
 31
0.0
  0
LWPOLYLINE
  5
32C
330
1F
100
AcDbEntity
  8
0
  6
Continuous
 62
   144
370
    18
100
AcDbPolyline
 90
        6
 70
   128
 43
0.0
 10
11.9362066082
 20
14.6947109457
 10
11.9614704167
 20
14.7019291767
 10
11.9764708796
 20
14.7062150233
 10
11.9822914797
 20
14.7078901897
 10
11.9840511977
 20
14.7083870268
 10
11.9846377703
 20
14.7085484206
  0
LINE
  5
32D
330
1F
100
AcDbEntity
  8
0
  6
Continuous
 62
   144
370
    18
100
AcDbLine
 10
12.2577581759
 20
14.6947109457
 30
0.0
 11
12.2577581759
 21
14.7085484206
 31
0.0
  0
LINE
  5
32E
330
1F
100
AcDbEntity
  8
0
  6
Continuous
 62
     7
370
    25
100
AcDbLine
 10
11.8665275341
 20
15.0997790624
 30
0.0
 11
11.8665275341
 21
14.8266586568
 31
0.0
  0
LINE
  5
32F
330
1F
100
AcDbEntity
  8
0
  6
Continuous
 62
   144
370
    18
100
AcDbLine
 10
11.8665275341
 20
15.0997790624
 30
0.0
 11
11.8526900592
 21
15.0997790624
 31
0.0
  0
LWPOLYLINE
  5
330
330
1F
100
AcDbEntity
  8
0
  6
Continuous
 62
   144
370
    18
100
AcDbPolyline
 90
        6
 70
   128
 43
0.0
 10
11.8665275341
 20
14.8266586568
 10
11.8663662022
 20
14.8260720842
 10
11.8658693032
 20
14.8243123662
 10
11.8641941368
 20
14.8184917661
 10
11.8599082902
 20
14.8034913032
 10
11.8526900592
 20
14.7782274947
  0
LINE
  5
331
330
1F
100
AcDbEntity
  8
0
  6
Continuous
 62
   144
370
    18
100
AcDbLine
 10
38.9216456443
 20
14.8266586568
 30
0.0
 11
38.9216456443
 21
15.0997790624
 31
0.0
  0
LINE
  5
332
330
1F
100
AcDbEntity
  8
0
  6
Continuous
 62
   144
370
    18
100
AcDbLine
 10
38.9354831193
 20
15.0997790624
 30
0.0
 11
38.9216456443
 21
15.0997790624
 31
0.0
  0
LWPOLYLINE
  5
333
330
1F
100
AcDbEntity
  8
0
  6
Continuous
 62
   144
370
    18
100
AcDbPolyline
 90
        6
 70
   128
 43
0.0
 10
38.9354831193
 20
14.7782274947
 10
38.9282648882
 20
14.8034913032
 10
38.9239790417
 20
14.8184917661
 10
38.9223038752
 20
14.8243123662
 10
38.9218070382
 20
14.8260720842
 10
38.9216456443
 20
14.8266586568
  0
ARC
  5
334
330
1F
100
AcDbEntity
  8
0
  6
Continuous
 62
   144
370
    18
100
AcDbCircle
 10
11.9846377703
 20
14.8266586568
 30
0.0
 40
0.1181102362204758
100
AcDbArc
 50
180.0
 51
270.0
  0
ARC
  5
335
330
1F
100
AcDbEntity
  8
0
  6
Continuous
 62
   144
370
    18
100
AcDbCircle
 10
38.8035354081
 20
14.8266586568
 30
0.0
 40
0.1181102362204882
100
AcDbArc
 50
270.0
 51
360.0
  0
LINE
  5
336
330
1F
100
AcDbEntity
  8
0
  6
Continuous
 62
   144
370
    18
100
AcDbLine
 10
12.2577581759
 20
14.7085484206
 30
0.0
 11
12.2800292556
 21
14.7085484206
 31
0.0
  0
LINE
  5
337
330
1F
100
AcDbEntity
  8
0
  6
Continuous
 62
   144
370
    18
100
AcDbLine
 10
38.5081439229
 20
14.7085484206
 30
0.0
 11
38.5304150026
 21
14.7085484206
 31
0.0
  0
LINE
  5
338
330
1F
100
AcDbEntity
  8
0
  6
Continuous
 62
   144
370
    18
100
AcDbLine
 10
11.8665275341
 20
15.1220501421
 30
0.0
 11
11.8665275341
 21
15.0997790624
 31
0.0
  0
LINE
  5
339
330
1F
100
AcDbEntity
  8
0
  6
Continuous
 62
   144
370
    18
100
AcDbLine
 10
38.9216456443
 20
15.0997790624
 30
0.0
 11
38.9216456443
 21
15.1220501421
 31
0.0
  0
LINE
  5
33A
330
1F
100
AcDbEntity
  8
0
  6
Continuous
 62
   144
370
    18
100
AcDbLine
 10
38.9773233437
 20
15.5353200742
 30
0.0
 11
38.9354831193
 21
15.4934798498
 31
0.0
  0
LINE
  5
33B
330
1F
100
AcDbEntity
  8
0
  6
Continuous
 62
   144
370
    18
100
AcDbLine
 10
11.8526900592
 20
15.4934798498
 30
0.0
 11
11.8108498348
 21
15.5353200742
 31
0.0
  0
LINE
  5
33C
330
1F
100
AcDbEntity
  8
0
  6
Continuous
 62
   144
370
    18
100
AcDbLine
 10
11.8586535184
 20
15.4934798498
 30
0.0
 11
11.8526900592
 21
15.4934798498
 31
0.0
  0
LINE
  5
33D
330
1F
100
AcDbEntity
  8
0
  6
Continuous
 62
   144
370
    18
100
AcDbLine
 10
38.9354831193
 20
15.4934798498
 30
0.0
 11
38.9295196601
 21
15.4934798498
 31
0.0
  0
ARC
  5
33E
330
1F
100
AcDbEntity
  8
0
  6
Continuous
 62
   144
370
    18
100
AcDbCircle
 10
37.9626944903
 20
14.7274344514
 30
0.0
 40
0.0487094022974184
100
AcDbArc
 50
235.1430638682
 51
304.8569361318
  0
ARC
  5
33F
330
1F
100
AcDbEntity
  8
0
  6
Continuous
 62
   144
370
    18
100
AcDbCircle
 10
12.8254786882
 20
14.7274344514
 30
0.0
 40
0.0487094022974172
100
AcDbArc
 50
235.1430638682
 51
304.8569361318
  0
ELLIPSE
  5
340
330
1F
100
AcDbEntity
  8
0
  6
Continuous
 62
   144
370
    18
100
AcDbEllipse
 10
11.8192834396
 20
15.47120877
 30
0.0
 11
0.03061953087155267
 21
0.07979321839546571
 31
0.0
210
0.0
220
0.0
230
1.0
 40
0.2940301684
 41
5.105778670696433
 42
5.749380504329345
  0
ELLIPSE
  5
341
330
1F
100
AcDbEntity
  8
0
  6
Continuous
 62
   144
370
    18
100
AcDbEllipse
 10
38.9688897388
 20
15.47120877
 30
0.0
 11
-0.03061953087155445
 21
0.07979321839546571
 31
0.0
210
0.0
220
0.0
230
1.0
 40
0.2940301684
 41
0.5338048028500304
 42
1.177406636483156
  0
LINE
  5
342
330
1F
100
AcDbEntity
  8
0
  6
Continuous
 62
   144
370
    18
100
AcDbLine
 10
37.9905333399
 20
14.6874644086
 30
0.0
 11
37.9832868028
 21
14.6947109457
 31
0.0
  0
LINE
  5
343
330
1F
100
AcDbEntity
  8
0
  6
Continuous
 62
   144
370
    18
100
AcDbLine
 10
12.8048863756
 20
14.6947109457
 30
0.0
 11
12.7976398385
 21
14.6874644086
 31
0.0
  0
LINE
  5
344
330
1F
100
AcDbEntity
  8
0
  6
Continuous
 62
     7
370
    25
100
AcDbLine
 10
12.2800292556
 20
14.7085484206
 30
0.0
 11
12.8417863087
 21
14.7085484206
 31
0.0
  0
LINE
  5
345
330
1F
100
AcDbEntity
  8
0
  6
Continuous
 62
   144
370
    18
100
AcDbLine
 10
12.8417863087
 20
14.7085484206
 30
0.0
 11
12.8048863756
 21
14.6947109457
 31
0.0
  0
LINE
  5
346
330
1F
100
AcDbEntity
  8
0
  6
Continuous
 62
     7
370
    25
100
AcDbLine
 10
37.9463868697
 20
14.7085484206
 30
0.0
 11
38.5081439229
 21
14.7085484206
 31
0.0
  0
LINE
  5
347
330
1F
100
AcDbEntity
  8
0
  6
Continuous
 62
   144
370
    18
100
AcDbLine
 10
37.9832868028
 20
14.6947109457
 30
0.0
 11
37.9463868697
 21
14.7085484206
 31
0.0
  0
CIRCLE
  5
348
330
1F
100
AcDbEntity
  8
0
  6
Continuous
 62
     7
370
    25
100
AcDbCircle
 10
19.8822755656
 20
14.9447688931
 30
0.0
 40
0.1082677165354351
  0
CIRCLE
  5
349
330
1F
100
AcDbEntity
  8
0
  6
Continuous
 62
     7
370
    25
100
AcDbCircle
 10
26.5751889514
 20
14.9447688931
 30
0.0
 40
0.1082677165354351
  0
CIRCLE
  5
34A
330
1F
100
AcDbEntity
  8
0
  6
Continuous
 62
     7
370
    25
100
AcDbCircle
 10
32.0869999751
 20
14.9447688931
 30
0.0
 40
0.1082677165354351
  0
CIRCLE
  5
34B
330
1F
100
AcDbEntity
  8
0
  6
Continuous
 62
     7
370
    25
100
AcDbCircle
 10
13.1893621798
 20
14.9447688931
 30
0.0
 40
0.1082677165354351
  0
LINE
  5
34C
330
1F
100
AcDbEntity
  8
0
  6
Continuous
 62
   144
370
    18
100
AcDbLine
 10
12.458340558
 20
14.7479184994
 30
0.0
 11
12.9137716286
 21
14.7479184994
 31
0.0
  0
LINE
  5
34D
330
1F
100
AcDbEntity
  8
0
  6
Continuous
 62
   144
370
    18
100
AcDbLine
 10
37.8744015499
 20
14.7479184994
 30
0.0
 11
38.3298326204
 21
14.7479184994
 31
0.0
  0
CIRCLE
  5
34E
330
1F
100
AcDbEntity
  8
0
  6
Continuous
 62
   144
370
    18
100
AcDbCircle
 10
37.5988109987
 20
15.0235090505
 30
0.0
 40
0.1082677165354351
  0
LINE
  5
34F
330
1F
100
AcDbEntity
  8
0
  6
Continuous
 62
   144
370
    18
100
AcDbLine
 10
37.9626944903
 20
14.7153032582
 30
0.0
 11
37.8719314042
 21
14.8060663443
 31
0.0
  0
LINE
  5
350
330
1F
100
AcDbEntity
  8
0
  6
Continuous
 62
   144
370
    18
100
AcDbLine
 10
12.8254786882
 20
14.7153032582
 30
0.0
 11
12.9162417743
 21
14.8060663443
 31
0.0
  0
LINE
  5
351
330
1F
100
AcDbEntity
  8
0
  6
Continuous
 62
   144
370
    18
100
AcDbLine
 10
13.0610037925
 20
14.8660287356
 30
0.0
 11
13.5830629672
 21
14.8660287356
 31
0.0
  0
LINE
  5
352
330
1F
100
AcDbEntity
  8
0
  6
Continuous
 62
   144
370
    18
100
AcDbLine
 10
37.2051102113
 20
14.8660287356
 30
0.0
 11
37.727169386
 21
14.8660287356
 31
0.0
  0
LINE
  5
353
330
1F
100
AcDbEntity
  8
0
  6
Continuous
 62
   144
370
    18
100
AcDbLine
 10
13.5830629672
 20
14.8660287356
 30
0.0
 11
37.2051102113
 21
14.8660287356
 31
0.0
  0
ARC
  5
354
330
1F
100
AcDbEntity
  8
0
  6
Continuous
 62
   144
370
    18
100
AcDbCircle
 10
15.2452105013
 20
14.7085484206
 30
0.0
 40
0.1574803149606296
100
AcDbArc
 50
48.5903778907
 51
90.0
  0
ARC
  5
355
330
1F
100
AcDbEntity
  8
0
  6
Continuous
 62
   144
370
    18
100
AcDbCircle
 10
16.6453248818
 20
14.7085484206
 30
0.0
 40
0.1574803149606296
100
AcDbArc
 50
90.0
 51
131.4096221093
  0
ARC
  5
356
330
1F
100
AcDbEntity
  8
0
  6
Continuous
 62
   144
370
    18
100
AcDbCircle
 10
35.5429626771
 20
14.7085484206
 30
0.0
 40
0.1574803149606307
100
AcDbArc
 50
90.0
 51
131.4096221093
  0
ARC
  5
357
330
1F
100
AcDbEntity
  8
0
  6
Continuous
 62
   144
370
    18
100
AcDbCircle
 10
34.1428482966
 20
14.7085484206
 30
0.0
 40
0.1574803149606296
100
AcDbArc
 50
48.5903778907
 51
90.0
  0
LINE
  5
358
330
1F
100
AcDbEntity
  8
0
  6
Continuous
 62
   144
370
    18
100
AcDbLine
 10
38.8822755656
 20
14.6691783419
 30
0.0
 11
11.9058976129
 21
14.6691783419
 31
0.0
  0
LINE
  5
359
330
1F
100
AcDbEntity
  8
0
  6
Continuous
 62
   144
370
    18
100
AcDbLine
 10
37.3114094239
 20
15.0628791293
 30
0.0
 11
37.0988109987
 21
15.0628791293
 31
0.0
  0
LINE
  5
35A
330
1F
100
AcDbEntity
  8
0
  6
Continuous
 62
     7
370
    25
100
AcDbLine
 10
37.012906825
 20
15.0235090505
 30
0.0
 11
37.3973135744
 21
15.0235090505
 31
0.0
  0
LINE
  5
35B
330
1F
100
AcDbEntity
  8
0
  6
Continuous
 62
   144
370
    18
100
AcDbLine
 10
19.74448029
 20
15.4959499954
 30
0.0
 11
19.8625905262
 21
15.4959499954
 31
0.0
  0
LINE
  5
35C
330
1F
100
AcDbEntity
  8
0
  6
Continuous
 62
   144
370
    18
100
AcDbLine
 10
19.8625905262
 20
15.4959499954
 30
0.0
 11
20.0476298963
 21
15.4959499954
 31
0.0
  0
LINE
  5
35D
330
1F
100
AcDbEntity
  8
0
  6
Continuous
 62
   144
370
    18
100
AcDbLine
 10
18.1421180853
 20
15.4959499954
 30
0.0
 11
18.3271574554
 21
15.4959499954
 31
0.0
  0
LINE
  5
35E
330
1F
100
AcDbEntity
  8
0
  6
Continuous
 62
   144
370
    18
100
AcDbLine
 10
18.3271574554
 20
15.4959499954
 30
0.0
 11
18.4452676916
 21
15.4959499954
 31
0.0
  0
LINE
  5
35F
330
1F
100
AcDbEntity
  8
0
  6
Continuous
 62
   144
370
    18
100
AcDbLine
 10
18.4452676916
 20
15.4959499954
 30
0.0
 11
18.5043228097
 21
15.4959499954
 31
0.0
  0
LINE
  5
360
330
1F
100
AcDbEntity
  8
0
  6
Continuous
 62
   144
370
    18
100
AcDbLine
 10
18.5043228097
 20
15.4959499954
 30
0.0
 11
19.6854251719
 21
15.4959499954
 31
0.0
  0
LINE
  5
361
330
1F
100
AcDbEntity
  8
0
  6
Continuous
 62
   144
370
    18
100
AcDbLine
 10
19.74448029
 20
15.4959499954
 30
0.0
 11
19.6854251719
 21
15.4959499954
 31
0.0
  0
LINE
  5
362
330
1F
100
AcDbEntity
  8
0
  6
Continuous
 62
   144
370
    18
100
AcDbLine
 10
32.3429054869
 20
15.4959499954
 30
0.0
 11
32.2838503688
 21
15.4959499954
 31
0.0
  0
LINE
  5
363
330
1F
100
AcDbEntity
  8
0
  6
Continuous
 62
   144
370
    18
100
AcDbLine
 10
31.1027480066
 20
15.4959499954
 30
0.0
 11
32.2838503688
 21
15.4959499954
 31
0.0
  0
LINE
  5
364
330
1F
100
AcDbEntity
  8
0
  6
Continuous
 62
   144
370
    18
100
AcDbLine
 10
31.0436928884
 20
15.4959499954
 30
0.0
 11
31.1027480066
 21
15.4959499954
 31
0.0
  0
LINE
  5
365
330
1F
100
AcDbEntity
  8
0
  6
Continuous
 62
   144
370
    18
100
AcDbLine
 10
30.9255826522
 20
15.4959499954
 30
0.0
 11
31.0436928884
 21
15.4959499954
 31
0.0
  0
LINE
  5
366
330
1F
100
AcDbEntity
  8
0
  6
Continuous
 62
   144
370
    18
100
AcDbLine
 10
30.7405432821
 20
15.4959499954
 30
0.0
 11
30.9255826522
 21
15.4959499954
 31
0.0
  0
LINE
  5
367
330
1F
100
AcDbEntity
  8
0
  6
Continuous
 62
   144
370
    18
100
AcDbLine
 10
32.4493690272
 20
15.4959499954
 30
0.0
 11
32.5791259593
 21
15.4959499954
 31
0.0
  0
LINE
  5
368
330
1F
100
AcDbEntity
  8
0
  6
Continuous
 62
   144
370
    18
100
AcDbLine
 10
32.4493690272
 20
15.4959499954
 30
0.0
 11
32.5791259593
 21
15.4959499954
 31
0.0
  0
LINE
  5
369
330
1F
100
AcDbEntity
  8
0
  6
Continuous
 62
   144
370
    18
100
AcDbLine
 10
32.4610157231
 20
15.4959499954
 30
0.0
 11
32.6460550932
 21
15.4959499954
 31
0.0
  0
LINE
  5
36A
330
1F
100
AcDbEntity
  8
0
  6
Continuous
 62
   144
370
    18
100
AcDbLine
 10
32.3429054869
 20
15.4959499954
 30
0.0
 11
32.4610157231
 21
15.4959499954
 31
0.0
  0
LINE
  5
36B
330
1F
100
AcDbEntity
  8
0
  6
Continuous
 62
     7
370
    25
100
AcDbLine
 10
39.7833356309
 20
14.6296999057
 30
0.0
 11
11.0048411945
 21
14.6296999057
 31
0.0
  0
LINE
  5
36C
330
1F
100
AcDbEntity
  8
0
  6
Continuous
 62
   144
370
    18
100
AcDbLine
 10
39.7833356309
 20
14.6296999057
 30
0.0
 11
39.7833356309
 21
14.6257645678
 31
0.0
  0
LINE
  5
36D
330
1F
100
AcDbEntity
  8
0
  6
Continuous
 62
     7
370
    25
100
AcDbLine
 10
11.0048411945
 20
14.6257645678
 30
0.0
 11
39.7833356309
 21
14.6257645678
 31
0.0
  0
LINE
  5
36E
330
1F
100
AcDbEntity
  8
0
  6
Continuous
 62
   144
370
    18
100
AcDbLine
 10
11.0048411945
 20
14.6257645678
 30
0.0
 11
11.0048411945
 21
14.6296999057
 31
0.0
  0
LINE
  5
36F
330
1F
100
AcDbEntity
  8
0
  6
Continuous
 62
   144
370
    18
100
AcDbLine
 10
39.7833356309
 20
14.6257645678
 30
0.0
 11
40.0587943151
 21
14.6257645678
 31
0.0
  0
ARC
  5
370
330
1F
100
AcDbEntity
  8
0
  6
Continuous
 62
   144
370
    18
100
AcDbCircle
 10
40.0194123656
 20
14.6257764391
 30
0.0
 40
0.0393819513253072
100
AcDbArc
 50
269.9852761945
 51
359.9827287754
  0
LINE
  5
371
330
1F
100
AcDbEntity
  8
0
  6
Continuous
 62
     7
370
    25
100
AcDbLine
 10
40.0194022453
 20
14.5863944891
 30
0.0
 11
39.7833356309
 21
14.5863944891
 31
0.0
  0
LINE
  5
372
330
1F
100
AcDbEntity
  8
0
  6
Continuous
 62
     7
370
    25
100
AcDbLine
 10
39.7833356309
 20
14.6257645678
 30
0.0
 11
39.7833356309
 21
14.5863944891
 31
0.0
  0
LINE
  5
373
330
1F
100
AcDbEntity
  8
0
  6
Continuous
 62
   144
370
    18
100
AcDbLine
 10
10.7293825102
 20
14.6257645678
 30
0.0
 11
11.0048411945
 21
14.6257645678
 31
0.0
  0
LINE
  5
374
330
1F
100
AcDbEntity
  8
0
  6
Continuous
 62
     7
370
    25
100
AcDbLine
 10
11.0048411945
 20
14.6257645678
 30
0.0
 11
11.0048411945
 21
14.5863944891
 31
0.0
  0
LINE
  5
375
330
1F
100
AcDbEntity
  8
0
  6
Continuous
 62
     7
370
    25
100
AcDbLine
 10
11.0048411945
 20
14.5863944891
 30
0.0
 11
10.7687745801
 21
14.5863944891
 31
0.0
  0
ARC
  5
376
330
1F
100
AcDbEntity
  8
0
  6
Continuous
 62
   144
370
    18
100
AcDbCircle
 10
10.7687611483
 20
14.6257731258
 30
0.0
 40
0.0393786389682465
100
AcDbArc
 50
180.0124517684
 51
270.0195432616
  0
LINE
  5
377
330
1F
100
AcDbEntity
  8
0
  6
Continuous
 62
   144
370
    18
100
AcDbLine
 10
40.0587943151
 20
14.6296999057
 30
0.0
 11
39.7833356309
 21
14.6296999057
 31
0.0
  0
LINE
  5
378
330
1F
100
AcDbEntity
  8
0
  6
Continuous
 62
     7
370
    25
100
AcDbLine
 10
39.7833356309
 20
14.6690699844
 30
0.0
 11
39.7833356309
 21
14.6296999057
 31
0.0
  0
LINE
  5
379
330
1F
100
AcDbEntity
  8
0
  6
Continuous
 62
     7
370
    25
100
AcDbLine
 10
39.7833356309
 20
14.6690699844
 30
0.0
 11
40.0194022453
 21
14.6690699844
 31
0.0
  0
ARC
  5
37A
330
1F
100
AcDbEntity
  8
0
  6
Continuous
 62
   144
370
    18
100
AcDbCircle
 10
40.0194156771
 20
14.6296913477
 30
0.0
 40
0.0393786389682104
100
AcDbArc
 50
0.0124517684
 51
90.0195432617
  0
LINE
  5
37B
330
1F
100
AcDbEntity
  8
0
  6
Continuous
 62
     7
370
    25
100
AcDbLine
 10
39.7833356309
 20
14.5863944891
 30
0.0
 11
11.0048411945
 21
14.5863944891
 31
0.0
  0
LINE
  5
37C
330
1F
100
AcDbEntity
  8
0
  6
Continuous
 62
     7
370
    25
100
AcDbLine
 10
10.7687745801
 20
14.6690699844
 30
0.0
 11
11.0048411945
 21
14.6690699844
 31
0.0
  0
LINE
  5
37D
330
1F
100
AcDbEntity
  8
0
  6
Continuous
 62
     7
370
    25
100
AcDbLine
 10
11.0048411945
 20
14.6690699844
 30
0.0
 11
11.0048411945
 21
14.6296999057
 31
0.0
  0
ARC
  5
37E
330
1F
100
AcDbEntity
  8
0
  6
Continuous
 62
   144
370
    18
100
AcDbCircle
 10
10.7687644598
 20
14.6296880344
 30
0.0
 40
0.0393819513252717
100
AcDbArc
 50
89.9852761945
 51
179.9827287755
  0
LINE
  5
37F
330
1F
100
AcDbEntity
  8
0
  6
Continuous
 62
   144
370
    18
100
AcDbLine
 10
11.0048411945
 20
14.6296999057
 30
0.0
 11
10.7293825102
 21
14.6296999057
 31
0.0
  0
LINE
  5
380
330
1F
100
AcDbEntity
  8
0
  6
Continuous
 62
     7
370
    25
100
AcDbLine
 10
11.0048411945
 20
14.6690699844
 30
0.0
 11
39.7833356309
 21
14.6690699844
 31
0.0
  0
LINE
  5
381
330
1F
100
AcDbEntity
  8
0
  6
Continuous
 62
   144
370
    18
100
AcDbLine
 10
40.0194022453
 20
14.6690699844
 30
0.0
 11
40.0197778545
 21
14.6690699844
 31
0.0
  0
LINE
  5
382
330
1F
100
AcDbEntity
  8
0
  6
Continuous
 62
   144
370
    18
100
AcDbLine
 10
40.0587442731
 20
14.6690699844
 30
0.0
 11
40.0197778545
 21
14.6690699844
 31
0.0
  0
LINE
  5
383
330
1F
100
AcDbEntity
  8
0
  6
Continuous
 62
   144
370
    18
100
AcDbLine
 10
10.7683989709
 20
14.6690699844
 30
0.0
 11
10.7293774613
 21
14.6690699844
 31
0.0
  0
LINE
  5
384
330
1F
100
AcDbEntity
  8
0
  6
Continuous
 62
   144
370
    18
100
AcDbLine
 10
10.7683989709
 20
14.6690699844
 30
0.0
 11
10.7687745801
 21
14.6690699844
 31
0.0
  0
LINE
  5
385
330
1F
100
AcDbEntity
  8
0
  6
Continuous
 62
   144
370
    18
100
AcDbLine
 10
10.7291652387
 20
14.6690699844
 30
0.0
 11
10.7291652387
 21
14.6296999057
 31
0.0
  0
LINE
  5
386
330
1F
100
AcDbEntity
  8
0
  6
Continuous
 62
   144
370
    18
100
AcDbLine
 10
40.0590115867
 20
14.6296999057
 30
0.0
 11
40.0590115867
 21
14.6690699844
 31
0.0
  0
LINE
  5
387
330
1F
100
AcDbEntity
  8
0
  6
Continuous
 62
   144
370
    18
100
AcDbLine
 10
39.4866062743
 20
15.1573673183
 30
0.0
 11
39.4866062743
 21
14.7084400631
 31
0.0
  0
LINE
  5
388
330
1F
100
AcDbEntity
  8
0
  6
Continuous
 62
   144
370
    18
100
AcDbLine
 10
39.4866062743
 20
14.7084400631
 30
0.0
 11
39.4866062743
 21
14.6690699844
 31
0.0
  0
LINE
  5
389
330
1F
100
AcDbEntity
  8
0
  6
Continuous
 62
   144
370
    18
100
AcDbLine
 10
39.0417243845
 20
15.1573673183
 30
0.0
 11
39.0417243845
 21
14.7084400631
 31
0.0
  0
LINE
  5
38A
330
1F
100
AcDbEntity
  8
0
  6
Continuous
 62
   144
370
    18
100
AcDbLine
 10
39.0417243845
 20
14.6690699844
 30
0.0
 11
39.0417243845
 21
14.7084400631
 31
0.0
  0
LINE
  5
38B
330
1F
100
AcDbEntity
  8
0
  6
Continuous
 62
     7
370
    25
100
AcDbLine
 10
11.7464524409
 20
14.7084400631
 30
0.0
 11
11.7464524409
 21
15.1573673183
 31
0.0
  0
LINE
  5
38C
330
1F
100
AcDbEntity
  8
0
  6
Continuous
 62
   144
370
    18
100
AcDbLine
 10
11.7464524409
 20
14.7084400631
 30
0.0
 11
11.7464524409
 21
14.6690699844
 31
0.0
  0
LINE
  5
38D
330
1F
100
AcDbEntity
  8
0
  6
Continuous
 62
   144
370
    18
100
AcDbLine
 10
11.3015705511
 20
14.6690699844
 30
0.0
 11
11.3015705511
 21
14.7084400631
 31
0.0
  0
LINE
  5
38E
330
1F
100
AcDbEntity
  8
0
  6
Continuous
 62
     7
370
    25
100
AcDbLine
 10
39.0417243845
 20
14.7084400631
 30
0.0
 11
39.4866062743
 21
14.7084400631
 31
0.0
  0
ARC
  5
38F
330
1F
100
AcDbEntity
  8
0
  6
Continuous
 62
   144
370
    18
100
AcDbCircle
 10
11.524011496
 20
15.0431941017
 30
0.0
 40
0.0846456692913407
100
AcDbArc
 50
0.0
 51
180.0
  0
LINE
  5
390
330
1F
100
AcDbEntity
  8
0
  6
Continuous
 62
   144
370
    18
100
AcDbLine
 10
11.6086571653
 20
15.003824023
 30
0.0
 11
11.6086571653
 21
15.0431941017
 31
0.0
  0
ARC
  5
391
330
1F
100
AcDbEntity
  8
0
  6
Continuous
 62
   144
370
    18
100
AcDbCircle
 10
11.524011496
 20
15.003824023
 30
0.0
 40
0.0846456692913407
100
AcDbArc
 50
180.0
 51
0.0
  0
LINE
  5
392
330
1F
100
AcDbEntity
  8
0
  6
Continuous
 62
   144
370
    18
100
AcDbLine
 10
11.4393658267
 20
15.003824023
 30
0.0
 11
11.4393658267
 21
15.0431941017
 31
0.0
  0
LINE
  5
393
330
1F
100
AcDbEntity
  8
0
  6
Continuous
 62
   144
370
    18
100
AcDbLine
 10
11.3015705511
 20
14.7084400631
 30
0.0
 11
11.3015705511
 21
15.1573673183
 31
0.0
  0
LINE
  5
394
330
1F
100
AcDbEntity
  8
0
  6
Continuous
 62
   144
370
    18
100
AcDbLine
 10
11.3015705511
 20
14.7084400631
 30
0.0
 11
11.7464524409
 21
14.7084400631
 31
0.0
  0
ARC
  5
395
330
1F
100
AcDbEntity
  8
0
  6
Continuous
 62
   144
370
    18
100
AcDbCircle
 10
39.2641653294
 20
15.0431941017
 30
0.0
 40
0.0846456692913407
100
AcDbArc
 50
0.0
 51
180.0
  0
LINE
  5
396
330
1F
100
AcDbEntity
  8
0
  6
Continuous
 62
   144
370
    18
100
AcDbLine
 10
39.1795196601
 20
15.003824023
 30
0.0
 11
39.1795196601
 21
15.0431941017
 31
0.0
  0
ARC
  5
397
330
1F
100
AcDbEntity
  8
0
  6
Continuous
 62
   144
370
    18
100
AcDbCircle
 10
39.2641653294
 20
15.003824023
 30
0.0
 40
0.0846456692913407
100
AcDbArc
 50
180.0
 51
0.0
  0
LINE
  5
398
330
1F
100
AcDbEntity
  8
0
  6
Continuous
 62
   144
370
    18
100
AcDbLine
 10
39.3488109987
 20
15.003824023
 30
0.0
 11
39.3488109987
 21
15.0431941017
 31
0.0
  0
ELLIPSE
  5
399
330
1F
100
AcDbEntity
  8
0
  6
Continuous
 62
   144
370
    18
100
AcDbEllipse
 10
33.0200763116
 20
15.3778334832
 30
0.0
 11
0.07874015748031837
 21
0.0
 31
0.0
210
0.0
220
0.0
230
1.0
 40
0.4630473898
 41
4.712388980384696
 42
5.680391026789268
  0
LWPOLYLINE
  5
39A
330
1F
100
AcDbEntity
  8
0
  6
Continuous
 62
   144
370
    18
100
AcDbPolyline
 90
        3
 70
   128
 43
0.0
 10
33.0849388805
 20
15.3571623737
 10
33.0960325834
 20
15.3674116138
 10
33.0988164691
 20
15.3750209719
  0
ELLIPSE
  5
39B
330
1F
100
AcDbEntity
  8
0
  6
Continuous
 62
   144
370
    18
100
AcDbEllipse
 10
17.7681005138
 20
15.3778334832
 30
0.0
 11
0.07874015748031482
 21
0.0
 31
0.0
210
0.0
220
0.0
230
1.0
 40
0.4630473898
 41
3.744386939009791
 42
4.712388980384696
  0
LWPOLYLINE
  5
39C
330
1F
100
AcDbEntity
  8
0
  6
Continuous
 62
   144
370
    18
100
AcDbPolyline
 90
        3
 70
   128
 43
0.0
 10
17.7032379451
 20
15.3571623736
 10
17.692144242
 20
15.3674116137
 10
17.6893603563
 20
15.3750209719
  0
ELLIPSE
  5
39D
330
1F
100
AcDbEntity
  8
0
  6
Continuous
 62
   144
370
    18
100
AcDbEllipse
 10
36.3468443182
 20
15.3778334832
 30
0.0
 11
0.07874015748031837
 21
0.0
 31
0.0
210
0.0
220
0.0
230
1.0
 40
0.4630473898
 41
3.744386934630375
 42
4.712388980384696
  0
LWPOLYLINE
  5
39E
330
1F
100
AcDbEntity
  8
0
  6
Continuous
 62
   144
370
    18
100
AcDbPolyline
 90
        3
 70
   128
 43
0.0
 10
36.2681041607
 20
15.3750209719
 10
36.2724954636
 20
15.3653277286
 10
36.2819817493
 20
15.3571623737
  0
LINE
  5
39F
330
1F
100
AcDbEntity
  8
0
  6
Continuous
 62
   144
370
    18
100
AcDbLine
 10
36.6421199088
 20
15.3750209719
 30
0.0
 11
36.6421199088
 21
15.3957820484
 31
0.0
  0
LINE
  5
3A0
330
1F
100
AcDbEntity
  8
0
  6
Continuous
 62
   144
370
    18
100
AcDbLine
 10
23.9885766017
 20
15.3750209719
 30
0.0
 11
23.9885766017
 21
15.3957820484
 31
0.0
  0
LINE
  5
3A1
330
1F
100
AcDbEntity
  8
0
  6
Continuous
 62
   144
370
    18
100
AcDbLine
 10
26.7996002237
 20
15.3750209719
 30
0.0
 11
26.7996002237
 21
15.3957820484
 31
0.0
  0
LINE
  5
3A2
330
1F
100
AcDbEntity
  8
0
  6
Continuous
 62
   144
370
    18
100
AcDbLine
 10
26.3468443182
 20
14.7163140789
 30
0.0
 11
26.3468443182
 21
15.1573673183
 31
0.0
  0
LINE
  5
3A3
330
1F
100
AcDbEntity
  8
0
  6
Continuous
 62
   144
370
    18
100
AcDbLine
 10
26.3468443182
 20
14.814623381
 30
0.0
 11
26.3468443182
 21
14.7776899308
 31
0.0
  0
LINE
  5
3A4
330
1F
100
AcDbEntity
  8
0
  6
Continuous
 62
   144
370
    18
100
AcDbLine
 10
26.3468443182
 20
14.814623381
 30
0.0
 11
26.3468443182
 21
14.7776899308
 31
0.0
  0
LINE
  5
3A5
330
1F
100
AcDbEntity
  8
0
  6
Continuous
 62
   144
370
    18
100
AcDbLine
 10
24.4413325072
 20
14.7163140789
 30
0.0
 11
24.4413325072
 21
15.1573673183
 31
0.0
  0
LWPOLYLINE
  5
3A6
330
1F
100
AcDbEntity
  8
0
  6
Continuous
 62
   144
370
    18
100
AcDbPolyline
 90
        3
 70
   128
 43
0.0
 10
14.5200726647
 20
15.3750209719
 10
14.5156813618
 20
15.3653277286
 10
14.506195076
 20
15.3571623737
  0
ELLIPSE
  5
3A7
330
1F
100
AcDbEntity
  8
0
  6
Continuous
 62
   144
370
    18
100
AcDbEllipse
 10
14.4413325072
 20
15.3778334832
 30
0.0
 11
0.0787401574803166
 21
0.0
 31
0.0
210
0.0
220
0.0
230
1.0
 40
0.4630473898
 41
4.712388980384696
 42
5.680391023744314
  0
LINE
  5
3A8
330
1F
100
AcDbEntity
  8
0
  6
Continuous
 62
   144
370
    18
100
AcDbLine
 10
14.1460569166
 20
15.3750209719
 30
0.0
 11
14.1460569166
 21
15.3957820484
 31
0.0
  0
LINE
  5
3A9
330
1F
100
AcDbEntity
  8
0
  6
Continuous
 62
   144
370
    18
100
AcDbLine
 10
40.0200708412
 20
15.2006744049
 30
0.0
 11
40.0200708412
 21
15.196737397
 31
0.0
  0
LINE
  5
3AA
330
1F
100
AcDbEntity
  8
0
  6
Continuous
 62
     7
370
    25
100
AcDbLine
 10
10.7681023373
 20
15.196737397
 30
0.0
 11
40.0200708412
 21
15.196737397
 31
0.0
  0
LINE
  5
3AB
330
1F
100
AcDbEntity
  8
0
  6
Continuous
 62
   144
370
    18
100
AcDbLine
 10
10.7681023373
 20
15.2006744049
 30
0.0
 11
10.7681023373
 21
15.196737397
 31
0.0
  0
LINE
  5
3AC
330
1F
100
AcDbEntity
  8
0
  6
Continuous
 62
     7
370
    25
100
AcDbLine
 10
40.0200708412
 20
15.2006744049
 30
0.0
 11
10.7681023373
 21
15.2006744049
 31
0.0
  0
LINE
  5
3AD
330
1F
100
AcDbEntity
  8
0
  6
Continuous
 62
     7
370
    25
100
AcDbLine
 10
10.6696771404
 20
15.1573673183
 30
0.0
 11
10.7681023373
 21
15.1573673183
 31
0.0
  0
ARC
  5
3AE
330
1F
100
AcDbEntity
  8
0
  6
Continuous
 62
   144
370
    18
100
AcDbCircle
 10
10.6696771404
 20
15.196737397
 30
0.0
 40
0.0393700787401574
100
AcDbArc
 50
180.0
 51
270.0
  0
LINE
  5
3AF
330
1F
100
AcDbEntity
  8
0
  6
Continuous
 62
   144
370
    18
100
AcDbLine
 10
10.6855136112
 20
15.196737397
 30
0.0
 11
10.6362042769
 21
15.196737397
 31
0.0
  0
LINE
  5
3B0
330
1F
100
AcDbEntity
  8
0
  6
Continuous
 62
   144
370
    18
100
AcDbLine
 10
10.7681023373
 20
15.196737397
 30
0.0
 11
10.6855136112
 21
15.196737397
 31
0.0
  0
LINE
  5
3B1
330
1F
100
AcDbEntity
  8
0
  6
Continuous
 62
     7
370
    25
100
AcDbLine
 10
10.7681023373
 20
15.1573673183
 30
0.0
 11
10.7681023373
 21
15.196737397
 31
0.0
  0
LINE
  5
3B2
330
1F
100
AcDbEntity
  8
0
  6
Continuous
 62
   144
370
    18
100
AcDbLine
 10
40.0200708412
 20
15.2006744049
 30
0.0
 11
40.0200708412
 21
15.2400444836
 31
0.0
  0
LINE
  5
3B3
330
1F
100
AcDbEntity
  8
0
  6
Continuous
 62
   144
370
    18
100
AcDbLine
 10
10.7681023373
 20
15.2006744049
 30
0.0
 11
10.7681023373
 21
15.2400444836
 31
0.0
  0
LINE
  5
3B4
330
1F
100
AcDbEntity
  8
0
  6
Continuous
 62
     7
370
    25
100
AcDbLine
 10
10.7681023373
 20
15.2400444836
 30
0.0
 11
40.0200708412
 21
15.2400444836
 31
0.0
  0
LINE
  5
3B5
330
1F
100
AcDbEntity
  8
0
  6
Continuous
 62
     7
370
    25
100
AcDbLine
 10
40.0200708412
 20
15.1573673183
 30
0.0
 11
40.0200708412
 21
15.196737397
 31
0.0
  0
LINE
  5
3B6
330
1F
100
AcDbEntity
  8
0
  6
Continuous
 62
     7
370
    25
100
AcDbLine
 10
40.0200708412
 20
15.1573673183
 30
0.0
 11
10.7681023373
 21
15.1573673183
 31
0.0
  0
LINE
  5
3B7
330
1F
100
AcDbEntity
  8
0
  6
Continuous
 62
     7
370
    25
100
AcDbLine
 10
40.118496038
 20
15.1573673183
 30
0.0
 11
40.0200708412
 21
15.1573673183
 31
0.0
  0
ARC
  5
3B8
330
1F
100
AcDbEntity
  8
0
  6
Continuous
 62
   144
370
    18
100
AcDbCircle
 10
40.118496038
 20
15.196737397
 30
0.0
 40
0.0393700787401574
100
AcDbArc
 50
270.0
 51
0.0
  0
LINE
  5
3B9
330
1F
100
AcDbEntity
  8
0
  6
Continuous
 62
   144
370
    18
100
AcDbLine
 10
40.1026595673
 20
15.196737397
 30
0.0
 11
40.1519689016
 21
15.196737397
 31
0.0
  0
LINE
  5
3BA
330
1F
100
AcDbEntity
  8
0
  6
Continuous
 62
   144
370
    18
100
AcDbLine
 10
40.0200708412
 20
15.196737397
 30
0.0
 11
40.1026595673
 21
15.196737397
 31
0.0
  0
LINE
  5
3BB
330
1F
100
AcDbEntity
  8
0
  6
Continuous
 62
   144
370
    18
100
AcDbLine
 10
10.6723080745
 20
15.2006744049
 30
0.0
 11
10.6696033687
 21
15.2006744049
 31
0.0
  0
LINE
  5
3BC
330
1F
100
AcDbEntity
  8
0
  6
Continuous
 62
   144
370
    18
100
AcDbLine
 10
40.115865104
 20
15.2006744049
 30
0.0
 11
40.1185698098
 21
15.2006744049
 31
0.0
  0
LINE
  5
3BD
330
1F
100
AcDbEntity
  8
0
  6
Continuous
 62
   144
370
    18
100
AcDbLine
 10
10.6303070617
 20
15.2400444836
 30
0.0
 11
10.6696771404
 21
15.2400444836
 31
0.0
  0
LINE
  5
3BE
330
1F
100
AcDbEntity
  8
0
  6
Continuous
 62
   144
370
    18
100
AcDbLine
 10
10.7681023373
 20
15.2400444836
 30
0.0
 11
10.6696771404
 21
15.2400444836
 31
0.0
  0
LINE
  5
3BF
330
1F
100
AcDbEntity
  8
0
  6
Continuous
 62
   144
370
    18
100
AcDbLine
 10
40.0200708412
 20
15.2400444836
 30
0.0
 11
40.118496038
 21
15.2400444836
 31
0.0
  0
LINE
  5
3C0
330
1F
100
AcDbEntity
  8
0
  6
Continuous
 62
   144
370
    18
100
AcDbLine
 10
40.118496038
 20
15.2400444836
 30
0.0
 11
40.1578661168
 21
15.2400444836
 31
0.0
  0
ARC
  5
3C1
330
1F
100
AcDbEntity
  8
0
  6
Continuous
 62
   144
370
    18
100
AcDbCircle
 10
40.118496038
 20
15.2006744049
 30
0.0
 40
0.0393700787401574
100
AcDbArc
 50
0.0
 51
90.0
  0
ARC
  5
3C2
330
1F
100
AcDbEntity
  8
0
  6
Continuous
 62
   144
370
    18
100
AcDbCircle
 10
10.6696771404
 20
15.2006744049
 30
0.0
 40
0.0393700787401574
100
AcDbArc
 50
90.0
 51
180.0
  0
LINE
  5
3C3
330
1F
100
AcDbEntity
  8
0
  6
Continuous
 62
     7
370
    25
100
AcDbLine
 10
40.1578661168
 20
15.3711309565
 30
0.0
 11
40.1578661168
 21
15.2400444836
 31
0.0
  0
LINE
  5
3C4
330
1F
100
AcDbEntity
  8
0
  6
Continuous
 62
     7
370
    25
100
AcDbLine
 10
40.1578661168
 20
15.4067140096
 30
0.0
 11
40.1578661168
 21
15.3711309565
 31
0.0
  0
LINE
  5
3C5
330
1F
100
AcDbEntity
  8
0
  6
Continuous
 62
   144
370
    18
100
AcDbLine
 10
40.1578661168
 20
15.2400444836
 30
0.0
 11
40.1578661168
 21
15.2006744049
 31
0.0
  0
LINE
  5
3C6
330
1F
100
AcDbEntity
  8
0
  6
Continuous
 62
     7
370
    25
100
AcDbLine
 10
10.6303070617
 20
15.4067140096
 30
0.0
 11
10.6303070617
 21
15.3711309565
 31
0.0
  0
LINE
  5
3C7
330
1F
100
AcDbEntity
  8
0
  6
Continuous
 62
     7
370
    25
100
AcDbLine
 10
10.6303070617
 20
15.3711309565
 30
0.0
 11
10.6303070617
 21
15.2400444836
 31
0.0
  0
LINE
  5
3C8
330
1F
100
AcDbEntity
  8
0
  6
Continuous
 62
   144
370
    18
100
AcDbLine
 10
10.6303070617
 20
15.2006744049
 30
0.0
 11
10.6303070617
 21
15.2400444836
 31
0.0
  0
ARC
  5
3C9
330
1F
100
AcDbEntity
  8
0
  6
Continuous
 62
   144
370
    18
100
AcDbCircle
 10
11.9953164838
 20
15.2930211414
 30
0.0
 40
0.046508566379603
100
AcDbArc
 50
62.4659302615
 51
90.3238012707
  0
LINE
  5
3CA
330
1F
100
AcDbEntity
  8
0
  6
Continuous
 62
     7
370
    25
100
AcDbLine
 10
40.1578661168
 20
15.3711309565
 30
0.0
 11
38.7860266946
 21
15.3711309565
 31
0.0
  0
LINE
  5
3CB
330
1F
100
AcDbEntity
  8
0
  6
Continuous
 62
   144
370
    18
100
AcDbLine
 10
38.7860266946
 20
15.3711309565
 30
0.0
 11
38.7860184136
 21
15.3707879528
 31
0.0
  0
LINE
  5
3CC
330
1F
100
AcDbEntity
  8
0
  6
Continuous
 62
   144
370
    18
100
AcDbLine
 10
38.7860184136
 20
15.3707879528
 30
0.0
 11
38.7859831493
 21
15.3621332576
 31
0.0
  0
ARC
  5
3CD
330
1F
100
AcDbEntity
  8
0
  6
Continuous
 62
   144
370
    18
100
AcDbCircle
 10
13.0496034583
 20
15.0128618223
 30
0.0
 40
25.73874958372662
100
AcDbArc
 50
0.5057268478
 51
0.7775200306
  0
ARC
  5
3CE
330
1F
100
AcDbEntity
  8
0
  6
Continuous
 62
     7
370
    25
100
AcDbCircle
 10
38.7283573162
 20
15.4167436167
 30
0.0
 40
0.0930171327560225
100
AcDbArc
 50
269.6761987285
 51
297.5340697389
  0
LINE
  5
3CF
330
1F
100
AcDbEntity
  8
0
  6
Continuous
 62
     7
370
    25
100
AcDbLine
 10
10.6303070617
 20
15.3711309565
 30
0.0
 11
12.0021464839
 21
15.3711309565
 31
0.0
  0
ARC
  5
3D0
330
1F
100
AcDbEntity
  8
0
  6
Continuous
 62
   144
370
    18
100
AcDbCircle
 10
37.738569718
 20
15.0128618223
 30
0.0
 40
25.73874958163299
100
AcDbArc
 50
179.2224799694
 51
179.4942731522
  0
LINE
  5
3D1
330
1F
100
AcDbEntity
  8
0
  6
Continuous
 62
   144
370
    18
100
AcDbLine
 10
12.0021547649
 20
15.3707879528
 30
0.0
 11
12.0021900292
 21
15.3621332576
 31
0.0
  0
LINE
  5
3D2
330
1F
100
AcDbEntity
  8
0
  6
Continuous
 62
   144
370
    18
100
AcDbLine
 10
12.0021464839
 20
15.3711309565
 30
0.0
 11
12.0021547649
 21
15.3707879528
 31
0.0
  0
ARC
  5
3D3
330
1F
100
AcDbEntity
  8
0
  6
Continuous
 62
     7
370
    25
100
AcDbCircle
 10
12.0598158622
 20
15.4167436167
 30
0.0
 40
0.0930171327560438
100
AcDbArc
 50
242.4659302611
 51
270.3238012715
  0
ARC
  5
3D4
330
1F
100
AcDbEntity
  8
0
  6
Continuous
 62
   144
370
    18
100
AcDbCircle
 10
38.7928566947
 20
15.2930211414
 30
0.0
 40
0.0465085663796226
100
AcDbArc
 50
89.6761987293
 51
117.5340697385
  0
LINE
  5
3D5
330
1F
100
AcDbEntity
  8
0
  6
Continuous
 62
     7
370
    25
100
AcDbLine
 10
37.8940865892
 20
15.3237279694
 30
0.0
 11
38.7278316422
 21
15.3237279694
 31
0.0
  0
LINE
  5
3D6
330
1F
100
AcDbEntity
  8
0
  6
Continuous
 62
     7
370
    25
100
AcDbLine
 10
12.0603415363
 20
15.3237279694
 30
0.0
 11
37.1460550932
 21
15.3237279694
 31
0.0
  0
LINE
  5
3D7
330
1F
100
AcDbEntity
  8
0
  6
Continuous
 62
   144
370
    18
100
AcDbLine
 10
37.1460550932
 20
15.2589966343
 30
0.0
 11
37.1460550932
 21
15.3237279694
 31
0.0
  0
LINE
  5
3D8
330
1F
100
AcDbEntity
  8
0
  6
Continuous
 62
   144
370
    18
100
AcDbLine
 10
37.1460550932
 20
15.2589966343
 30
0.0
 11
37.153271878
 21
15.2400444836
 31
0.0
  0
LINE
  5
3D9
330
1F
100
AcDbEntity
  8
0
  6
Continuous
 62
   144
370
    18
100
AcDbLine
 10
37.888458402
 20
15.2400444836
 30
0.0
 11
37.8940865892
 21
15.2589966343
 31
0.0
  0
LINE
  5
3DA
330
1F
100
AcDbEntity
  8
0
  6
Continuous
 62
   144
370
    18
100
AcDbLine
 10
37.8940865892
 20
15.3237279694
 30
0.0
 11
37.8940865892
 21
15.2589966343
 31
0.0
  0
LWPOLYLINE
  5
3DB
330
1F
100
AcDbEntity
  8
0
  6
Continuous
 62
   144
370
    18
100
AcDbPolyline
 90
        3
 70
   128
 43
0.0
 10
12.000822768
 20
15.4565799167
 10
12.0010476538
 20
15.4370107099
 10
12.0021464839
 20
15.3711309565
  0
LINE
  5
3DC
330
1F
100
AcDbEntity
  8
0
  6
Continuous
 62
   144
370
    18
100
AcDbLine
 10
12.000822768
 20
15.4565799167
 30
0.0
 11
11.4913077205
 21
15.4565799167
 31
0.0
  0
ARC
  5
3DD
330
1F
100
AcDbEntity
  8
0
  6
Continuous
 62
   144
370
    18
100
AcDbCircle
 10
11.2574247851
 20
17.9102215939
 30
0.0
 40
2.464763418239619
100
AcDbArc
 50
272.8118847279
 51
275.445024513
  0
LINE
  5
3DE
330
1F
100
AcDbEntity
  8
0
  6
Continuous
 62
   144
370
    18
100
AcDbLine
 10
11.3783385577
 20
15.4484257926
 30
0.0
 11
10.7484172979
 21
15.4484257926
 31
0.0
  0
LWPOLYLINE
  5
3DF
330
1F
100
AcDbEntity
  8
0
  6
Continuous
 62
   144
370
    18
100
AcDbPolyline
 90
        6
 70
   128
 43
0.0
 10
10.6303070617
 20
15.4067140096
 10
10.6347480443
 20
15.4219591306
 10
10.6502477008
 20
15.434644289
 10
10.6761152189
 20
15.4428044916
 10
10.710109081
 20
15.4471189339
 10
10.7484172979
 20
15.4484257926
  0
LWPOLYLINE
  5
3E0
330
1F
100
AcDbEntity
  8
0
  6
Continuous
 62
   144
370
    18
100
AcDbPolyline
 90
        6
 70
   128
 43
0.0
 10
40.1578661168
 20
15.4067140096
 10
40.1534251342
 20
15.4219591306
 10
40.1379254777
 20
15.434644289
 10
40.1120579596
 20
15.4428044916
 10
40.0780640975
 20
15.4471189339
 10
40.0397558806
 20
15.4484257926
  0
LINE
  5
3E1
330
1F
100
AcDbEntity
  8
0
  6
Continuous
 62
   144
370
    18
100
AcDbLine
 10
39.4098346207
 20
15.4484257926
 30
0.0
 11
40.0397558806
 21
15.4484257926
 31
0.0
  0
ARC
  5
3E2
330
1F
100
AcDbEntity
  8
0
  6
Continuous
 62
   144
370
    18
100
AcDbCircle
 10
39.5307483934
 20
17.9102215939
 30
0.0
 40
2.464763418238187
100
AcDbArc
 50
264.554975487
 51
267.1881152721
  0
LINE
  5
3E3
330
1F
100
AcDbEntity
  8
0
  6
Continuous
 62
   144
370
    18
100
AcDbLine
 10
38.7873504105
 20
15.4565799167
 30
0.0
 11
39.2968654579
 21
15.4565799167
 31
0.0
  0
LWPOLYLINE
  5
3E4
330
1F
100
AcDbEntity
  8
0
  6
Continuous
 62
   144
370
    18
100
AcDbPolyline
 90
        3
 70
   128
 43
0.0
 10
38.7873504105
 20
15.4565799167
 10
38.7871255246
 20
15.4370107099
 10
38.7860266946
 20
15.3711309565
  0
LWPOLYLINE
  5
3E5
330
1F
100
AcDbEntity
  8
0
  6
Continuous
 62
     7
370
    25
100
AcDbPolyline
 90
        3
 70
   128
 43
0.0
 10
38.7278316422
 20
15.3975247986
 10
38.7278623803
 20
15.3787402054
 10
38.7278316422
 20
15.3237279694
  0
ARC
  5
3E6
330
1F
100
AcDbEntity
  8
0
  6
Continuous
 62
   144
370
    18
100
AcDbCircle
 10
38.7278316422
 20
15.4762649561
 30
0.0
 40
0.0787401574803231
100
AcDbArc
 50
270.0
 51
303.5573097619
  0
LWPOLYLINE
  5
3E7
330
1F
100
AcDbEntity
  8
0
  6
Continuous
 62
   144
370
    18
100
AcDbPolyline
 90
        3
 70
   128
 43
0.0
 10
38.7713569019
 20
15.4106481582
 10
38.7713872704
 20
15.3931696131
 10
38.7713569019
 20
15.3342619665
  0
LWPOLYLINE
  5
3E8
330
1F
100
AcDbEntity
  8
0
  6
Continuous
 62
     7
370
    25
100
AcDbPolyline
 90
        3
 70
   128
 43
0.0
 10
12.0603415363
 20
15.3975247986
 10
12.0603107981
 20
15.3787402054
 10
12.0603415363
 20
15.3237279694
  0
LWPOLYLINE
  5
3E9
330
1F
100
AcDbEntity
  8
0
  6
Continuous
 62
   144
370
    18
100
AcDbPolyline
 90
        3
 70
   128
 43
0.0
 10
12.0168162766
 20
15.4106481582
 10
12.016785908
 20
15.3931696131
 10
12.0168162766
 20
15.3342619665
  0
ARC
  5
3EA
330
1F
100
AcDbEntity
  8
0
  6
Continuous
 62
   144
370
    18
100
AcDbCircle
 10
12.0603415363
 20
15.4762649561
 30
0.0
 40
0.0787401574803251
100
AcDbArc
 50
236.4426902381
 51
270.0
  0
LINE
  5
3EB
330
1F
100
AcDbEntity
  8
0
  6
Continuous
 62
     7
370
    25
100
AcDbLine
 10
37.2193448241
 20
15.3975247986
 30
0.0
 11
12.0603415363
 21
15.3975247986
 31
0.0
  0
LWPOLYLINE
  5
3EC
330
1F
100
AcDbEntity
  8
0
  6
Continuous
 62
   144
370
    18
100
AcDbPolyline
 90
        4
 70
   128
 43
0.0
 10
37.2193448241
 20
15.3975247986
 10
37.1765763233
 20
15.393956706
 10
37.151882727
 20
15.380209069
 10
37.1460550932
 20
15.3604356259
  0
LINE
  5
3ED
330
1F
100
AcDbEntity
  8
0
  6
Continuous
 62
   144
370
    18
100
AcDbLine
 10
37.1460550932
 20
15.3237279694
 30
0.0
 11
37.1460550932
 21
15.3604356259
 31
0.0
  0
LINE
  5
3EE
330
1F
100
AcDbEntity
  8
0
  6
Continuous
 62
     7
370
    25
100
AcDbLine
 10
38.7278316422
 20
15.3975247986
 30
0.0
 11
37.8472686487
 21
15.3975247986
 31
0.0
  0
LINE
  5
3EF
330
1F
100
AcDbEntity
  8
0
  6
Continuous
 62
   144
370
    18
100
AcDbLine
 10
37.8940865892
 20
15.3604356259
 30
0.0
 11
37.8940865892
 21
15.3237279694
 31
0.0
  0
LWPOLYLINE
  5
3F0
330
1F
100
AcDbEntity
  8
0
  6
Continuous
 62
   144
370
    18
100
AcDbPolyline
 90
        4
 70
   128
 43
0.0
 10
37.8940865892
 20
15.3604356259
 10
37.8849833716
 20
15.3838367132
 10
37.8565495648
 20
15.3953218577
 10
37.8479003773
 20
15.3958547865
  0
LINE
  5
3F1
330
1F
100
AcDbEntity
  8
0
  6
Continuous
 62
   144
370
    18
100
AcDbLine
 10
38.6224330459
 20
15.4172098379
 30
0.0
 11
12.1657401325
 21
15.4172098379
 31
0.0
  0
LINE
  5
3F2
330
1F
100
AcDbEntity
  8
0
  6
Continuous
 62
   144
370
    18
100
AcDbLine
 10
12.0151465923
 20
15.4172098379
 30
0.0
 11
12.1657401325
 21
15.4172098379
 31
0.0
  0
LINE
  5
3F3
330
1F
100
AcDbEntity
  8
0
  6
Continuous
 62
   144
370
    18
100
AcDbLine
 10
38.7730265862
 20
15.4172098379
 30
0.0
 11
38.6224330459
 21
15.4172098379
 31
0.0
  0
LINE
  5
3F4
330
1F
100
AcDbEntity
  8
0
  6
Continuous
 62
   144
370
    18
100
AcDbLine
 10
37.3625905262
 20
15.3975247986
 30
0.0
 11
37.6775511562
 21
15.3975247986
 31
0.0
  0
LINE
  5
3F5
330
1F
100
AcDbEntity
  8
0
  6
Continuous
 62
   144
370
    18
100
AcDbLine
 10
37.3625905262
 20
15.3975247986
 30
0.0
 11
37.2193448241
 21
15.3975247986
 31
0.0
  0
LINE
  5
3F6
330
1F
100
AcDbEntity
  8
0
  6
Continuous
 62
   144
370
    18
100
AcDbLine
 10
37.933456668
 20
15.2545868442
 30
0.0
 11
37.9279017048
 21
15.2400444836
 31
0.0
  0
LINE
  5
3F7
330
1F
100
AcDbEntity
  8
0
  6
Continuous
 62
   144
370
    18
100
AcDbLine
 10
37.3625905262
 20
15.1573673183
 30
0.0
 11
37.3625905262
 21
15.1426937889
 31
0.0
  0
ARC
  5
3F8
330
1F
100
AcDbEntity
  8
0
  6
Continuous
 62
   144
370
    18
100
AcDbCircle
 10
37.3359777413
 20
15.9073728719
 30
0.0
 40
0.7650370122718334
100
AcDbArc
 50
258.6234486905
 51
271.9935087125
  0
LINE
  5
3F9
330
1F
100
AcDbEntity
  8
0
  6
Continuous
 62
   144
370
    18
100
AcDbLine
 10
37.1618031247
 20
15.2889657788
 30
0.0
 11
37.1618031247
 21
15.2400444836
 31
0.0
  0
ARC
  5
3FA
330
1F
100
AcDbEntity
  8
0
  6
Continuous
 62
   144
370
    18
100
AcDbCircle
 10
37.3426841307
 20
15.6775165266
 30
0.0
 40
0.5291095676637941
100
AcDbArc
 50
259.4405247129
 51
272.156116154
  0
ARC
  5
3FB
330
1F
100
AcDbEntity
  8
0
  6
Continuous
 62
   144
370
    18
100
AcDbCircle
 10
37.872865873
 20
15.3087346546
 30
0.0
 40
0.0181673252378325
100
AcDbArc
 50
182.548089258
 51
239.4335127939
  0
LINE
  5
3FC
330
1F
100
AcDbEntity
  8
0
  6
Continuous
 62
   144
370
    18
100
AcDbLine
 10
37.8547165105
 20
15.3079269736
 30
0.0
 11
37.8547165105
 21
15.2766986578
 31
0.0
  0
LINE
  5
3FD
330
1F
100
AcDbEntity
  8
0
  6
Continuous
 62
   144
370
    18
100
AcDbLine
 10
37.8547165105
 20
15.2586973388
 30
0.0
 11
37.8547165105
 21
15.2370068087
 31
0.0
  0
LINE
  5
3FE
330
1F
100
AcDbEntity
  8
0
  6
Continuous
 62
   144
370
    18
100
AcDbLine
 10
37.7956499201
 20
15.354217712
 30
0.0
 11
37.8544899952
 21
15.354217712
 31
0.0
  0
LWPOLYLINE
  5
3FF
330
1F
100
AcDbEntity
  8
0
  6
Continuous
 62
   144
370
    18
100
AcDbPolyline
 90
        3
 70
   128
 43
0.0
 10
37.8544899952
 20
15.354217712
 10
37.8802636031
 20
15.3526581516
 10
37.8899282195
 20
15.3486643161
  0
LINE
  5
400
330
1F
100
AcDbEntity
  8
0
  6
Continuous
 62
   144
370
    18
100
AcDbLine
 10
37.8783385577
 20
15.2889657788
 30
0.0
 11
37.8783385577
 21
15.3174453229
 31
0.0
  0
LWPOLYLINE
  5
401
330
1F
100
AcDbEntity
  8
0
  6
Continuous
 62
   144
370
    18
100
AcDbPolyline
 90
        5
 70
   128
 43
0.0
 10
37.8783385577
 20
15.3174453229
 10
37.8698186208
 20
15.3395041076
 10
37.8429961518
 20
15.3510904186
 10
37.8013153969
 20
15.3541936354
 10
37.7956499201
 20
15.354217712
  0
LINE
  5
402
330
1F
100
AcDbEntity
  8
0
  6
Continuous
 62
     7
370
    25
100
AcDbLine
 10
37.2444917623
 20
15.354217712
 30
0.0
 11
37.2215418646
 21
15.352857483
 31
0.0
  0
LWPOLYLINE
  5
403
330
1F
100
AcDbEntity
  8
0
  6
Continuous
 62
   144
370
    18
100
AcDbPolyline
 90
        3
 70
   128
 43
0.0
 10
37.1460550932
 20
15.3494545731
 10
37.14607887
 20
15.3494744007
 10
37.1856516872
 20
15.354217712
  0
LINE
  5
404
330
1F
100
AcDbEntity
  8
0
  6
Continuous
 62
   144
370
    18
100
AcDbLine
 10
37.1618031247
 20
15.3174453229
 30
0.0
 11
37.1618031247
 21
15.2889657788
 31
0.0
  0
LWPOLYLINE
  5
405
330
1F
100
AcDbEntity
  8
0
  6
Continuous
 62
   144
370
    18
100
AcDbPolyline
 90
        9
 70
   128
 43
0.0
 10
37.2444917623
 20
15.354217712
 10
37.2472023418
 20
15.354671603
 10
37.2498087553
 20
15.3560158332
 10
37.2522108397
 20
15.3581987447
 10
37.2543162843
 20
15.3611364494
 10
37.256044178
 20
15.3647160529
 10
37.2573281188
 20
15.3687999931
 10
37.2581187657
 20
15.3732313264
 10
37.2583857345
 20
15.3778397592
  0
LWPOLYLINE
  5
406
330
1F
100
AcDbEntity
  8
0
  6
Continuous
 62
   144
370
    18
100
AcDbPolyline
 90
        4
 70
   128
 43
0.0
 10
37.1854251719
 20
15.3384407709
 10
37.194140667
 20
15.3633823832
 10
37.2190413742
 20
15.3750081413
 10
37.2583857345
 20
15.3778397592
  0
ARC
  5
407
330
1F
100
AcDbEntity
  8
0
  6
Continuous
 62
   144
370
    18
100
AcDbCircle
 10
37.1630434096
 20
15.3398362196
 30
0.0
 40
0.0224252215284638
100
AcDbArc
 50
266.8294907575
 51
356.4323649256
  0
LINE
  5
408
330
1F
100
AcDbEntity
  8
0
  6
Continuous
 62
   144
370
    18
100
AcDbLine
 10
37.1854251719
 20
15.2766986578
 30
0.0
 11
37.1854251719
 21
15.2400444836
 31
0.0
  0
LINE
  5
409
330
1F
100
AcDbEntity
  8
0
  6
Continuous
 62
   144
370
    18
100
AcDbLine
 10
37.1854251719
 20
15.3778359353
 30
0.0
 11
37.1854251719
 21
15.3363687659
 31
0.0
  0
LINE
  5
40A
330
1F
100
AcDbEntity
  8
0
  6
Continuous
 62
   144
370
    18
100
AcDbLine
 10
37.1854251719
 20
15.3363687659
 30
0.0
 11
37.1854251719
 21
15.2766986578
 31
0.0
  0
LINE
  5
40B
330
1F
100
AcDbEntity
  8
0
  6
Continuous
 62
   144
370
    18
100
AcDbLine
 10
37.6775511562
 20
15.3778397592
 30
0.0
 11
37.7817559479
 21
15.3778397592
 31
0.0
  0
LWPOLYLINE
  5
40C
330
1F
100
AcDbEntity
  8
0
  6
Continuous
 62
   144
370
    18
100
AcDbPolyline
 90
        5
 70
   128
 43
0.0
 10
37.7817559479
 20
15.3778397592
 10
37.786754898
 20
15.3778139629
 10
37.8235320347
 20
15.3744890877
 10
37.8471989191
 20
15.3620751831
 10
37.8547165105
 20
15.3384407709
  0
LINE
  5
40D
330
1F
100
AcDbEntity
  8
0
  6
Continuous
 62
   144
370
    18
100
AcDbLine
 10
37.8547165105
 20
15.3778359353
 30
0.0
 11
37.8547165105
 21
15.3384407709
 31
0.0
  0
LWPOLYLINE
  5
40E
330
1F
100
AcDbEntity
  8
0
  6
Continuous
 62
   144
370
    18
100
AcDbPolyline
 90
        4
 70
   128
 43
0.0
 10
37.8547165105
 20
15.3778359353
 10
37.8464117851
 20
15.3997899682
 10
37.821459839
 20
15.4106347291
 10
37.7817559479
 20
15.4132728301
  0
LINE
  5
40F
330
1F
100
AcDbEntity
  8
0
  6
Continuous
 62
   144
370
    18
100
AcDbLine
 10
37.7817559479
 20
15.4132728301
 30
0.0
 11
37.6775511562
 21
15.4132728301
 31
0.0
  0
LINE
  5
410
330
1F
100
AcDbEntity
  8
0
  6
Continuous
 62
   144
370
    18
100
AcDbLine
 10
37.6775511562
 20
15.3778397592
 30
0.0
 11
37.6775511562
 21
15.4132728301
 31
0.0
  0
ARC
  5
411
330
1F
100
AcDbEntity
  8
0
  6
Continuous
 62
   144
370
    18
100
AcDbCircle
 10
37.8770794122
 20
15.2752791167
 30
0.0
 40
0.0224079108787358
100
AcDbArc
 50
86.7787383033
 51
176.367880256
  0
LWPOLYLINE
  5
412
330
1F
100
AcDbEntity
  8
0
  6
Continuous
 62
   144
370
    18
100
AcDbPolyline
 90
        3
 70
   128
 43
0.0
 10
37.8355320227
 20
15.2400444836
 10
37.8448184667
 20
15.2464665361
 10
37.8547165105
 20
15.2766986578
  0
LWPOLYLINE
  5
413
330
1F
100
AcDbEntity
  8
0
  6
Continuous
 62
   144
370
    18
100
AcDbPolyline
 90
        4
 70
   128
 43
0.0
 10
37.8783385577
 20
15.2976516226
 10
37.8671207747
 20
15.2684286399
 10
37.8323974812
 20
15.2479479975
 10
37.7957268915
 20
15.2400444836
  0
LINE
  5
414
330
1F
100
AcDbEntity
  8
0
  6
Continuous
 62
   144
370
    18
100
AcDbLine
 10
11.9767637546
 20
15.5353200742
 30
0.0
 11
11.9767637546
 21
15.4565799167
 31
0.0
  0
LINE
  5
415
330
1F
100
AcDbEntity
  8
0
  6
Continuous
 62
   144
370
    18
100
AcDbLine
 10
11.9767637546
 20
15.1573673183
 30
0.0
 11
11.9767637546
 21
14.8030366096
 31
0.0
  0
LINE
  5
416
330
1F
100
AcDbEntity
  8
0
  6
Continuous
 62
   144
370
    18
100
AcDbLine
 10
11.5121968254
 20
36.539257082
 30
0.0
 11
11.5121968254
 21
36.5038240112
 31
0.0
  0
LINE
  5
417
330
1F
100
AcDbEntity
  8
0
  6
Continuous
 62
   144
370
    18
100
AcDbLine
 10
39.275976353
 20
36.5038240112
 30
0.0
 11
39.275976353
 21
36.539257082
 31
0.0
  0
LWPOLYLINE
  5
418
330
1F
100
AcDbEntity
  8
0
  6
Continuous
 62
   144
370
    18
100
AcDbPolyline
 90
        3
 70
   128
 43
0.0
 10
26.1384153765
 20
36.5372885781
 10
26.1329127341
 20
36.5286763062
 10
26.1139503084
 20
36.5038240112
  0
LWPOLYLINE
  5
419
330
1F
100
AcDbEntity
  8
0
  6
Continuous
 62
   144
370
    18
100
AcDbPolyline
 90
        3
 70
   128
 43
0.0
 10
24.2805220827
 20
36.5038240112
 10
24.2615596569
 20
36.5286763062
 10
24.2560570146
 20
36.5372885781
  0
LINE
  5
41A
330
1F
100
AcDbEntity
  8
0
  6
Continuous
 62
   144
370
    18
100
AcDbLine
 10
38.8114094239
 20
14.8030366096
 30
0.0
 11
38.8114094239
 21
15.1573673183
 31
0.0
  0
LINE
  5
41B
330
1F
100
AcDbEntity
  8
0
  6
Continuous
 62
   144
370
    18
100
AcDbLine
 10
38.8114094239
 20
15.4565799167
 30
0.0
 11
38.8114094239
 21
15.5353200742
 31
0.0
  0
LINE
  5
41C
330
1F
100
AcDbEntity
  8
0
  6
Continuous
 62
   144
370
    18
100
AcDbLine
 10
11.4728267467
 20
36.5055878642
 30
0.0
 11
11.4728267467
 21
36.539257082
 31
0.0
  0
LINE
  5
41D
330
1F
100
AcDbEntity
  8
0
  6
Continuous
 62
   144
370
    18
100
AcDbLine
 10
11.9163096638
 20
15.0830757526
 30
0.0
 11
11.9906012295
 21
15.1573673183
 31
0.0
  0
LINE
  5
41E
330
1F
100
AcDbEntity
  8
0
  6
Continuous
 62
   144
370
    18
100
AcDbLine
 10
38.797571949
 20
15.1573673183
 30
0.0
 11
38.8718635147
 21
15.0830757526
 31
0.0
  0
LINE
  5
41F
330
1F
100
AcDbEntity
  8
0
  6
Continuous
 62
     8
370
    25
100
AcDbLine
 10
40.1116062743
 20
14.9053988143
 30
0.0
 11
40.1116062743
 21
15.1573673183
 31
0.0
  0
LINE
  5
420
330
1F
100
AcDbEntity
  8
0
  6
Continuous
 62
     8
370
    25
100
AcDbLine
 10
40.1116062743
 20
15.196737397
 30
0.0
 11
40.1116062743
 21
15.2006744049
 31
0.0
  0
LINE
  5
421
330
1F
100
AcDbEntity
  8
0
  6
Continuous
 62
     8
370
    25
100
AcDbLine
 10
40.1116062743
 20
15.4428618188
 30
0.0
 11
40.1116062743
 21
15.5353200742
 31
0.0
  0
LINE
  5
422
330
1F
100
AcDbEntity
  8
0
  6
Continuous
 62
     8
370
    25
100
AcDbLine
 10
40.1116062743
 20
36.5176035387
 30
0.0
 11
40.1116062743
 21
36.539257082
 31
0.0
  0
LINE
  5
423
330
1F
100
AcDbEntity
  8
0
  6
Continuous
 62
     8
370
    25
100
AcDbLine
 10
40.1116062743
 20
37.836858783
 30
0.0
 11
40.1116062743
 21
38.0943751923
 31
0.0
  0
LINE
  5
424
330
1F
100
AcDbEntity
  8
0
  6
Continuous
 62
     8
370
    25
100
AcDbLine
 10
39.4255102388
 20
36.539257082
 30
0.0
 11
39.4255102388
 21
36.5038240112
 31
0.0
  0
LINE
  5
425
330
1F
100
AcDbEntity
  8
0
  6
Continuous
 62
     8
370
    25
100
AcDbLine
 10
39.3865109564
 20
36.539257082
 30
0.0
 11
39.3865109564
 21
36.5038240112
 31
0.0
  0
LINE
  5
426
330
1F
100
AcDbEntity
  8
0
  6
Continuous
 62
     8
370
    25
100
AcDbLine
 10
39.4244421464
 20
38.0943751923
 30
0.0
 11
39.4244421464
 21
37.8384696805
 31
0.0
  0
LINE
  5
427
330
1F
100
AcDbEntity
  8
0
  6
Continuous
 62
     8
370
    25
100
AcDbLine
 10
39.4244421464
 20
15.5353200742
 30
0.0
 11
39.4244421464
 21
15.4484257926
 31
0.0
  0
LINE
  5
428
330
1F
100
AcDbEntity
  8
0
  6
Continuous
 62
     8
370
    25
100
AcDbLine
 10
10.6765669042
 20
38.0943751923
 30
0.0
 11
10.6765669042
 21
37.836858783
 31
0.0
  0
LINE
  5
429
330
1F
100
AcDbEntity
  8
0
  6
Continuous
 62
     8
370
    25
100
AcDbLine
 10
10.6765669042
 20
36.539257082
 30
0.0
 11
10.6765669042
 21
36.5176035387
 31
0.0
  0
LINE
  5
42A
330
1F
100
AcDbEntity
  8
0
  6
Continuous
 62
     8
370
    25
100
AcDbLine
 10
10.6765669042
 20
15.5353200742
 30
0.0
 11
10.6765669042
 21
15.4428618188
 31
0.0
  0
LINE
  5
42B
330
1F
100
AcDbEntity
  8
0
  6
Continuous
 62
     8
370
    25
100
AcDbLine
 10
10.6765669042
 20
15.2006744049
 30
0.0
 11
10.6765669042
 21
15.196737397
 31
0.0
  0
LINE
  5
42C
330
1F
100
AcDbEntity
  8
0
  6
Continuous
 62
     8
370
    25
100
AcDbLine
 10
10.6765669042
 20
15.1573673183
 30
0.0
 11
10.6765669042
 21
14.9053988143
 31
0.0
  0
LINE
  5
42D
330
1F
100
AcDbEntity
  8
0
  6
Continuous
 62
     8
370
    25
100
AcDbLine
 10
11.3626629396
 20
36.5038240112
 30
0.0
 11
11.3626629396
 21
36.539257082
 31
0.0
  0
LINE
  5
42E
330
1F
100
AcDbEntity
  8
0
  6
Continuous
 62
   144
370
    18
100
AcDbLine
 10
11.4016622221
 20
36.5038240112
 30
0.0
 11
11.4016622221
 21
36.539257082
 31
0.0
  0
LINE
  5
42F
330
1F
100
AcDbEntity
  8
0
  6
Continuous
 62
     8
370
    25
100
AcDbLine
 10
11.363731032
 20
15.4484257926
 30
0.0
 11
11.363731032
 21
15.5353200742
 31
0.0
  0
LINE
  5
430
330
1F
100
AcDbEntity
  8
0
  6
Continuous
 62
     8
370
    25
100
AcDbLine
 10
11.363731032
 20
37.8384696805
 30
0.0
 11
11.363731032
 21
38.0943751923
 31
0.0
  0
LINE
  5
431
330
1F
100
AcDbEntity
  8
0
  6
Continuous
 62
     8
370
    25
100
AcDbLine
 10
11.9163096638
 20
14.754673337
 30
0.0
 11
11.9163096638
 21
15.1573673183
 31
0.0
  0
LINE
  5
432
330
1F
100
AcDbEntity
  8
0
  6
Continuous
 62
     8
370
    25
100
AcDbLine
 10
11.9369979866
 20
15.5353200742
 30
0.0
 11
11.9369979866
 21
15.4565799167
 31
0.0
  0
LINE
  5
433
330
1F
100
AcDbEntity
  8
0
  6
Continuous
 62
     8
370
    25
100
AcDbLine
 10
11.9369979866
 20
15.1573673183
 30
0.0
 11
11.9369979866
 21
14.7753616598
 31
0.0
  0
LINE
  5
434
330
1F
100
AcDbEntity
  8
0
  6
Continuous
 62
     8
370
    25
100
AcDbLine
 10
38.8718635147
 20
15.1573673183
 30
0.0
 11
38.8718635147
 21
14.754673337
 31
0.0
  0
LINE
  5
435
330
1F
100
AcDbEntity
  8
0
  6
Continuous
 62
     8
370
    25
100
AcDbLine
 10
38.8511751918
 20
14.7753616598
 30
0.0
 11
38.8511751918
 21
15.1573673183
 31
0.0
  0
LINE
  5
436
330
1F
100
AcDbEntity
  8
0
  6
Continuous
 62
     8
370
    25
100
AcDbLine
 10
38.8511751918
 20
15.4565799167
 30
0.0
 11
38.8511751918
 21
15.5353200742
 31
0.0
  0
LINE
  5
437
330
1F
100
AcDbEntity
  8
0
  6
Continuous
 62
     8
370
    25
100
AcDbLine
 10
40.2287322585
 20
36.4388633812
 30
0.0
 11
40.2262420892
 21
36.4388633812
 31
0.0
  0
LINE
  5
438
330
1F
100
AcDbEntity
  8
0
  6
Continuous
 62
     8
370
    25
100
AcDbLine
 10
10.5619310892
 20
36.4388633812
 30
0.0
 11
10.5594409199
 21
36.4388633812
 31
0.0
  0
LINE
  5
439
330
1F
100
AcDbEntity
  8
0
  6
Continuous
 62
     8
370
    25
100
AcDbLine
 10
40.2647528602
 20
36.568340035
 30
0.0
 11
40.264752677
 21
36.5683449894
 31
0.0
  0
LINE
  5
43A
330
1F
100
AcDbEntity
  8
0
  6
Continuous
 62
     8
370
    25
100
AcDbLine
 10
39.6932991877
 20
37.8305956647
 30
0.0
 11
39.6854251719
 21
37.8305956647
 31
0.0
  0
LINE
  5
43B
330
1F
100
AcDbEntity
  8
0
  6
Continuous
 62
   144
370
    18
100
AcDbLine
 10
11.1027480066
 20
37.8305956647
 30
0.0
 11
11.0948739908
 21
37.8305956647
 31
0.0
  0
LINE
  5
43C
330
1F
100
AcDbEntity
  8
0
  6
Continuous
 62
     8
370
    25
100
AcDbLine
 10
12.0521293339
 20
37.8384696805
 30
0.0
 11
12.0521293339
 21
38.0943751923
 31
0.0
  0
ARC
  5
43D
330
1F
100
AcDbEntity
  8
0
  6
Continuous
 62
     8
370
    25
100
AcDbCircle
 10
28.9791277327
 20
37.5664360353
 30
0.0
 40
0.3901439566121311
100
AcDbArc
 50
43.8060362601
 51
89.9644084277
  0
LINE
  5
43E
330
1F
100
AcDbEntity
  8
0
  6
Continuous
 62
     8
370
    25
100
AcDbLine
 10
37.5569778834
 20
38.0943751923
 30
0.0
 11
37.6813141446
 21
37.9949061833
 31
0.0
  0
ARC
  5
43F
330
1F
100
AcDbEntity
  8
0
  6
Continuous
 62
     8
370
    25
100
AcDbCircle
 10
29.0661096501
 20
37.5666566556
 30
0.0
 40
0.3899233354701737
100
AcDbArc
 50
43.7922124802
 51
89.964618006
  0
ARC
  5
440
330
1F
100
AcDbEntity
  8
0
  6
Continuous
 62
     8
370
    25
100
AcDbCircle
 10
30.4622210087
 20
37.5666566556
 30
0.0
 40
0.3899233354701736
100
AcDbArc
 50
90.035381994
 51
136.2077875198
  0
LINE
  5
441
330
1F
100
AcDbEntity
  8
0
  6
Continuous
 62
     8
370
    25
100
AcDbLine
 10
33.1710534908
 20
38.055093163
 30
0.0
 11
33.2215587642
 21
38.0943751923
 31
0.0
  0
LINE
  5
442
330
1F
100
AcDbEntity
  8
0
  6
Continuous
 62
     8
370
    25
100
AcDbLine
 10
33.3315011313
 20
38.0943751923
 30
0.0
 11
33.2338685755
 21
38.0307472823
 31
0.0
  0
LINE
  5
443
330
1F
100
AcDbEntity
  8
0
  6
Continuous
 62
     8
370
    25
100
AcDbLine
 10
31.1122108154
 20
37.927751844
 30
0.0
 11
31.7872183747
 21
37.927751844
 31
0.0
  0
LINE
  5
444
330
1F
100
AcDbEntity
  8
0
  6
Continuous
 62
     8
370
    25
100
AcDbLine
 10
31.9132026267
 20
37.927751844
 30
0.0
 11
33.1051242776
 21
37.927751844
 31
0.0
  0
LINE
  5
445
330
1F
100
AcDbEntity
  8
0
  6
Continuous
 62
     8
370
    25
100
AcDbLine
 10
37.5259862952
 20
37.8869827925
 30
0.0
 11
31.9132026267
 21
37.8869827925
 31
0.0
  0
LINE
  5
446
330
1F
100
AcDbEntity
  8
0
  6
Continuous
 62
     8
370
    25
100
AcDbLine
 10
31.7872183747
 20
37.8869827925
 30
0.0
 11
31.0961863268
 21
37.8869827925
 31
0.0
  0
LINE
  5
447
330
1F
100
AcDbEntity
  8
0
  6
Continuous
 62
   144
370
    18
100
AcDbLine
 10
12.3429054869
 20
38.0943751923
 30
0.0
 11
12.3429054869
 21
37.8384696805
 31
0.0
  0
LINE
  5
448
330
1F
100
AcDbEntity
  8
0
  6
Continuous
 62
     8
370
    25
100
AcDbLine
 10
38.4452676916
 20
37.8384696805
 30
0.0
 11
38.4452676916
 21
37.8620917277
 31
0.0
  0
LINE
  5
449
330
1F
100
AcDbEntity
  8
0
  6
Continuous
 62
     8
370
    25
100
AcDbLine
 10
11.6885227962
 20
37.8384696805
 30
0.0
 11
11.6885227962
 21
38.0943751923
 31
0.0
  0
LINE
  5
44A
330
1F
100
AcDbEntity
  8
0
  6
Continuous
 62
     8
370
    25
100
AcDbLine
 10
39.2183202076
 20
38.0943751923
 30
0.0
 11
39.2183202076
 21
37.8384696805
 31
0.0
  0
LINE
  5
44B
330
1F
100
AcDbEntity
  8
0
  6
Continuous
 62
     8
370
    25
100
AcDbLine
 10
11.8219514299
 20
38.0943751923
 30
0.0
 11
11.8219514299
 21
37.8384696805
 31
0.0
  0
LINE
  5
44C
330
1F
100
AcDbEntity
  8
0
  6
Continuous
 62
     8
370
    25
100
AcDbLine
 10
38.9735361752
 20
37.8384696805
 30
0.0
 11
38.9735361752
 21
38.0943751923
 31
0.0
  0
LINE
  5
44D
330
1F
100
AcDbEntity
  8
0
  6
Continuous
 62
     8
370
    25
100
AcDbLine
 10
11.8738419608
 20
37.8384696805
 30
0.0
 11
11.8738419608
 21
38.0943751923
 31
0.0
  0
LINE
  5
44E
330
1F
100
AcDbEntity
  8
0
  6
Continuous
 62
     8
370
    25
100
AcDbLine
 10
38.8985831862
 20
38.0943751923
 30
0.0
 11
38.8985831862
 21
37.8384696805
 31
0.0
  0
LINE
  5
44F
330
1F
100
AcDbEntity
  8
0
  6
Continuous
 62
     8
370
    25
100
AcDbLine
 10
11.9203766267
 20
37.8384696805
 30
0.0
 11
11.9203766267
 21
38.0943751923
 31
0.0
  0
LINE
  5
450
330
1F
100
AcDbEntity
  8
0
  6
Continuous
 62
     8
370
    25
100
AcDbLine
 10
38.8520485202
 20
38.0943751923
 30
0.0
 11
38.8520485202
 21
37.8384696805
 31
0.0
  0
LINE
  5
451
330
1F
100
AcDbEntity
  8
0
  6
Continuous
 62
     8
370
    25
100
AcDbLine
 10
31.473682276
 20
14.5105445838
 30
0.0
 11
31.9129160993
 21
14.5105445838
 31
0.0
  0
LINE
  5
452
330
1F
100
AcDbEntity
  8
0
  6
Continuous
 62
     8
370
    25
100
AcDbLine
 10
25.1744696776
 20
14.5105445838
 30
0.0
 11
25.6137035008
 21
14.5105445838
 31
0.0
  0
LINE
  5
453
330
1F
100
AcDbEntity
  8
0
  6
Continuous
 62
     8
370
    25
100
AcDbLine
 10
18.8752570792
 20
14.5105445838
 30
0.0
 11
19.3144909024
 21
14.5105445838
 31
0.0
  0
LINE
  5
454
330
1F
100
AcDbEntity
  8
0
  6
Continuous
 62
     8
370
    25
100
AcDbLine
 10
35.0169893627
 20
14.5105445838
 30
0.0
 11
35.4562231859
 21
14.5105445838
 31
0.0
  0
LINE
  5
455
330
1F
100
AcDbEntity
  8
0
  6
Continuous
 62
     8
370
    25
100
AcDbLine
 10
15.3319499926
 20
14.5105445838
 30
0.0
 11
15.7711838158
 21
14.5105445838
 31
0.0
  0
LINE
  5
456
330
1F
100
AcDbEntity
  8
0
  6
Continuous
 62
     8
370
    25
100
AcDbLine
 10
13.5830629672
 20
14.6874644086
 30
0.0
 11
13.5830629672
 21
14.6690699844
 31
0.0
  0
LINE
  5
457
330
1F
100
AcDbEntity
  8
0
  6
Continuous
 62
     8
370
    25
100
AcDbLine
 10
37.2051102113
 20
14.6690699844
 30
0.0
 11
37.2051102113
 21
14.6874644086
 31
0.0
  0
LINE
  5
458
330
1F
100
AcDbEntity
  8
0
  6
Continuous
 62
     8
370
    25
100
AcDbLine
 10
37.2051102113
 20
14.6874644086
 30
0.0
 11
36.7602283215
 21
14.6874644086
 31
0.0
  0
LINE
  5
459
330
1F
100
AcDbEntity
  8
0
  6
Continuous
 62
     8
370
    25
100
AcDbLine
 10
36.6578661168
 20
14.6874644086
 30
0.0
 11
33.8153464317
 21
14.6874644086
 31
0.0
  0
LINE
  5
45A
330
1F
100
AcDbEntity
  8
0
  6
Continuous
 62
     8
370
    25
100
AcDbLine
 10
33.712984227
 20
14.6874644086
 30
0.0
 11
33.2169212349
 21
14.6874644086
 31
0.0
  0
LINE
  5
45B
330
1F
100
AcDbEntity
  8
0
  6
Continuous
 62
     8
370
    25
100
AcDbLine
 10
33.1145590302
 20
14.6874644086
 30
0.0
 11
30.2720393451
 21
14.6874644086
 31
0.0
  0
LINE
  5
45C
330
1F
100
AcDbEntity
  8
0
  6
Continuous
 62
     8
370
    25
100
AcDbLine
 10
30.1696771404
 20
14.6874644086
 30
0.0
 11
26.9177086365
 21
14.6874644086
 31
0.0
  0
LINE
  5
45D
330
1F
100
AcDbEntity
  8
0
  6
Continuous
 62
     8
370
    25
100
AcDbLine
 10
26.8153464317
 20
14.6874644086
 30
0.0
 11
23.9728267467
 21
14.6874644086
 31
0.0
  0
LINE
  5
45E
330
1F
100
AcDbEntity
  8
0
  6
Continuous
 62
     8
370
    25
100
AcDbLine
 10
23.870464542
 20
14.6874644086
 30
0.0
 11
20.618496038
 21
14.6874644086
 31
0.0
  0
LINE
  5
45F
330
1F
100
AcDbEntity
  8
0
  6
Continuous
 62
     8
370
    25
100
AcDbLine
 10
20.5161338333
 20
14.6874644086
 30
0.0
 11
17.6736141483
 21
14.6874644086
 31
0.0
  0
LINE
  5
460
330
1F
100
AcDbEntity
  8
0
  6
Continuous
 62
     8
370
    25
100
AcDbLine
 10
17.5712519436
 20
14.6874644086
 30
0.0
 11
17.0751889514
 21
14.6874644086
 31
0.0
  0
LINE
  5
461
330
1F
100
AcDbEntity
  8
0
  6
Continuous
 62
     8
370
    25
100
AcDbLine
 10
16.9728267467
 20
14.6874644086
 30
0.0
 11
14.1303070617
 21
14.6874644086
 31
0.0
  0
LINE
  5
462
330
1F
100
AcDbEntity
  8
0
  6
Continuous
 62
     8
370
    25
100
AcDbLine
 10
14.0279448569
 20
14.6874644086
 30
0.0
 11
13.5830629672
 21
14.6874644086
 31
0.0
  0
LINE
  5
463
330
1F
100
AcDbEntity
  8
0
  6
Continuous
 62
     8
370
    25
100
AcDbLine
 10
38.2453358194
 20
14.5105445838
 30
0.0
 11
38.6845696426
 21
14.5105445838
 31
0.0
  0
LINE
  5
464
330
1F
100
AcDbEntity
  8
0
  6
Continuous
 62
     8
370
    25
100
AcDbLine
 10
12.1036035359
 20
14.5105445838
 30
0.0
 11
12.5428373591
 21
14.5105445838
 31
0.0
  0
LINE
  5
465
330
1F
100
AcDbEntity
  8
0
  6
Continuous
 62
     8
370
    25
100
AcDbLine
 10
37.2051102113
 20
14.9137116339
 30
0.0
 11
36.9336760699
 21
14.9137116339
 31
0.0
  0
LINE
  5
466
330
1F
100
AcDbEntity
  8
0
  6
Continuous
 62
     8
370
    25
100
AcDbLine
 10
37.4765443527
 20
14.9137116339
 30
0.0
 11
37.2051102113
 21
14.9137116339
 31
0.0
  0
ELLIPSE
  5
467
330
1F
100
AcDbEntity
  8
0
  6
Continuous
 62
     8
370
    25
100
AcDbEllipse
 10
38.9216456443
 20
15.0302638881
 30
0.0
 11
0.06153565086222557
 21
0.1699645404753554
 31
0.0
210
0.0
220
0.0
230
1.0
 40
0.1095524007
 41
5.465756019155461
 42
5.595924304935783
  0
ELLIPSE
  5
468
330
1F
100
AcDbEntity
  8
0
  6
Continuous
 62
     8
370
    25
100
AcDbEllipse
 10
11.8665275341
 20
15.0302638881
 30
0.0
 11
-0.06153565086222557
 21
0.1699645404753554
 31
0.0
210
0.0
220
0.0
230
1.0
 40
0.1095524007
 41
0.6872610022436503
 42
0.8174292880240188
  0
ELLIPSE
  5
469
330
1F
100
AcDbEntity
  8
0
  6
Continuous
 62
     8
370
    25
100
AcDbEllipse
 10
11.9058976129
 20
14.7479184994
 30
0.0
 11
0.08351654895904127
 21
-0.08351654895904127
 31
0.0
210
0.0
220
0.0
230
1.0
 40
0.7182335128
 41
4.188790204786214
 42
4.963397079455279
  0
ELLIPSE
  5
46A
330
1F
100
AcDbEntity
  8
0
  6
Continuous
 62
     8
370
    25
100
AcDbEllipse
 10
38.8822755656
 20
14.7479184994
 30
0.0
 11
0.08351654895904659
 21
0.08351654895904125
 31
0.0
210
0.0
220
0.0
230
1.0
 40
0.7182335128
 41
4.461380881314152
 42
5.23598775598316
  0
LINE
  5
46B
330
1F
100
AcDbEntity
  8
0
  6
Continuous
 62
     8
370
    25
100
AcDbLine
 10
38.8519665703
 20
14.6947109457
 30
0.0
 11
38.8776075316
 21
14.6690699844
 31
0.0
  0
LINE
  5
46C
330
1F
100
AcDbEntity
  8
0
  6
Continuous
 62
     8
370
    25
100
AcDbLine
 10
11.9105656469
 20
14.6690699844
 30
0.0
 11
11.9362066082
 21
14.6947109457
 31
0.0
  0
LINE
  5
46D
330
1F
100
AcDbEntity
  8
0
  6
Continuous
 62
     8
370
    25
100
AcDbLine
 10
38.9773233437
 20
15.5353200742
 30
0.0
 11
38.9773233437
 21
15.4565799167
 31
0.0
  0
LINE
  5
46E
330
1F
100
AcDbEntity
  8
0
  6
Continuous
 62
     8
370
    25
100
AcDbLine
 10
11.8108498348
 20
15.4565799167
 30
0.0
 11
11.8108498348
 21
15.5353200742
 31
0.0
  0
LINE
  5
46F
330
1F
100
AcDbEntity
  8
0
  6
Continuous
 62
     8
370
    25
100
AcDbLine
 10
38.9354831193
 20
15.4934798498
 30
0.0
 11
38.9354831193
 21
15.4565799167
 31
0.0
  0
LINE
  5
470
330
1F
100
AcDbEntity
  8
0
  6
Continuous
 62
     8
370
    25
100
AcDbLine
 10
38.9354831193
 20
15.1573673183
 30
0.0
 11
38.9354831193
 21
15.1554567617
 31
0.0
  0
LINE
  5
471
330
1F
100
AcDbEntity
  8
0
  6
Continuous
 62
     8
370
    25
100
AcDbLine
 10
11.8526900592
 20
15.1554567617
 30
0.0
 11
11.8526900592
 21
15.1573673183
 31
0.0
  0
LINE
  5
472
330
1F
100
AcDbEntity
  8
0
  6
Continuous
 62
     8
370
    25
100
AcDbLine
 10
11.8526900592
 20
15.4565799167
 30
0.0
 11
11.8526900592
 21
15.4934798498
 31
0.0
  0
ARC
  5
473
330
1F
100
AcDbEntity
  8
0
  6
Continuous
 62
     8
370
    25
100
AcDbCircle
 10
38.0740498889
 20
14.7709809575
 30
0.0
 40
0.1181102362204715
100
AcDbArc
 50
225.0
 51
239.6376764216
  0
ARC
  5
474
330
1F
100
AcDbEntity
  8
0
  6
Continuous
 62
     8
370
    25
100
AcDbCircle
 10
12.7141232895
 20
14.7709809575
 30
0.0
 40
0.1181102362204727
100
AcDbArc
 50
300.3623235784
 51
315.0
  0
LINE
  5
475
330
1F
100
AcDbEntity
  8
0
  6
Continuous
 62
     8
370
    25
100
AcDbLine
 10
38.5304150026
 20
14.6947109457
 30
0.0
 11
37.9832868028
 21
14.6947109457
 31
0.0
  0
LINE
  5
476
330
1F
100
AcDbEntity
  8
0
  6
Continuous
 62
     8
370
    25
100
AcDbLine
 10
12.8048863756
 20
14.6947109457
 30
0.0
 11
12.2577581759
 21
14.6947109457
 31
0.0
  0
LINE
  5
477
330
1F
100
AcDbEntity
  8
0
  6
Continuous
 62
     8
370
    25
100
AcDbLine
 10
38.5279448569
 20
14.8647800392
 30
0.0
 11
38.5279448569
 21
14.9932616839
 31
0.0
  0
LINE
  5
478
330
1F
100
AcDbEntity
  8
0
  6
Continuous
 62
     8
370
    25
100
AcDbLine
 10
12.2602283215
 20
14.9932616839
 30
0.0
 11
12.2602283215
 21
14.8647800392
 31
0.0
  0
LINE
  5
479
330
1F
100
AcDbEntity
  8
0
  6
Continuous
 62
     8
370
    25
100
AcDbLine
 10
37.4325272665
 20
15.0017458063
 30
0.0
 11
36.9776931561
 21
15.0017458063
 31
0.0
  0
LWPOLYLINE
  5
47A
330
1F
100
AcDbEntity
  8
0
  6
Continuous
 62
     8
370
    25
100
AcDbPolyline
 90
        4
 70
   128
 43
0.0
 10
12.0168162766
 20
15.3342619665
 10
12.0168195492
 20
15.3029610233
 10
12.0168191048
 20
15.2487176838
 10
12.0168192939
 20
15.2400444836
  0
LWPOLYLINE
  5
47B
330
1F
100
AcDbEntity
  8
0
  6
Continuous
 62
     8
370
    25
100
AcDbPolyline
 90
        3
 70
   128
 43
0.0
 10
38.7278316422
 20
15.3237279694
 10
38.727826013
 20
15.2589689838
 10
38.7278280772
 20
15.2400444836
  0
LWPOLYLINE
  5
47C
330
1F
100
AcDbEntity
  8
0
  6
Continuous
 62
     8
370
    25
100
AcDbPolyline
 90
        4
 70
   128
 43
0.0
 10
38.7713569019
 20
15.3342619665
 10
38.7713536292
 20
15.3029610233
 10
38.7713540737
 20
15.2487176838
 10
38.7713538846
 20
15.2400444836
  0
LWPOLYLINE
  5
47D
330
1F
100
AcDbEntity
  8
0
  6
Continuous
 62
     8
370
    25
100
AcDbPolyline
 90
        3
 70
   128
 43
0.0
 10
12.0603415363
 20
15.3237279694
 10
12.0603471655
 20
15.2589689838
 10
12.0603451012
 20
15.2400444836
  0
ARC
  5
47E
330
1F
100
AcDbEntity
  8
0
  6
Continuous
 62
     8
370
    25
100
AcDbCircle
 10
37.7141334237
 20
15.7568457415
 30
0.0
 40
0.615135603743084
100
AcDbArc
 50
266.5905940243
 51
282.9549126279
  0
LINE
  5
47F
330
1F
100
AcDbEntity
  8
0
  6
Continuous
 62
     8
370
    25
100
AcDbLine
 10
37.6775511562
 20
15.1426937889
 30
0.0
 11
37.6775511562
 21
15.1573673183
 31
0.0
  0
LINE
  5
480
330
1F
100
AcDbEntity
  8
0
  6
Continuous
 62
     8
370
    25
100
AcDbLine
 10
37.8783385577
 20
15.2400444836
 30
0.0
 11
37.8783385577
 21
15.2889657788
 31
0.0
  0
LINE
  5
481
330
1F
100
AcDbEntity
  8
0
  6
Continuous
 62
     8
370
    25
100
AcDbLine
 10
37.1618031247
 20
15.2889657788
 30
0.0
 11
37.1460550932
 21
15.2889657788
 31
0.0
  0
LINE
  5
482
330
1F
100
AcDbEntity
  8
0
  6
Continuous
 62
     8
370
    25
100
AcDbLine
 10
37.8940865892
 20
15.2889657788
 30
0.0
 11
37.8783385577
 21
15.2889657788
 31
0.0
  0
LINE
  5
483
330
1F
100
AcDbEntity
  8
0
  6
Continuous
 62
     8
370
    25
100
AcDbLine
 10
37.2215418646
 20
15.352857483
 30
0.0
 11
37.2101710855
 21
15.3521835426
 31
0.0
  0
LWPOLYLINE
  5
484
330
1F
100
AcDbEntity
  8
0
  6
Continuous
 62
     8
370
    25
100
AcDbPolyline
 90
        3
 70
   128
 43
0.0
 10
37.1884801789
 20
15.3471834527
 10
37.1716806858
 20
15.340724161
 10
37.1618031247
 20
15.3174453229
  0
LINE
  5
485
330
1F
100
AcDbEntity
  8
0
  6
Continuous
 62
   144
370
    18
100
AcDbLine
 10
11.5515669042
 20
36.5038240112
 30
0.0
 11
11.5515669042
 21
36.539257082
 31
0.0
  0
LINE
  5
486
330
1F
100
AcDbEntity
  8
0
  6
Continuous
 62
     8
370
    25
100
AcDbLine
 10
39.2366062743
 20
36.539257082
 30
0.0
 11
39.2366062743
 21
36.5038240112
 31
0.0
  0
ENDSEC
  0
SECTION
  2
OBJECTS
  0
DICTIONARY
  5
C
330
0
100
AcDbDictionary
281
     1
  3
ACAD_GROUP
350
D
  3
ACAD_LAYOUT
350
1A
  3
ACAD_MLINESTYLE
350
17
  3
ACAD_PLOTSETTINGS
350
19
  3
ACAD_PLOTSTYLENAME
350
E
  3
ACAD_SCALELIST
350
47
  0
DICTIONARY
  5
D
102
{ACAD_REACTORS
330
C
102
}
330
C
100
AcDbDictionary
281
     1
  0
DICTIONARY
  5
1A
102
{ACAD_REACTORS
330
C
102
}
330
C
100
AcDbDictionary
281
     1
  3
Layout1
350
1E
  3
Layout2
350
26
  3
Model
350
22
  0
DICTIONARY
  5
17
102
{ACAD_REACTORS
330
C
102
}
330
C
100
AcDbDictionary
281
     1
  3
Standard
350
18
  0
DICTIONARY
  5
19
102
{ACAD_REACTORS
330
C
102
}
330
C
100
AcDbDictionary
281
     1
  0
ACDBDICTIONARYWDFLT
  5
E
102
{ACAD_REACTORS
330
C
102
}
330
C
100
AcDbDictionary
281
     1
  3
Normal
350
F
100
AcDbDictionaryWithDefault
340
F
  0
DICTIONARY
  5
47
102
{ACAD_REACTORS
330
C
102
}
330
C
100
AcDbDictionary
281
     1
  3
A0
350
48
  3
A1
350
49
  3
A2
350
4A
  3
A3
350
4B
  3
A4
350
4C
  3
A5
350
4D
  3
A6
350
4E
  3
A7
350
4F
  3
A8
350
50
  3
A9
350
51
  3
B0
350
52
  3
B1
350
53
  3
B2
350
54
  3
B3
350
55
  3
B4
350
56
  3
B5
350
57
  3
B6
350
58
  3
B7
350
59
  3
B8
350
5A
  3
B9
350
5B
  3
C0
350
5C
  3
C1
350
5D
  3
C2
350
5E
  3
C3
350
5F
  3
C4
350
60
  3
C5
350
61
  3
C6
350
62
  3
C7
350
63
  3
C8
350
64
  3
C9
350
65
  3
D0
350
66
  3
D1
350
67
  3
D2
350
68
  0
LAYOUT
  5
1E
102
{ACAD_REACTORS
330
1A
102
}
330
1A
100
AcDbPlotSettings
  1

  2
none_device
  4

  6

 40
0.0
 41
0.0
 42
0.0
 43
0.0
 44
0.0
 45
0.0
 46
0.0
 47
0.0
 48
0.0
 49
0.0
140
0.0
141
0.0
142
1.0
143
1.0
 70
   688
 72
     0
 73
     0
 74
     5
  7

 75
    16
147
1.0
148
0.0
149
0.0
100
AcDbLayout
  1
Layout1
 70
     1
 71
     1
 10
0.0
 20
0.0
 11
12.0
 21
9.0
 12
0.0
 22
0.0
 32
0.0
 14
1.0000000000E+20
 24
1.0000000000E+20
 34
1.0000000000E+20
 15
-1.0000000000E+20
 25
-1.0000000000E+20
 35
-1.0000000000E+20
146
0.0
 13
0.0
 23
0.0
 33
0.0
 16
1.0
 26
0.0
 36
0.0
 17
0.0
 27
1.0
 37
0.0
 76
     0
330
1B
  0
LAYOUT
  5
26
102
{ACAD_REACTORS
330
1A
102
}
330
1A
100
AcDbPlotSettings
  1

  2
none_device
  4

  6

 40
0.0
 41
0.0
 42
0.0
 43
0.0
 44
0.0
 45
0.0
 46
0.0
 47
0.0
 48
0.0
 49
0.0
140
0.0
141
0.0
142
1.0
143
1.0
 70
   688
 72
     0
 73
     0
 74
     5
  7

 75
    16
147
1.0
148
0.0
149
0.0
100
AcDbLayout
  1
Layout2
 70
     1
 71
     2
 10
0.0
 20
0.0
 11
0.0
 21
0.0
 12
0.0
 22
0.0
 32
0.0
 14
0.0
 24
0.0
 34
0.0
 15
0.0
 25
0.0
 35
0.0
146
0.0
 13
0.0
 23
0.0
 33
0.0
 16
1.0
 26
0.0
 36
0.0
 17
0.0
 27
1.0
 37
0.0
 76
     0
330
23
  0
LAYOUT
  5
22
102
{ACAD_REACTORS
330
1A
102
}
330
1A
100
AcDbPlotSettings
  1

  2
none_device
  4
Letter_(8.50_x_11.00_Inches)
  6

 40
6.35
 41
6.35
 42
6.35000508
 43
6.35000508
 44
215.9
 45
279.4
 46
0.0
 47
0.0
 48
0.0
 49
0.0
140
0.0
141
0.0
142
1.0
143
1.0
 70
  1712
 72
     0
 73
     0
 74
     0
  7

 75
     0
147
1.0
148
0.0
149
0.0
100
AcDbLayout
  1
Model
 70
     1
 71
     0
 10
0.0
 20
0.0
 11
50.0
 21
55.0
 12
0.0
 22
0.0
 32
0.0
 14
0.0
 24
0.0
 34
0.0
 15
50.0
 25
55.0
 35
0.0
146
0.0
 13
0.0
 23
0.0
 33
0.0
 16
1.0
 26
0.0
 36
0.0
 17
0.0
 27
1.0
 37
0.0
 76
     0
330
1F
331
29
  0
MLINESTYLE
  5
18
102
{ACAD_REACTORS
330
17
102
}
330
17
100
AcDbMlineStyle
  2
Standard
 70
     0
  3

 62
   256
 51
90.0
 52
90.0
 71
     2
 49
0.5
 62
   256
  6
BYLAYER
 49
-0.5
 62
   256
  6
BYLAYER
  0
ACDBPLACEHOLDER
  5
F
102
{ACAD_REACTORS
330
E
102
}
330
E
  0
SCALE
  5
48
102
{ACAD_REACTORS
330
47
102
}
330
47
100
AcDbScale
 70
     0
300
1:1
140
1.0
141
1.0
290
     1
  0
SCALE
  5
49
102
{ACAD_REACTORS
330
47
102
}
330
47
100
AcDbScale
 70
     0
300
1:2
140
1.0
141
2.0
290
     0
  0
SCALE
  5
4A
102
{ACAD_REACTORS
330
47
102
}
330
47
100
AcDbScale
 70
     0
300
1:4
140
1.0
141
4.0
290
     0
  0
SCALE
  5
4B
102
{ACAD_REACTORS
330
47
102
}
330
47
100
AcDbScale
 70
     0
300
1:5
140
1.0
141
5.0
290
     0
  0
SCALE
  5
4C
102
{ACAD_REACTORS
330
47
102
}
330
47
100
AcDbScale
 70
     0
300
1:8
140
1.0
141
8.0
290
     0
  0
SCALE
  5
4D
102
{ACAD_REACTORS
330
47
102
}
330
47
100
AcDbScale
 70
     0
300
1:10
140
1.0
141
10.0
290
     0
  0
SCALE
  5
4E
102
{ACAD_REACTORS
330
47
102
}
330
47
100
AcDbScale
 70
     0
300
1:16
140
1.0
141
16.0
290
     0
  0
SCALE
  5
4F
102
{ACAD_REACTORS
330
47
102
}
330
47
100
AcDbScale
 70
     0
300
1:20
140
1.0
141
20.0
290
     0
  0
SCALE
  5
50
102
{ACAD_REACTORS
330
47
102
}
330
47
100
AcDbScale
 70
     0
300
1:30
140
1.0
141
30.0
290
     0
  0
SCALE
  5
51
102
{ACAD_REACTORS
330
47
102
}
330
47
100
AcDbScale
 70
     0
300
1:40
140
1.0
141
40.0
290
     0
  0
SCALE
  5
52
102
{ACAD_REACTORS
330
47
102
}
330
47
100
AcDbScale
 70
     0
300
1:50
140
1.0
141
50.0
290
     0
  0
SCALE
  5
53
102
{ACAD_REACTORS
330
47
102
}
330
47
100
AcDbScale
 70
     0
300
1:100
140
1.0
141
100.0
290
     0
  0
SCALE
  5
54
102
{ACAD_REACTORS
330
47
102
}
330
47
100
AcDbScale
 70
     0
300
2:1
140
2.0
141
1.0
290
     0
  0
SCALE
  5
55
102
{ACAD_REACTORS
330
47
102
}
330
47
100
AcDbScale
 70
     0
300
4:1
140
4.0
141
1.0
290
     0
  0
SCALE
  5
56
102
{ACAD_REACTORS
330
47
102
}
330
47
100
AcDbScale
 70
     0
300
8:1
140
8.0
141
1.0
290
     0
  0
SCALE
  5
57
102
{ACAD_REACTORS
330
47
102
}
330
47
100
AcDbScale
 70
     0
300
10:1
140
10.0
141
1.0
290
     0
  0
SCALE
  5
58
102
{ACAD_REACTORS
330
47
102
}
330
47
100
AcDbScale
 70
     0
300
100:1
140
100.0
141
1.0
290
     0
  0
SCALE
  5
59
102
{ACAD_REACTORS
330
47
102
}
330
47
100
AcDbScale
 70
     0
300
1/128" = 1'-0"
140
0.0078125
141
12.0
290
     0
  0
SCALE
  5
5A
102
{ACAD_REACTORS
330
47
102
}
330
47
100
AcDbScale
 70
     0
300
1/64" = 1'-0"
140
0.015625
141
12.0
290
     0
  0
SCALE
  5
5B
102
{ACAD_REACTORS
330
47
102
}
330
47
100
AcDbScale
 70
     0
300
1/32" = 1'-0"
140
0.03125
141
12.0
290
     0
  0
SCALE
  5
5C
102
{ACAD_REACTORS
330
47
102
}
330
47
100
AcDbScale
 70
     0
300
1/16" = 1'-0"
140
0.0625
141
12.0
290
     0
  0
SCALE
  5
5D
102
{ACAD_REACTORS
330
47
102
}
330
47
100
AcDbScale
 70
     0
300
3/32" = 1'-0"
140
0.09375
141
12.0
290
     0
  0
SCALE
  5
5E
102
{ACAD_REACTORS
330
47
102
}
330
47
100
AcDbScale
 70
     0
300
1/8" = 1'-0"
140
0.125
141
12.0
290
     0
  0
SCALE
  5
5F
102
{ACAD_REACTORS
330
47
102
}
330
47
100
AcDbScale
 70
     0
300
3/16" = 1'-0"
140
0.1875
141
12.0
290
     0
  0
SCALE
  5
60
102
{ACAD_REACTORS
330
47
102
}
330
47
100
AcDbScale
 70
     0
300
1/4" = 1'-0"
140
0.25
141
12.0
290
     0
  0
SCALE
  5
61
102
{ACAD_REACTORS
330
47
102
}
330
47
100
AcDbScale
 70
     0
300
3/8" = 1'-0"
140
0.375
141
12.0
290
     0
  0
SCALE
  5
62
102
{ACAD_REACTORS
330
47
102
}
330
47
100
AcDbScale
 70
     0
300
1/2" = 1'-0"
140
0.5
141
12.0
290
     0
  0
SCALE
  5
63
102
{ACAD_REACTORS
330
47
102
}
330
47
100
AcDbScale
 70
     0
300
3/4" = 1'-0"
140
0.75
141
12.0
290
     0
  0
SCALE
  5
64
102
{ACAD_REACTORS
330
47
102
}
330
47
100
AcDbScale
 70
     0
300
1" = 1'-0"
140
1.0
141
12.0
290
     0
  0
SCALE
  5
65
102
{ACAD_REACTORS
330
47
102
}
330
47
100
AcDbScale
 70
     0
300
1-1/2" = 1'-0"
140
1.5
141
12.0
290
     0
  0
SCALE
  5
66
102
{ACAD_REACTORS
330
47
102
}
330
47
100
AcDbScale
 70
     0
300
3" = 1'-0"
140
3.0
141
12.0
290
     0
  0
SCALE
  5
67
102
{ACAD_REACTORS
330
47
102
}
330
47
100
AcDbScale
 70
     0
300
6" = 1'-0"
140
6.0
141
12.0
290
     0
  0
SCALE
  5
68
102
{ACAD_REACTORS
330
47
102
}
330
47
100
AcDbScale
 70
     0
300
1'-0" = 1'-0"
140
12.0
141
12.0
290
     0
  0
ENDSEC
  0
EOF
