  0
SECTION
  2
HEADER
  9
$ACADVER
  1
AC1015
  9
$ACADMAINTVER
 70
     6
  9
$DWGCODEPAGE
  3
ANSI_1252
  9
$INSBASE
 10
0.0
 20
0.0
 30
0.0
  9
$EXTMIN
 10
0.0
 20
0.0
 30
0.0
  9
$EXTMAX
 10
45.0
 20
40.0
 30
0.0
  9
$LIMMIN
 10
0.0
 20
0.0
  9
$LIMMAX
 10
45.0
 20
40.0
  9
$ORTHOMODE
 70
     0
  9
$REGENMODE
 70
     1
  9
$FILLMODE
 70
     1
  9
$QTEXTMODE
 70
     0
  9
$MIRRTEXT
 70
     1
  9
$LTSCALE
 40
1.0
  9
$ATTMODE
 70
     1
  9
$TEXTSIZE
 40
0.125
  9
$TRACEWID
 40
0.05
  9
$TEXTSTYLE
  7
Standard
  9
$CLAYER
  8
0
  9
$CELTYPE
  6
ByLayer
  9
$CECOLOR
 62
   256
  9
$CELTSCALE
 40
1.0
  9
$DISPSILH
 70
     0
  9
$DIMSCALE
 40
1.0
  9
$DIMASZ
 40
0.13
  9
$DIMEXO
 40
0.05
  9
$DIMDLI
 40
0.38
  9
$DIMRND
 40
0.0
  9
$DIMDLE
 40
0.0
  9
$DIMEXE
 40
0.125
  9
$DIMTP
 40
0.0
  9
$DIMTM
 40
0.0
  9
$DIMTXT
 40
0.125
  9
$DIMCEN
 40
0.09
  9
$DIMTSZ
 40
0.0
  9
$DIMTOL
 70
     0
  9
$DIMLIM
 70
     0
  9
$DIMTIH
 70
     1
  9
$DIMTOH
 70
     1
  9
$DIMSE1
 70
     0
  9
$DIMSE2
 70
     0
  9
$DIMTAD
 70
     0
  9
$DIMZIN
 70
     0
  9
$DIMBLK
  1

  9
$DIMASO
 70
     1
  9
$DIMSHO
 70
     1
  9
$DIMPOST
  1

  9
$DIMAPOST
  1

  9
$DIMALT
 70
     0
  9
$DIMALTD
 70
     2
  9
$DIMALTF
 40
25.4
  9
$DIMLFAC
 40
1.0
  9
$DIMTOFL
 70
     0
  9
$DIMTVP
 40
0.0
  9
$DIMTIX
 70
     0
  9
$DIMSOXD
 70
     0
  9
$DIMSAH
 70
     0
  9
$DIMBLK1
  1

  9
$DIMBLK2
  1

  9
$DIMSTYLE
  2
Standard
  9
$DIMCLRD
 70
     0
  9
$DIMCLRE
 70
     0
  9
$DIMCLRT
 70
     0
  9
$DIMTFAC
 40
1.0
  9
$DIMGAP
 40
0.06
  9
$DIMJUST
 70
     0
  9
$DIMSD1
 70
     0
  9
$DIMSD2
 70
     0
  9
$DIMTOLJ
 70
     1
  9
$DIMTZIN
 70
     0
  9
$DIMALTZ
 70
     0
  9
$DIMALTTZ
 70
     0
  9
$DIMUPT
 70
     0
  9
$DIMDEC
 70
     2
  9
$DIMTDEC
 70
     2
  9
$DIMALTU
 70
     2
  9
$DIMALTTD
 70
     2
  9
$DIMTXSTY
  7
Standard
  9
$DIMAUNIT
 70
     0
  9
$DIMADEC
 70
     2
  9
$DIMALTRND
 40
0.0
  9
$DIMAZIN
 70
     0
  9
$DIMDSEP
 70
    46
  9
$DIMATFIT
 70
     3
  9
$DIMFRAC
 70
     0
  9
$DIMLDRBLK
  1

  9
$DIMLUNIT
 70
     2
  9
$DIMLWD
 70
    -2
  9
$DIMLWE
 70
    -2
  9
$DIMTMOVE
 70
     0
  9
$LUNITS
 70
     2
  9
$LUPREC
 70
     2
  9
$SKETCHINC
 40
0.1
  9
$FILLETRAD
 40
0.5
  9
$AUNITS
 70
     0
  9
$AUPREC
 70
     2
  9
$MENU
  1
.
  9
$ELEVATION
 40
0.0
  9
$PELEVATION
 40
0.0
  9
$THICKNESS
 40
0.0
  9
$LIMCHECK
 70
     0
  9
$CHAMFERA
 40
0.0
  9
$CHAMFERB
 40
0.0
  9
$CHAMFERC
 40
0.0
  9
$CHAMFERD
 40
0.0
  9
$SKPOLY
 70
     0
  9
$TDCREATE
 40
2458813.470093241
  9
$TDUCREATE
 40
2458813.803426574
  9
$TDUPDATE
 40
2458813.470094873
  9
$TDUUPDATE
 40
2458813.803428206
  9
$TDINDWG
 40
0.0000000116
  9
$TDUSRTIMER
 40
0.0000000116
  9
$USRTIMER
 70
     1
  9
$ANGBASE
 50
0.0
  9
$ANGDIR
 70
     0
  9
$PDMODE
 70
     0
  9
$PDSIZE
 40
-1.0
  9
$PLINEWID
 40
0.0
  9
$SPLFRAME
 70
     0
  9
$SPLINETYPE
 70
     6
  9
$SPLINESEGS
 70
     8
  9
$HANDSEED
  5
718
  9
$SURFTAB1
 70
     6
  9
$SURFTAB2
 70
     6
  9
$SURFTYPE
 70
     6
  9
$SURFU
 70
     6
  9
$SURFV
 70
     6
  9
$UCSBASE
  2

  9
$UCSNAME
  2

  9
$UCSORG
 10
0.0
 20
0.0
 30
0.0
  9
$UCSXDIR
 10
1.0
 20
0.0
 30
0.0
  9
$UCSYDIR
 10
0.0
 20
1.0
 30
0.0
  9
$UCSORTHOREF
  2

  9
$UCSORTHOVIEW
 70
     0
  9
$UCSORGTOP
 10
0.0
 20
0.0
 30
0.0
  9
$UCSORGBOTTOM
 10
0.0
 20
0.0
 30
0.0
  9
$UCSORGLEFT
 10
0.0
 20
0.0
 30
0.0
  9
$UCSORGRIGHT
 10
0.0
 20
0.0
 30
0.0
  9
$UCSORGFRONT
 10
0.0
 20
0.0
 30
0.0
  9
$UCSORGBACK
 10
0.0
 20
0.0
 30
0.0
  9
$PUCSBASE
  2

  9
$PUCSNAME
  2

  9
$PUCSORG
 10
0.0
 20
0.0
 30
0.0
  9
$PUCSXDIR
 10
1.0
 20
0.0
 30
0.0
  9
$PUCSYDIR
 10
0.0
 20
1.0
 30
0.0
  9
$PUCSORTHOREF
  2

  9
$PUCSORTHOVIEW
 70
     0
  9
$PUCSORGTOP
 10
0.0
 20
0.0
 30
0.0
  9
$PUCSORGBOTTOM
 10
0.0
 20
0.0
 30
0.0
  9
$PUCSORGLEFT
 10
0.0
 20
0.0
 30
0.0
  9
$PUCSORGRIGHT
 10
0.0
 20
0.0
 30
0.0
  9
$PUCSORGFRONT
 10
0.0
 20
0.0
 30
0.0
  9
$PUCSORGBACK
 10
0.0
 20
0.0
 30
0.0
  9
$USERI1
 70
     0
  9
$USERI2
 70
     0
  9
$USERI3
 70
     0
  9
$USERI4
 70
     0
  9
$USERI5
 70
     0
  9
$USERR1
 40
0.0
  9
$USERR2
 40
0.0
  9
$USERR3
 40
0.0
  9
$USERR4
 40
0.0
  9
$USERR5
 40
0.0
  9
$WORLDVIEW
 70
     1
  9
$SHADEDGE
 70
     3
  9
$SHADEDIF
 70
    70
  9
$TILEMODE
 70
     1
  9
$MAXACTVP
 70
    64
  9
$PINSBASE
 10
0.0
 20
0.0
 30
0.0
  9
$PLIMCHECK
 70
     0
  9
$PEXTMIN
 10
1.0000000000E+20
 20
1.0000000000E+20
 30
1.0000000000E+20
  9
$PEXTMAX
 10
-1.0000000000E+20
 20
-1.0000000000E+20
 30
-1.0000000000E+20
  9
$PLIMMIN
 10
0.0
 20
0.0
  9
$PLIMMAX
 10
12.0
 20
9.0
  9
$UNITMODE
 70
     0
  9
$VISRETAIN
 70
     1
  9
$PLINEGEN
 70
     0
  9
$PSLTSCALE
 70
     1
  9
$TREEDEPTH
 70
  3020
  9
$CMLSTYLE
  2
Standard
  9
$CMLJUST
 70
     0
  9
$CMLSCALE
 40
1.0
  9
$PROXYGRAPHICS
 70
     1
  9
$MEASUREMENT
 70
     0
  9
$CELWEIGHT
370
    -1
  9
$ENDCAPS
280
     0
  9
$JOINSTYLE
280
     0
  9
$LWDISPLAY
290
     1
  9
$INSUNITS
 70
     1
  9
$HYPERLINKBASE
  1

  9
$STYLESHEET
  1

  9
$XEDIT
290
     1
  9
$CEPSNTYPE
380
     0
  9
$PSTYLEMODE
290
     1
  9
$FINGERPRINTGUID
  2
{07B84D1F-DFDD-4A43-9F7A-2C4D60001823}
  9
$VERSIONGUID
  2
{FAEB1C32-E019-11D5-929B-00C0DF256EC4}
  9
$EXTNAMES
290
     1
  9
$PSVPSCALE
 40
0.0
  9
$OLESTARTUP
290
     0
  0
ENDSEC
  0
SECTION
  2
CLASSES
  0
CLASS
  1
ACDBDICTIONARYWDFLT
  2
AcDbDictionaryWithDefault
  3
ObjectDBX Classes
 90
        0
280
     0
281
     0
  0
CLASS
  1
VISUALSTYLE
  2
AcDbVisualStyle
  3
ObjectDBX Classes
 90
     4095
280
     0
281
     0
  0
CLASS
  1
MATERIAL
  2
AcDbMaterial
  3
ObjectDBX Classes
 90
     1153
280
     0
281
     0
  0
CLASS
  1
SCALE
  2
AcDbScale
  3
ObjectDBX Classes
 90
     1153
280
     0
281
     0
  0
CLASS
  1
TABLESTYLE
  2
AcDbTableStyle
  3
ObjectDBX Classes
 90
     4095
280
     0
281
     0
  0
CLASS
  1
MLEADERSTYLE
  2
AcDbMLeaderStyle
  3
ACDB_MLEADERSTYLE_CLASS
 90
     4095
280
     0
281
     0
  0
CLASS
  1
SUN
  2
AcDbSun
  3
SCENEOE
 90
     1153
280
     0
281
     0
  0
CLASS
  1
ACDBPLACEHOLDER
  2
AcDbPlaceHolder
  3
ObjectDBX Classes
 90
        0
280
     0
281
     0
  0
CLASS
  1
LAYOUT
  2
AcDbLayout
  3
ObjectDBX Classes
 90
        0
280
     0
281
     0
  0
ENDSEC
  0
SECTION
  2
TABLES
  0
TABLE
  2
VPORT
  5
8
330
0
100
AcDbSymbolTable
 70
     1
  0
VPORT
  5
29
330
8
100
AcDbSymbolTableRecord
100
AcDbViewportTableRecord
  2
*Active
 70
     0
 10
0.0
 20
0.0
 11
1.0
 21
1.0
 12
22.5
 22
20.0
 13
0.0
 23
0.0
 14
0.5
 24
0.5
 15
0.5
 25
0.5
 16
0.0
 26
0.0
 36
1.0
 17
0.0
 27
0.0
 37
0.0
 40
40.0
 41
1.125
 42
50.0
 43
0.0
 44
0.0
 50
0.0
 51
0.0
 71
     0
 72
  2000
 73
     1
 74
     3
 75
     0
 76
     0
 77
     0
 78
     0
281
     0
 65
     1
110
0.0
120
0.0
130
0.0
111
1.0
121
0.0
131
0.0
112
0.0
122
1.0
132
0.0
 79
     0
146
0.0
  0
ENDTAB
  0
TABLE
  2
LTYPE
  5
5
330
0
100
AcDbSymbolTable
 70
     6
  0
LTYPE
  5
14
330
5
100
AcDbSymbolTableRecord
100
AcDbLinetypeTableRecord
  2
ByBlock
 70
     0
  3

 72
    65
 73
     0
 40
0.0
  0
LTYPE
  5
15
330
5
100
AcDbSymbolTableRecord
100
AcDbLinetypeTableRecord
  2
ByLayer
 70
     0
  3

 72
    65
 73
     0
 40
0.0
  0
LTYPE
  5
16
330
5
100
AcDbSymbolTableRecord
100
AcDbLinetypeTableRecord
  2
Continuous
 70
     0
  3
Solid line
 72
    65
 73
     0
 40
0.0
  0
LTYPE
  5
6E
330
5
100
AcDbSymbolTableRecord
100
AcDbLinetypeTableRecord
  2
HIDDEN
 70
     0
  3
Hidden __ __ __ __ __ __ __ __ __ __ __ __ __ __
 72
    65
 73
     2
 40
0.075
 49
0.05
 74
     0
 49
-0.025
 74
     0
  0
LTYPE
  5
6F
330
5
100
AcDbSymbolTableRecord
100
AcDbLinetypeTableRecord
  2
PHANTOM
 70
     0
  3
Phantom ______  __  __  ______  __  __  ______
 72
    65
 73
     6
 40
0.5
 49
0.25
 74
     0
 49
-0.05
 74
     0
 49
0.05
 74
     0
 49
-0.05
 74
     0
 49
0.05
 74
     0
 49
-0.05
 74
     0
  0
LTYPE
  5
70
330
5
100
AcDbSymbolTableRecord
100
AcDbLinetypeTableRecord
  2
CENTER
 70
     0
  3
Center ____ _ ____ _ ____ _ ____ _ ____ _ ____
 72
    65
 73
     4
 40
0.4
 49
0.25
 74
     0
 49
-0.05
 74
     0
 49
0.05
 74
     0
 49
-0.05
 74
     0
  0
LTYPE
  5
71
330
5
100
AcDbSymbolTableRecord
100
AcDbLinetypeTableRecord
  2
CENTERX2
 70
     0
  3
Center (2x) ________  __  ________  __  _____
 72
    65
 73
     4
 40
0.8
 49
0.5
 74
     0
 49
-0.1
 74
     0
 49
0.1
 74
     0
 49
-0.1
 74
     0
  0
LTYPE
  5
72
330
5
100
AcDbSymbolTableRecord
100
AcDbLinetypeTableRecord
  2
DOT2
 70
     0
  3
Dot (.5x) ........................................
 72
    65
 73
     2
 40
0.025
 49
0.0
 74
     0
 49
-0.025
 74
     0
  0
ENDTAB
  0
TABLE
  2
LAYER
  5
2
330
0
100
AcDbSymbolTable
 70
     1
  0
LAYER
  5
10
330
2
100
AcDbSymbolTableRecord
100
AcDbLayerTableRecord
  2
0
 70
     0
 62
     7
  6
Continuous
370
    -3
390
F
  0
ENDTAB
  0
TABLE
  2
STYLE
  5
3
330
0
100
AcDbSymbolTable
 70
     1
  0
STYLE
  5
11
330
3
100
AcDbSymbolTableRecord
100
AcDbTextStyleTableRecord
  2
Standard
 70
     0
 40
0.0
 41
1.0
 50
0.0
 71
     0
 42
0.125
  3
txt
  4

  0
ENDTAB
  0
TABLE
  2
VIEW
  5
6
330
0
100
AcDbSymbolTable
 70
     0
  0
ENDTAB
  0
TABLE
  2
UCS
  5
7
330
0
100
AcDbSymbolTable
 70
     0
  0
ENDTAB
  0
TABLE
  2
APPID
  5
9
330
0
100
AcDbSymbolTable
 70
     1
  0
APPID
  5
12
330
9
100
AcDbSymbolTableRecord
100
AcDbRegAppTableRecord
  2
ACAD
 70
     0
  0
ENDTAB
  0
TABLE
  2
DIMSTYLE
  5
A
330
0
100
AcDbSymbolTable
 70
     1
100
AcDbDimStyleTable
  0
DIMSTYLE
105
27
330
A
100
AcDbSymbolTableRecord
100
AcDbDimStyleTableRecord
  2
Standard
 70
     0
178
     0
340
11
  0
ENDTAB
  0
TABLE
  2
BLOCK_RECORD
  5
1
330
0
100
AcDbSymbolTable
 70
     1
  0
BLOCK_RECORD
  5
1F
330
1
100
AcDbSymbolTableRecord
100
AcDbBlockTableRecord
  2
*Model_Space
340
22
  0
BLOCK_RECORD
  5
1B
330
1
100
AcDbSymbolTableRecord
100
AcDbBlockTableRecord
  2
*Paper_Space
340
1E
  0
BLOCK_RECORD
  5
23
330
1
100
AcDbSymbolTableRecord
100
AcDbBlockTableRecord
  2
*Paper_Space0
340
26
  0
ENDTAB
  0
ENDSEC
  0
SECTION
  2
BLOCKS
  0
BLOCK
  5
20
330
1F
100
AcDbEntity
  8
0
100
AcDbBlockBegin
  2
*Model_Space
 70
     0
 10
0.0
 20
0.0
 30
0.0
  3
*Model_Space
  1

  0
ENDBLK
  5
21
330
1F
100
AcDbEntity
  8
0
100
AcDbBlockEnd
  0
BLOCK
  5
1C
330
1B
100
AcDbEntity
 67
     1
  8
0
100
AcDbBlockBegin
  2
*Paper_Space
 70
     0
 10
0.0
 20
0.0
 30
0.0
  3
*Paper_Space
  1

  0
ENDBLK
  5
1D
330
1B
100
AcDbEntity
 67
     1
  8
0
100
AcDbBlockEnd
  0
BLOCK
  5
24
330
23
100
AcDbEntity
  8
0
100
AcDbBlockBegin
  2
*Paper_Space0
 70
     0
 10
0.0
 20
0.0
 30
0.0
  3
*Paper_Space0
  1

  0
ENDBLK
  5
25
330
23
100
AcDbEntity
  8
0
100
AcDbBlockEnd
  0
ENDSEC
  0
SECTION
  2
ENTITIES
  0
LINE
  5
73
330
1F
100
AcDbEntity
  8
0
  6
Continuous
 62
     7
370
    25
100
AcDbLine
 10
36.2282515707
 20
22.8699403789
 30
0.0
 11
36.2519780774
 21
22.8140771313
 31
0.0
  0
LINE
  5
74
330
1F
100
AcDbEntity
  8
0
  6
Continuous
 62
     7
370
    25
100
AcDbLine
 10
38.3591387118
 20
22.8140771313
 30
0.0
 11
38.3828652185
 21
22.8699403789
 31
0.0
  0
LINE
  5
75
330
1F
100
AcDbEntity
  8
0
  6
Continuous
 62
     7
370
    25
100
AcDbLine
 10
36.218397015
 20
23.1947888068
 30
0.0
 11
36.2288088864
 21
23.1529066923
 31
0.0
  0
LINE
  5
76
330
1F
100
AcDbEntity
  8
0
  6
Continuous
 62
     7
370
    25
100
AcDbLine
 10
38.39076517
 20
23.2614502026
 30
0.0
 11
38.38823556
 21
23.4063714625
 31
0.0
  0
LINE
  5
77
330
1F
100
AcDbEntity
  8
0
  6
Continuous
 62
     7
370
    25
100
AcDbLine
 10
36.2210944903
 20
23.3040092577
 30
0.0
 11
36.2203516193
 21
23.2614502026
 31
0.0
  0
LINE
  5
78
330
1F
100
AcDbEntity
  8
0
  6
Continuous
 62
     7
370
    25
100
AcDbLine
 10
38.38823556
 20
23.4063714625
 30
0.0
 11
38.3524445793
 21
23.4418045333
 31
0.0
  0
ARC
  5
79
330
1F
100
AcDbEntity
  8
0
  6
Continuous
 62
     7
370
    25
100
AcDbCircle
 10
25.2378537046
 20
22.6427380266
 30
0.0
 40
0.0605011727060534
100
AcDbArc
 50
90.9188358223
 51
161.9319932267
  0
LWPOLYLINE
  5
7A
330
1F
100
AcDbEntity
  8
0
  6
Continuous
 62
     7
370
    25
100
AcDbPolyline
 90
        3
 70
   128
 43
0.0
 10
25.1775345335
 20
22.6389285408
 10
25.1780476086
 20
22.6456597798
 10
25.1812562767
 20
22.6483402222
  0
LWPOLYLINE
  5
7B
330
1F
100
AcDbEntity
  8
0
  6
Continuous
 62
     7
370
    25
100
AcDbPolyline
 90
        3
 70
   128
 43
0.0
 10
25.1859468153
 20
22.6669554603
 10
25.1803706113
 20
22.6616143767
 10
25.1776669464
 20
22.6516840086
  0
LWPOLYLINE
  5
7C
330
1F
100
AcDbEntity
  8
0
  6
Continuous
 62
     7
370
    25
100
AcDbPolyline
 90
        3
 70
   128
 43
0.0
 10
25.1781389082
 20
22.6462413829
 10
25.1786063953
 20
22.6388847544
 10
25.1792402757
 20
22.6291637334
  0
LWPOLYLINE
  5
7D
330
1F
100
AcDbEntity
  8
0
  6
Continuous
 62
     7
370
    25
100
AcDbPolyline
 90
        3
 70
   128
 43
0.0
 10
14.4817780883
 20
22.6291637334
 10
14.4824119687
 20
22.6388847544
 10
14.4828794558
 20
22.6462413829
  0
LWPOLYLINE
  5
7E
330
1F
100
AcDbEntity
  8
0
  6
Continuous
 62
     7
370
    25
100
AcDbPolyline
 90
        3
 70
   128
 43
0.0
 10
14.4833514176
 20
22.6516840087
 10
14.4806477527
 20
22.6616143767
 10
14.4750715487
 20
22.6669554603
  0
ARC
  5
7F
330
1F
100
AcDbEntity
  8
0
  6
Continuous
 62
     7
370
    25
100
AcDbCircle
 10
14.4231646595
 20
22.6427380266
 30
0.0
 40
0.0605011727060506
100
AcDbArc
 50
18.0680067733
 51
89.0811641777
  0
LWPOLYLINE
  5
80
330
1F
100
AcDbEntity
  8
0
  6
Continuous
 62
     7
370
    25
100
AcDbPolyline
 90
        3
 70
   128
 43
0.0
 10
14.4797620873
 20
22.6483402222
 10
14.4829707554
 20
22.6456597798
 10
14.4834838305
 20
22.6389285408
  0
LINE
  5
81
330
1F
100
AcDbEntity
  8
0
  6
Continuous
 62
     7
370
    25
100
AcDbLine
 10
38.2392928889
 20
22.5070135209
 30
0.0
 11
38.2329285597
 21
22.6140140073
 31
0.0
  0
ARC
  5
82
330
1F
100
AcDbEntity
  8
0
  6
Continuous
 62
     7
370
    25
100
AcDbCircle
 10
38.2211383733
 20
22.6133127335
 30
0.0
 40
0.0118110236220446
100
AcDbArc
 50
3.403910673
 51
90.0
  0
LWPOLYLINE
  5
83
330
1F
100
AcDbEntity
  8
0
  6
Continuous
 62
     7
370
    25
100
AcDbPolyline
 90
        5
 70
   128
 43
0.0
 10
25.0880419717
 20
22.6294159811
 10
25.0887008285
 20
22.6388388524
 10
25.0891923753
 20
22.6458690781
 10
25.08949586
 20
22.6502098914
 10
25.0895984487
 20
22.6516777567
  0
LWPOLYLINE
  5
84
330
1F
100
AcDbEntity
  8
0
  6
Continuous
 62
     7
370
    25
100
AcDbPolyline
 90
        5
 70
   128
 43
0.0
 10
14.5714199154
 20
22.6516777574
 10
14.571522504
 20
22.6502098919
 10
14.5718259888
 20
22.6458690785
 10
14.5723175355
 20
22.6388388525
 10
14.5729763923
 20
22.6294159811
  0
LINE
  5
85
330
1F
100
AcDbEntity
  8
0
  6
Continuous
 62
     7
370
    25
100
AcDbLine
 10
36.2611490577
 20
22.8140771313
 30
0.0
 11
36.2611490577
 21
22.7432109896
 31
0.0
  0
LINE
  5
86
330
1F
100
AcDbEntity
  8
0
  6
Continuous
 62
     7
370
    25
100
AcDbLine
 10
38.3499677315
 20
22.7432109896
 30
0.0
 11
38.3499677315
 21
22.8140771313
 31
0.0
  0
LINE
  5
87
330
1F
100
AcDbEntity
  8
0
  6
Continuous
 62
     7
370
    25
100
AcDbLine
 10
35.3910541887
 20
14.9085883241
 30
0.0
 11
35.3910541887
 21
16.483392238
 31
0.0
  0
LINE
  5
88
330
1F
100
AcDbEntity
  8
0
  6
Continuous
 62
     7
370
    25
100
AcDbLine
 10
34.7611329289
 20
16.483392238
 30
0.0
 11
34.7611329289
 21
14.9085883241
 31
0.0
  0
LINE
  5
89
330
1F
100
AcDbEntity
  8
0
  6
Continuous
 62
   144
370
    18
100
AcDbLine
 10
36.2205497807
 20
23.2015472624
 30
0.0
 11
36.2244840521
 21
23.2575525648
 31
0.0
  0
LINE
  5
8A
330
1F
100
AcDbEntity
  8
0
  6
Continuous
 62
     7
370
    25
100
AcDbLine
 10
37.5376495554
 20
23.0628220692
 30
0.0
 11
37.5848905774
 21
23.0916472381
 31
0.0
  0
LINE
  5
8B
330
1F
100
AcDbEntity
  8
0
  6
Continuous
 62
   144
370
    18
100
AcDbLine
 10
37.5406521333
 20
23.1185520189
 30
0.0
 11
37.5848905774
 21
23.0916472381
 31
0.0
  0
LINE
  5
8C
330
1F
100
AcDbEntity
  8
0
  6
Continuous
 62
   144
370
    18
100
AcDbLine
 10
37.7212238922
 20
23.1185520189
 30
0.0
 11
37.7159150821
 21
23.0628220692
 31
0.0
  0
LINE
  5
8D
330
1F
100
AcDbEntity
  8
0
  6
Continuous
 62
   144
370
    18
100
AcDbLine
 10
38.1672879234
 20
23.1185520189
 30
0.0
 11
38.1896337087
 21
23.0916472381
 31
0.0
  0
LINE
  5
8E
330
1F
100
AcDbEntity
  8
0
  6
Continuous
 62
   144
370
    18
100
AcDbLine
 10
36.3508803412
 20
23.0087563395
 30
0.0
 11
36.3238217093
 21
23.0357325725
 31
0.0
  0
LINE
  5
8F
330
1F
100
AcDbEntity
  8
0
  6
Continuous
 62
   144
370
    18
100
AcDbLine
 10
36.3238217093
 20
23.0357325725
 30
0.0
 11
36.3274196631
 21
23.0916472381
 31
0.0
  0
LINE
  5
90
330
1F
100
AcDbEntity
  8
0
  6
Continuous
 62
   144
370
    18
100
AcDbLine
 10
36.3274196631
 20
23.0916472381
 30
0.0
 11
36.3544045109
 21
23.0628220692
 31
0.0
  0
LINE
  5
91
330
1F
100
AcDbEntity
  8
0
  6
Continuous
 62
   144
370
    18
100
AcDbLine
 10
38.2099386054
 20
23.0628220692
 30
0.0
 11
38.240222095
 21
23.0916472381
 31
0.0
  0
LINE
  5
92
330
1F
100
AcDbEntity
  8
0
  6
Continuous
 62
   144
370
    18
100
AcDbLine
 10
38.2099386054
 20
23.0628220692
 30
0.0
 11
38.2132860552
 21
23.0087563395
 31
0.0
  0
LINE
  5
93
330
1F
100
AcDbEntity
  8
0
  6
Continuous
 62
   144
370
    18
100
AcDbLine
 10
38.2132860552
 20
23.0087563395
 30
0.0
 11
38.2436601317
 21
23.0357325725
 31
0.0
  0
LINE
  5
94
330
1F
100
AcDbEntity
  8
0
  6
Continuous
 62
   144
370
    18
100
AcDbLine
 10
37.2581796077
 20
23.1185520189
 30
0.0
 11
37.2587847216
 21
23.0628220692
 31
0.0
  0
LINE
  5
95
330
1F
100
AcDbEntity
  8
0
  6
Continuous
 62
   144
370
    18
100
AcDbLine
 10
37.2587847216
 20
23.0628220692
 30
0.0
 11
37.3055583946
 21
23.0916472381
 31
0.0
  0
LINE
  5
96
330
1F
100
AcDbEntity
  8
0
  6
Continuous
 62
     7
370
    25
100
AcDbLine
 10
37.2581796077
 20
23.1185520189
 30
0.0
 11
37.3055583946
 21
23.0916472381
 31
0.0
  0
LINE
  5
97
330
1F
100
AcDbEntity
  8
0
  6
Continuous
 62
   144
370
    18
100
AcDbLine
 10
37.2583528903
 20
23.1745463186
 30
0.0
 11
37.2581796077
 21
23.1185520189
 31
0.0
  0
LINE
  5
98
330
1F
100
AcDbEntity
  8
0
  6
Continuous
 62
   144
370
    18
100
AcDbLine
 10
37.3055583946
 20
23.1457044506
 30
0.0
 11
37.2583368753
 21
23.1745231409
 31
0.0
  0
LINE
  5
99
330
1F
100
AcDbEntity
  8
0
  6
Continuous
 62
   144
370
    18
100
AcDbLine
 10
37.446561574
 20
22.952762735
 30
0.0
 11
37.3991071666
 21
22.9259090176
 31
0.0
  0
LINE
  5
9A
330
1F
100
AcDbEntity
  8
0
  6
Continuous
 62
   144
370
    18
100
AcDbLine
 10
37.4460420889
 20
23.0087325186
 30
0.0
 11
37.446561574
 21
22.952762735
 31
0.0
  0
LINE
  5
9B
330
1F
100
AcDbEntity
  8
0
  6
Continuous
 62
   144
370
    18
100
AcDbLine
 10
37.3987575588
 20
22.9801227569
 30
0.0
 11
37.3991071666
 21
22.9259090176
 31
0.0
  0
LINE
  5
9C
330
1F
100
AcDbEntity
  8
0
  6
Continuous
 62
   144
370
    18
100
AcDbLine
 10
36.2451190419
 20
23.1185520189
 30
0.0
 11
36.2489974788
 21
23.1745463186
 31
0.0
  0
LINE
  5
9D
330
1F
100
AcDbEntity
  8
0
  6
Continuous
 62
   144
370
    18
100
AcDbLine
 10
36.2451190419
 20
23.1185520189
 30
0.0
 11
36.2426980506
 21
23.0916472381
 31
0.0
  0
LINE
  5
9E
330
1F
100
AcDbEntity
  8
0
  6
Continuous
 62
   144
370
    18
100
AcDbLine
 10
37.8870313872
 20
23.1745463186
 30
0.0
 11
37.8891658654
 21
23.1185520189
 31
0.0
  0
LINE
  5
9F
330
1F
100
AcDbEntity
  8
0
  6
Continuous
 62
   144
370
    18
100
AcDbLine
 10
37.8891658654
 20
23.1185520189
 30
0.0
 11
37.9245945939
 21
23.0916472381
 31
0.0
  0
LINE
  5
A0
330
1F
100
AcDbEntity
  8
0
  6
Continuous
 62
   144
370
    18
100
AcDbLine
 10
37.9245945939
 20
23.0916472381
 30
0.0
 11
37.9223083177
 21
23.1457044506
 31
0.0
  0
LINE
  5
A1
330
1F
100
AcDbEntity
  8
0
  6
Continuous
 62
   144
370
    18
100
AcDbLine
 10
37.4922771882
 20
23.1457044506
 30
0.0
 11
37.4468006018
 21
23.1745231409
 31
0.0
  0
LINE
  5
A2
330
1F
100
AcDbEntity
  8
0
  6
Continuous
 62
   144
370
    18
100
AcDbLine
 10
37.446815927
 20
23.1745134292
 30
0.0
 11
37.4946878579
 21
23.2015472624
 31
0.0
  0
LINE
  5
A3
330
1F
100
AcDbEntity
  8
0
  6
Continuous
 62
   144
370
    18
100
AcDbLine
 10
37.5397928096
 20
23.1745134292
 30
0.0
 11
37.4946878579
 21
23.2015472624
 31
0.0
  0
LINE
  5
A4
330
1F
100
AcDbEntity
  8
0
  6
Continuous
 62
   144
370
    18
100
AcDbLine
 10
37.6280093419
 20
23.0628220692
 30
0.0
 11
37.6746859183
 21
23.0916472381
 31
0.0
  0
LINE
  5
A5
330
1F
100
AcDbEntity
  8
0
  6
Continuous
 62
   144
370
    18
100
AcDbLine
 10
36.9398224086
 20
22.9801227569
 30
0.0
 11
36.89366457
 21
23.0087094035
 31
0.0
  0
LINE
  5
A6
330
1F
100
AcDbEntity
  8
0
  6
Continuous
 62
   144
370
    18
100
AcDbLine
 10
36.9819118167
 20
23.0086997667
 30
0.0
 11
36.9350730842
 21
23.0357325725
 31
0.0
  0
LINE
  5
A7
330
1F
100
AcDbEntity
  8
0
  6
Continuous
 62
   144
370
    18
100
AcDbLine
 10
38.2690174103
 20
23.1185520189
 30
0.0
 11
38.2567122731
 21
23.0628220692
 31
0.0
  0
LINE
  5
A8
330
1F
100
AcDbEntity
  8
0
  6
Continuous
 62
   144
370
    18
100
AcDbLine
 10
36.6443300635
 20
23.1185520189
 30
0.0
 11
36.6467484313
 21
23.1745463186
 31
0.0
  0
LINE
  5
A9
330
1F
100
AcDbEntity
  8
0
  6
Continuous
 62
   144
370
    18
100
AcDbLine
 10
36.6443300635
 20
23.1185520189
 30
0.0
 11
36.6865221953
 21
23.0916472381
 31
0.0
  0
LINE
  5
AA
330
1F
100
AcDbEntity
  8
0
  6
Continuous
 62
   144
370
    18
100
AcDbLine
 10
37.9631835008
 20
22.9527627333
 30
0.0
 11
37.9547403791
 21
22.8970620151
 31
0.0
  0
LINE
  5
AB
330
1F
100
AcDbEntity
  8
0
  6
Continuous
 62
   144
370
    18
100
AcDbLine
 10
37.963183492
 20
22.952762735
 30
0.0
 11
37.9212076858
 21
22.9259090176
 31
0.0
  0
LINE
  5
AC
330
1F
100
AcDbEntity
  8
0
  6
Continuous
 62
   144
370
    18
100
AcDbLine
 10
38.2567122731
 20
23.0628220692
 30
0.0
 11
38.2602685515
 21
23.0087563395
 31
0.0
  0
LINE
  5
AD
330
1F
100
AcDbEntity
  8
0
  6
Continuous
 62
   144
370
    18
100
AcDbLine
 10
36.9364308709
 20
23.0916472381
 30
0.0
 11
36.9831074364
 21
23.0628220692
 31
0.0
  0
LINE
  5
AE
330
1F
100
AcDbEntity
  8
0
  6
Continuous
 62
   144
370
    18
100
AcDbLine
 10
37.0717457386
 20
22.952762735
 30
0.0
 11
37.0726071532
 21
23.0087325186
 31
0.0
  0
LINE
  5
AF
330
1F
100
AcDbEntity
  8
0
  6
Continuous
 62
   144
370
    18
100
AcDbLine
 10
36.3781923198
 20
22.6140140073
 30
0.0
 11
36.3718279905
 21
22.5070135209
 31
0.0
  0
LINE
  5
B0
330
1F
100
AcDbEntity
  8
0
  6
Continuous
 62
   144
370
    18
100
AcDbLine
 10
36.3708946942
 20
23.0916472381
 30
0.0
 11
36.4011781777
 21
23.0628220692
 31
0.0
  0
LINE
  5
B1
330
1F
100
AcDbEntity
  8
0
  6
Continuous
 62
   144
370
    18
100
AcDbLine
 10
36.3978307279
 20
23.0087563395
 30
0.0
 11
36.3674566575
 21
23.0357325725
 31
0.0
  0
LINE
  5
B2
330
1F
100
AcDbEntity
  8
0
  6
Continuous
 62
   144
370
    18
100
AcDbLine
 10
36.3978307279
 20
23.0087563395
 30
0.0
 11
36.4011781777
 21
23.0628220692
 31
0.0
  0
LINE
  5
B3
330
1F
100
AcDbEntity
  8
0
  6
Continuous
 62
   144
370
    18
100
AcDbLine
 10
38.0300030353
 20
23.0628220692
 30
0.0
 11
38.0326738064
 21
23.0087563395
 31
0.0
  0
LINE
  5
B4
330
1F
100
AcDbEntity
  8
0
  6
Continuous
 62
   144
370
    18
100
AcDbLine
 10
38.0300030353
 20
23.0628220692
 30
0.0
 11
38.0687081103
 21
23.0916472381
 31
0.0
  0
LINE
  5
B5
330
1F
100
AcDbEntity
  8
0
  6
Continuous
 62
   144
370
    18
100
AcDbLine
 10
36.9789358682
 20
23.1185520189
 30
0.0
 11
37.0262262118
 21
23.0916472381
 31
0.0
  0
LINE
  5
B6
330
1F
100
AcDbEntity
  8
0
  6
Continuous
 62
   144
370
    18
100
AcDbLine
 10
36.9831074364
 20
23.0628220692
 30
0.0
 11
37.0262262118
 21
23.0916472381
 31
0.0
  0
LINE
  5
B7
330
1F
100
AcDbEntity
  8
0
  6
Continuous
 62
   144
370
    18
100
AcDbLine
 10
36.9831074364
 20
23.0628220692
 30
0.0
 11
36.9789358682
 21
23.1185520189
 31
0.0
  0
LINE
  5
B8
330
1F
100
AcDbEntity
  8
0
  6
Continuous
 62
   144
370
    18
100
AcDbLine
 10
37.8838631653
 20
23.0087094035
 30
0.0
 11
37.8402286372
 21
22.9801227569
 31
0.0
  0
LINE
  5
B9
330
1F
100
AcDbEntity
  8
0
  6
Continuous
 62
   144
370
    18
100
AcDbLine
 10
37.8838472044
 20
23.0087325186
 30
0.0
 11
37.8859856193
 21
22.952762735
 31
0.0
  0
LINE
  5
BA
330
1F
100
AcDbEntity
  8
0
  6
Continuous
 62
   144
370
    18
100
AcDbLine
 10
37.8859856193
 20
22.952762735
 30
0.0
 11
37.8422342866
 21
22.9259090176
 31
0.0
  0
LINE
  5
BB
330
1F
100
AcDbEntity
  8
0
  6
Continuous
 62
   144
370
    18
100
AcDbLine
 10
36.2696441032
 20
23.1185520189
 30
0.0
 11
36.2630764961
 21
23.0916472381
 31
0.0
  0
LINE
  5
BC
330
1F
100
AcDbEntity
  8
0
  6
Continuous
 62
   144
370
    18
100
AcDbLine
 10
36.2696441032
 20
23.1185520189
 30
0.0
 11
36.2734328424
 21
23.1745463186
 31
0.0
  0
LINE
  5
BD
330
1F
100
AcDbEntity
  8
0
  6
Continuous
 62
   144
370
    18
100
AcDbLine
 10
38.0366913689
 20
23.1745463186
 30
0.0
 11
38.0393752209
 21
23.1185520189
 31
0.0
  0
LINE
  5
BE
330
1F
100
AcDbEntity
  8
0
  6
Continuous
 62
   144
370
    18
100
AcDbLine
 10
38.3824522233
 20
23.1185520189
 30
0.0
 11
38.3807081751
 21
23.0916472381
 31
0.0
  0
LINE
  5
BF
330
1F
100
AcDbEntity
  8
0
  6
Continuous
 62
   144
370
    18
100
AcDbLine
 10
38.370184761
 20
23.0663897244
 30
0.0
 11
38.3807081751
 21
23.0916472381
 31
0.0
  0
LINE
  5
C0
330
1F
100
AcDbEntity
  8
0
  6
Continuous
 62
   144
370
    18
100
AcDbLine
 10
38.3824522233
 20
23.1185520189
 30
0.0
 11
38.3686983156
 21
23.0628220692
 31
0.0
  0
LINE
  5
C1
330
1F
100
AcDbEntity
  8
0
  6
Continuous
 62
   144
370
    18
100
AcDbLine
 10
37.8006977601
 20
23.0628220692
 30
0.0
 11
37.8025715242
 21
23.0087563395
 31
0.0
  0
LINE
  5
C2
330
1F
100
AcDbEntity
  8
0
  6
Continuous
 62
   144
370
    18
100
AcDbLine
 10
36.8936801302
 20
23.0086997667
 30
0.0
 11
36.8477670599
 21
23.0357325725
 31
0.0
  0
LINE
  5
C3
330
1F
100
AcDbEntity
  8
0
  6
Continuous
 62
   144
370
    18
100
AcDbLine
 10
36.8156792756
 20
23.0135953885
 30
0.0
 11
36.8477670599
 21
23.0357325725
 31
0.0
  0
LINE
  5
C4
330
1F
100
AcDbEntity
  8
0
  6
Continuous
 62
   144
370
    18
100
AcDbLine
 10
37.9667867165
 20
23.1185520189
 30
0.0
 11
37.9992912149
 21
23.0916472381
 31
0.0
  0
LINE
  5
C5
330
1F
100
AcDbEntity
  8
0
  6
Continuous
 62
   144
370
    18
100
AcDbLine
 10
37.9583416191
 20
23.0628220692
 30
0.0
 11
37.9992912149
 21
23.0916472381
 31
0.0
  0
LINE
  5
C6
330
1F
100
AcDbEntity
  8
0
  6
Continuous
 62
   144
370
    18
100
AcDbLine
 10
37.9667867165
 20
23.1185520189
 30
0.0
 11
37.9583416191
 21
23.0628220692
 31
0.0
  0
LINE
  5
C7
330
1F
100
AcDbEntity
  8
0
  6
Continuous
 62
   144
370
    18
100
AcDbLine
 10
36.6181995802
 20
22.9801227569
 30
0.0
 11
36.5784141567
 21
23.0087094035
 31
0.0
  0
LINE
  5
C8
330
1F
100
AcDbEntity
  8
0
  6
Continuous
 62
   144
370
    18
100
AcDbLine
 10
36.615621167
 20
22.9259090176
 30
0.0
 11
36.5757403402
 21
22.952762735
 31
0.0
  0
LINE
  5
C9
330
1F
100
AcDbEntity
  8
0
  6
Continuous
 62
   144
370
    18
100
AcDbLine
 10
36.5717415598
 20
23.1185520189
 30
0.0
 11
36.5744254118
 21
23.1745463186
 31
0.0
  0
LINE
  5
CA
330
1F
100
AcDbEntity
  8
0
  6
Continuous
 62
   144
370
    18
100
AcDbLine
 10
37.445523415
 20
23.0628220692
 30
0.0
 11
37.49296935
 21
23.0916472381
 31
0.0
  0
LINE
  5
CB
330
1F
100
AcDbEntity
  8
0
  6
Continuous
 62
   144
370
    18
100
AcDbLine
 10
36.2451190419
 20
23.1185520189
 30
0.0
 11
36.2630764961
 21
23.0916472381
 31
0.0
  0
LINE
  5
CC
330
1F
100
AcDbEntity
  8
0
  6
Continuous
 62
   144
370
    18
100
AcDbLine
 10
36.2424184736
 20
23.0628220692
 30
0.0
 11
36.2304086141
 21
23.0916472381
 31
0.0
  0
LINE
  5
CD
330
1F
100
AcDbEntity
  8
0
  6
Continuous
 62
   144
370
    18
100
AcDbLine
 10
36.2384659723
 20
23.0087563395
 30
0.0
 11
36.2424184736
 21
23.0628220692
 31
0.0
  0
LINE
  5
CE
330
1F
100
AcDbEntity
  8
0
  6
Continuous
 62
   144
370
    18
100
AcDbLine
 10
36.2384659723
 20
23.0087563395
 30
0.0
 11
36.2264538179
 21
23.0357325725
 31
0.0
  0
LINE
  5
CF
330
1F
100
AcDbEntity
  8
0
  6
Continuous
 62
     7
370
    25
100
AcDbLine
 10
36.2264538179
 20
23.0357325725
 30
0.0
 11
36.2304086141
 21
23.0916472381
 31
0.0
  0
LINE
  5
D0
330
1F
100
AcDbEntity
  8
0
  6
Continuous
 62
   144
370
    18
100
AcDbLine
 10
36.2302763831
 20
23.0087563395
 30
0.0
 11
36.2316832044
 21
23.0278244457
 31
0.0
  0
LINE
  5
D1
330
1F
100
AcDbEntity
  8
0
  6
Continuous
 62
   144
370
    18
100
AcDbLine
 10
36.2302763831
 20
23.0087563395
 30
0.0
 11
36.2264538179
 21
23.0357325725
 31
0.0
  0
LINE
  5
D2
330
1F
100
AcDbEntity
  8
0
  6
Continuous
 62
   144
370
    18
100
AcDbLine
 10
37.9245945939
 20
23.0916472381
 30
0.0
 11
37.9583416191
 21
23.0628220692
 31
0.0
  0
LINE
  5
D3
330
1F
100
AcDbEntity
  8
0
  6
Continuous
 62
   144
370
    18
100
AcDbLine
 10
37.9268716366
 20
23.0357325725
 30
0.0
 11
37.9245945939
 21
23.0916472381
 31
0.0
  0
LINE
  5
D4
330
1F
100
AcDbEntity
  8
0
  6
Continuous
 62
   144
370
    18
100
AcDbLine
 10
37.9583416191
 20
23.0628220692
 30
0.0
 11
37.9607988822
 21
23.0087563395
 31
0.0
  0
LINE
  5
D5
330
1F
100
AcDbEntity
  8
0
  6
Continuous
 62
   144
370
    18
100
AcDbLine
 10
36.5811137456
 20
23.0628220692
 30
0.0
 11
36.5717415598
 21
23.1185520189
 31
0.0
  0
LINE
  5
D6
330
1F
100
AcDbEntity
  8
0
  6
Continuous
 62
   144
370
    18
100
AcDbLine
 10
36.5811137456
 20
23.0628220692
 30
0.0
 11
36.6118255743
 21
23.0916472381
 31
0.0
  0
LINE
  5
D7
330
1F
100
AcDbEntity
  8
0
  6
Continuous
 62
   144
370
    18
100
AcDbLine
 10
36.5717415598
 20
23.1185520189
 30
0.0
 11
36.6118255743
 21
23.0916472381
 31
0.0
  0
LINE
  5
D8
330
1F
100
AcDbEntity
  8
0
  6
Continuous
 62
   144
370
    18
100
AcDbLine
 10
37.7574812116
 20
22.9801227569
 30
0.0
 11
37.7591764598
 21
22.9259090176
 31
0.0
  0
LINE
  5
D9
330
1F
100
AcDbEntity
  8
0
  6
Continuous
 62
   144
370
    18
100
AcDbLine
 10
37.7174357573
 20
23.0087325186
 30
0.0
 11
37.7189588106
 21
22.952762735
 31
0.0
  0
LINE
  5
DA
330
1F
100
AcDbEntity
  8
0
  6
Continuous
 62
   144
370
    18
100
AcDbLine
 10
37.7591764598
 20
22.9259090176
 30
0.0
 11
37.7189588106
 21
22.952762735
 31
0.0
  0
LINE
  5
DB
330
1F
100
AcDbEntity
  8
0
  6
Continuous
 62
   144
370
    18
100
AcDbLine
 10
36.3020530978
 20
23.1185520189
 30
0.0
 11
36.2913888583
 21
23.0916472381
 31
0.0
  0
LINE
  5
DC
330
1F
100
AcDbEntity
  8
0
  6
Continuous
 62
   144
370
    18
100
AcDbLine
 10
36.3020530978
 20
23.1185520189
 30
0.0
 11
36.3057233048
 21
23.1745463186
 31
0.0
  0
LINE
  5
DD
330
1F
100
AcDbEntity
  8
0
  6
Continuous
 62
   144
370
    18
100
AcDbLine
 10
36.3057247178
 20
23.1745231409
 30
0.0
 11
36.2951344739
 21
23.1457044506
 31
0.0
  0
LINE
  5
DE
330
1F
100
AcDbEntity
  8
0
  6
Continuous
 62
   144
370
    18
100
AcDbLine
 10
37.7212238922
 20
23.1185520189
 30
0.0
 11
37.6746859183
 21
23.0916472381
 31
0.0
  0
LINE
  5
DF
330
1F
100
AcDbEntity
  8
0
  6
Continuous
 62
   144
370
    18
100
AcDbLine
 10
37.7197036427
 20
23.1745463186
 30
0.0
 11
37.7212238922
 21
23.1185520189
 31
0.0
  0
LINE
  5
E0
330
1F
100
AcDbEntity
  8
0
  6
Continuous
 62
     7
370
    25
100
AcDbLine
 10
37.7197201713
 20
23.1745231409
 30
0.0
 11
37.6733226257
 21
23.1457044506
 31
0.0
  0
LINE
  5
E1
330
1F
100
AcDbEntity
  8
0
  6
Continuous
 62
   144
370
    18
100
AcDbLine
 10
37.6746859183
 20
23.0916472381
 30
0.0
 11
37.6733226257
 21
23.1457044506
 31
0.0
  0
LINE
  5
E2
330
1F
100
AcDbEntity
  8
0
  6
Continuous
 62
   144
370
    18
100
AcDbLine
 10
37.6733226257
 20
23.1457044506
 30
0.0
 11
37.6309727553
 21
23.1745231409
 31
0.0
  0
LINE
  5
E3
330
1F
100
AcDbEntity
  8
0
  6
Continuous
 62
   144
370
    18
100
AcDbLine
 10
37.6309870268
 20
23.1745134292
 30
0.0
 11
37.6780707181
 21
23.2015472624
 31
0.0
  0
LINE
  5
E4
330
1F
100
AcDbEntity
  8
0
  6
Continuous
 62
   144
370
    18
100
AcDbLine
 10
37.7197045357
 20
23.1745134292
 30
0.0
 11
37.6780707181
 21
23.2015472624
 31
0.0
  0
LINE
  5
E5
330
1F
100
AcDbEntity
  8
0
  6
Continuous
 62
   144
370
    18
100
AcDbLine
 10
38.3708642882
 20
23.0332619049
 30
0.0
 11
38.3726598934
 21
23.0087563395
 31
0.0
  0
LINE
  5
E6
330
1F
100
AcDbEntity
  8
0
  6
Continuous
 62
   144
370
    18
100
AcDbLine
 10
36.8085957975
 20
23.0087094035
 30
0.0
 11
36.770888152
 21
22.9801227569
 31
0.0
  0
LINE
  5
E7
330
1F
100
AcDbEntity
  8
0
  6
Continuous
 62
   144
370
    18
100
AcDbLine
 10
36.7272683239
 20
23.0086997667
 30
0.0
 11
36.7639451042
 21
23.0357325725
 31
0.0
  0
LINE
  5
E8
330
1F
100
AcDbEntity
  8
0
  6
Continuous
 62
   144
370
    18
100
AcDbLine
 10
36.8018183248
 20
23.0127965127
 30
0.0
 11
36.7639451042
 21
23.0357325725
 31
0.0
  0
LINE
  5
E9
330
1F
100
AcDbEntity
  8
0
  6
Continuous
 62
   144
370
    18
100
AcDbLine
 10
37.399621812
 20
23.0916472381
 30
0.0
 11
37.445523415
 21
23.0628220692
 31
0.0
  0
LINE
  5
EA
330
1F
100
AcDbEntity
  8
0
  6
Continuous
 62
   144
370
    18
100
AcDbLine
 10
37.4468319534
 20
23.1745231409
 30
0.0
 11
37.3992744091
 21
23.1457044506
 31
0.0
  0
LINE
  5
EB
330
1F
100
AcDbEntity
  8
0
  6
Continuous
 62
   144
370
    18
100
AcDbLine
 10
37.4468156224
 20
23.1745463186
 30
0.0
 11
37.4473341512
 21
23.1185520189
 31
0.0
  0
LINE
  5
EC
330
1F
100
AcDbEntity
  8
0
  6
Continuous
 62
   144
370
    18
100
AcDbLine
 10
38.3602191038
 20
22.952762735
 30
0.0
 11
38.3466785179
 21
22.8970620137
 31
0.0
  0
LINE
  5
ED
330
1F
100
AcDbEntity
  8
0
  6
Continuous
 62
   144
370
    18
100
AcDbLine
 10
38.3626035532
 20
22.9259090176
 30
0.0
 11
38.3602191038
 21
22.952762735
 31
0.0
  0
LINE
  5
EE
330
1F
100
AcDbEntity
  8
0
  6
Continuous
 62
   144
370
    18
100
AcDbLine
 10
38.3827718136
 20
23.2286342994
 30
0.0
 11
38.3867581227
 21
23.1745703054
 31
0.0
  0
LINE
  5
EF
330
1F
100
AcDbEntity
  8
0
  6
Continuous
 62
   144
370
    18
100
AcDbLine
 10
38.3867581227
 20
23.1745703054
 30
0.0
 11
38.3947115652
 21
23.2015472624
 31
0.0
  0
LINE
  5
F0
330
1F
100
AcDbEntity
  8
0
  6
Continuous
 62
   144
370
    18
100
AcDbLine
 10
38.3947115652
 20
23.2015472624
 30
0.0
 11
38.3907622655
 21
23.2575525648
 31
0.0
  0
LINE
  5
F1
330
1F
100
AcDbEntity
  8
0
  6
Continuous
 62
   144
370
    18
100
AcDbLine
 10
38.3907632899
 20
23.2575381358
 30
0.0
 11
38.3827718136
 21
23.2286342994
 31
0.0
  0
LINE
  5
F2
330
1F
100
AcDbEntity
  8
0
  6
Continuous
 62
   144
370
    18
100
AcDbLine
 10
37.6280093419
 20
23.0628220692
 30
0.0
 11
37.6292426738
 21
23.0087563395
 31
0.0
  0
LINE
  5
F3
330
1F
100
AcDbEntity
  8
0
  6
Continuous
 62
   144
370
    18
100
AcDbLine
 10
37.6292207709
 20
23.0087094035
 30
0.0
 11
37.5823240779
 21
22.9801227569
 31
0.0
  0
LINE
  5
F4
330
1F
100
AcDbEntity
  8
0
  6
Continuous
 62
   144
370
    18
100
AcDbLine
 10
37.5823240779
 20
22.9801227569
 30
0.0
 11
37.5384953539
 21
23.0087094035
 31
0.0
  0
LINE
  5
F5
330
1F
100
AcDbEntity
  8
0
  6
Continuous
 62
   144
370
    18
100
AcDbLine
 10
37.5385101289
 20
23.0086997667
 30
0.0
 11
37.5859180639
 21
23.0357325725
 31
0.0
  0
LINE
  5
F6
330
1F
100
AcDbEntity
  8
0
  6
Continuous
 62
   144
370
    18
100
AcDbLine
 10
36.3148696994
 20
23.0628220692
 30
0.0
 11
36.3020530978
 21
23.1185520189
 31
0.0
  0
LINE
  5
F7
330
1F
100
AcDbEntity
  8
0
  6
Continuous
 62
   144
370
    18
100
AcDbLine
 10
36.3148696994
 20
23.0628220692
 30
0.0
 11
36.3274196631
 21
23.0916472381
 31
0.0
  0
LINE
  5
F8
330
1F
100
AcDbEntity
  8
0
  6
Continuous
 62
   144
370
    18
100
AcDbLine
 10
36.3020530978
 20
23.1185520189
 30
0.0
 11
36.3274196631
 21
23.0916472381
 31
0.0
  0
LINE
  5
F9
330
1F
100
AcDbEntity
  8
0
  6
Continuous
 62
   144
370
    18
100
AcDbLine
 10
37.9954956222
 20
22.9259090176
 30
0.0
 11
37.963183492
 21
22.952762735
 31
0.0
  0
LINE
  5
FA
330
1F
100
AcDbEntity
  8
0
  6
Continuous
 62
   144
370
    18
100
AcDbLine
 10
37.960760664
 20
23.0087325186
 30
0.0
 11
37.963183492
 21
22.952762735
 31
0.0
  0
LINE
  5
FB
330
1F
100
AcDbEntity
  8
0
  6
Continuous
 62
   144
370
    18
100
AcDbLine
 10
37.992917209
 20
22.9801227569
 30
0.0
 11
37.9607512383
 21
23.0087094035
 31
0.0
  0
LINE
  5
FC
330
1F
100
AcDbEntity
  8
0
  6
Continuous
 62
   144
370
    18
100
AcDbLine
 10
37.399621812
 20
23.0916472381
 30
0.0
 11
37.3992744091
 21
23.1457044506
 31
0.0
  0
LINE
  5
FD
330
1F
100
AcDbEntity
  8
0
  6
Continuous
 62
   144
370
    18
100
AcDbLine
 10
37.35293717
 20
23.1185520189
 30
0.0
 11
37.399621812
 21
23.0916472381
 31
0.0
  0
LINE
  5
FE
330
1F
100
AcDbEntity
  8
0
  6
Continuous
 62
   144
370
    18
100
AcDbLine
 10
37.3527638875
 20
23.1745463186
 30
0.0
 11
37.35293717
 21
23.1185520189
 31
0.0
  0
LINE
  5
FF
330
1F
100
AcDbEntity
  8
0
  6
Continuous
 62
   144
370
    18
100
AcDbLine
 10
37.3992744091
 20
23.1457044506
 30
0.0
 11
37.3527483104
 21
23.1745231409
 31
0.0
  0
LINE
  5
100
330
1F
100
AcDbEntity
  8
0
  6
Continuous
 62
   144
370
    18
100
AcDbLine
 10
37.5376495554
 20
23.0628220692
 30
0.0
 11
37.5385473503
 21
23.0087563395
 31
0.0
  0
LINE
  5
101
330
1F
100
AcDbEntity
  8
0
  6
Continuous
 62
   144
370
    18
100
AcDbLine
 10
37.2586113906
 20
23.0087325186
 30
0.0
 11
37.2584377884
 21
22.952762735
 31
0.0
  0
LINE
  5
102
330
1F
100
AcDbEntity
  8
0
  6
Continuous
 62
   144
370
    18
100
AcDbLine
 10
37.3055583946
 20
22.9259090176
 30
0.0
 11
37.2584377884
 21
22.952762735
 31
0.0
  0
LINE
  5
103
330
1F
100
AcDbEntity
  8
0
  6
Continuous
 62
   144
370
    18
100
AcDbLine
 10
37.258611289
 20
23.0086997667
 30
0.0
 11
37.3055583946
 21
23.0357325725
 31
0.0
  0
LINE
  5
104
330
1F
100
AcDbEntity
  8
0
  6
Continuous
 62
   144
370
    18
100
AcDbLine
 10
37.1637826266
 20
23.1185520189
 30
0.0
 11
37.2114949772
 21
23.0916472381
 31
0.0
  0
LINE
  5
105
330
1F
100
AcDbEntity
  8
0
  6
Continuous
 62
   144
370
    18
100
AcDbLine
 10
37.165593363
 20
23.0628220692
 30
0.0
 11
37.2114949772
 21
23.0916472381
 31
0.0
  0
LINE
  5
106
330
1F
100
AcDbEntity
  8
0
  6
Continuous
 62
   144
370
    18
100
AcDbLine
 10
37.165593363
 20
23.0628220692
 30
0.0
 11
37.1637826266
 21
23.1185520189
 31
0.0
  0
LINE
  5
107
330
1F
100
AcDbEntity
  8
0
  6
Continuous
 62
   144
370
    18
100
AcDbLine
 10
37.9643683488
 20
23.1745463186
 30
0.0
 11
37.9667867165
 21
23.1185520189
 31
0.0
  0
LINE
  5
108
330
1F
100
AcDbEntity
  8
0
  6
Continuous
 62
   144
370
    18
100
AcDbLine
 10
36.5149657913
 20
23.0628220692
 30
0.0
 11
36.5424086789
 21
23.0916472381
 31
0.0
  0
LINE
  5
109
330
1F
100
AcDbEntity
  8
0
  6
Continuous
 62
   144
370
    18
100
AcDbLine
 10
36.5119996919
 20
23.0087563395
 30
0.0
 11
36.5149657913
 21
23.0628220692
 31
0.0
  0
LINE
  5
10A
330
1F
100
AcDbEntity
  8
0
  6
Continuous
 62
   144
370
    18
100
AcDbLine
 10
37.3525053872
 20
23.0087325186
 30
0.0
 11
37.3526789893
 21
22.952762735
 31
0.0
  0
LINE
  5
10B
330
1F
100
AcDbEntity
  8
0
  6
Continuous
 62
   144
370
    18
100
AcDbLine
 10
37.3987575588
 20
22.9801227569
 30
0.0
 11
37.3524898916
 21
23.0087094035
 31
0.0
  0
LINE
  5
10C
330
1F
100
AcDbEntity
  8
0
  6
Continuous
 62
   144
370
    18
100
AcDbLine
 10
37.807103409
 20
23.1185520189
 30
0.0
 11
37.7616719759
 21
23.0916472381
 31
0.0
  0
LINE
  5
10D
330
1F
100
AcDbEntity
  8
0
  6
Continuous
 62
   144
370
    18
100
AcDbLine
 10
38.3847975799
 20
22.952762735
 30
0.0
 11
38.3789101786
 21
22.9259090176
 31
0.0
  0
LINE
  5
10E
330
1F
100
AcDbEntity
  8
0
  6
Continuous
 62
   144
370
    18
100
AcDbLine
 10
38.3808214377
 20
23.0087325186
 30
0.0
 11
38.3847975799
 21
22.952762735
 31
0.0
  0
LINE
  5
10F
330
1F
100
AcDbEntity
  8
0
  6
Continuous
 62
   144
370
    18
100
AcDbLine
 10
38.3808257612
 20
23.0087093975
 30
0.0
 11
38.3748988797
 21
22.9801227569
 31
0.0
  0
LINE
  5
110
330
1F
100
AcDbEntity
  8
0
  6
Continuous
 62
   144
370
    18
100
AcDbLine
 10
38.3748988797
 20
22.9801227569
 30
0.0
 11
38.3789101786
 21
22.9259090176
 31
0.0
  0
LINE
  5
111
330
1F
100
AcDbEntity
  8
0
  6
Continuous
 62
   144
370
    18
100
AcDbLine
 10
37.7159150821
 20
23.0628220692
 30
0.0
 11
37.7174745644
 21
23.0087563395
 31
0.0
  0
LINE
  5
112
330
1F
100
AcDbEntity
  8
0
  6
Continuous
 62
   144
370
    18
100
AcDbLine
 10
37.7174745644
 20
23.0087563395
 30
0.0
 11
37.676043705
 21
23.0357325725
 31
0.0
  0
LINE
  5
113
330
1F
100
AcDbEntity
  8
0
  6
Continuous
 62
   144
370
    18
100
AcDbLine
 10
37.676043705
 20
23.0357325725
 30
0.0
 11
37.6746859183
 21
23.0916472381
 31
0.0
  0
LINE
  5
114
330
1F
100
AcDbEntity
  8
0
  6
Continuous
 62
   144
370
    18
100
AcDbLine
 10
37.6746859183
 20
23.0916472381
 30
0.0
 11
37.7159150821
 21
23.0628220692
 31
0.0
  0
LINE
  5
115
330
1F
100
AcDbEntity
  8
0
  6
Continuous
 62
   144
370
    18
100
AcDbLine
 10
36.4214830805
 20
23.0916472381
 30
0.0
 11
36.4548347241
 21
23.0628220692
 31
0.0
  0
LINE
  5
116
330
1F
100
AcDbEntity
  8
0
  6
Continuous
 62
   144
370
    18
100
AcDbLine
 10
36.4548347241
 20
23.0628220692
 30
0.0
 11
36.4438288588
 21
23.1185520189
 31
0.0
  0
LINE
  5
117
330
1F
100
AcDbEntity
  8
0
  6
Continuous
 62
   144
370
    18
100
AcDbLine
 10
38.2637672432
 20
22.952762735
 30
0.0
 11
38.2351083068
 21
22.9259090176
 31
0.0
  0
LINE
  5
118
330
1F
100
AcDbEntity
  8
0
  6
Continuous
 62
   144
370
    18
100
AcDbLine
 10
38.260237002
 20
23.0087325186
 30
0.0
 11
38.2637672432
 21
22.952762735
 31
0.0
  0
LINE
  5
119
330
1F
100
AcDbEntity
  8
0
  6
Continuous
 62
   144
370
    18
100
AcDbLine
 10
38.2602487139
 20
23.0087094035
 30
0.0
 11
38.23163442
 21
22.9801227569
 31
0.0
  0
LINE
  5
11A
330
1F
100
AcDbEntity
  8
0
  6
Continuous
 62
   144
370
    18
100
AcDbLine
 10
38.23163442
 20
22.9801227569
 30
0.0
 11
38.2351083068
 21
22.9259090176
 31
0.0
  0
LINE
  5
11B
330
1F
100
AcDbEntity
  8
0
  6
Continuous
 62
     7
370
    25
100
AcDbLine
 10
38.2351083068
 20
22.9259090176
 30
0.0
 11
38.2166466423
 21
22.952762735
 31
0.0
  0
LINE
  5
11C
330
1F
100
AcDbEntity
  8
0
  6
Continuous
 62
   144
370
    18
100
AcDbLine
 10
38.2132900032
 20
23.0087325186
 30
0.0
 11
38.2166466423
 21
22.952762735
 31
0.0
  0
LINE
  5
11D
330
1F
100
AcDbEntity
  8
0
  6
Continuous
 62
   144
370
    18
100
AcDbLine
 10
38.23163442
 20
22.9801227569
 30
0.0
 11
38.2132857819
 21
23.0087094035
 31
0.0
  0
LINE
  5
11E
330
1F
100
AcDbEntity
  8
0
  6
Continuous
 62
   144
370
    18
100
AcDbLine
 10
38.2166466423
 20
22.952762735
 30
0.0
 11
38.2049493557
 21
22.8970620137
 31
0.0
  0
LINE
  5
11F
330
1F
100
AcDbEntity
  8
0
  6
Continuous
 62
     7
370
    25
100
AcDbLine
 10
36.2752891001
 20
22.952762735
 30
0.0
 11
36.279084827
 21
23.0087325186
 31
0.0
  0
LINE
  5
120
330
1F
100
AcDbEntity
  8
0
  6
Continuous
 62
   144
370
    18
100
AcDbLine
 10
36.2726548029
 20
22.9801227569
 30
0.0
 11
36.2687801857
 21
22.9259090176
 31
0.0
  0
LINE
  5
121
330
1F
100
AcDbEntity
  8
0
  6
Continuous
 62
   144
370
    18
100
AcDbLine
 10
36.2752891001
 20
22.952762735
 30
0.0
 11
36.2687801857
 21
22.9259090176
 31
0.0
  0
LINE
  5
122
330
1F
100
AcDbEntity
  8
0
  6
Continuous
 62
   144
370
    18
100
AcDbLine
 10
36.2969376437
 20
22.9259090176
 30
0.0
 11
36.2752891001
 21
22.952762735
 31
0.0
  0
LINE
  5
123
330
1F
100
AcDbEntity
  8
0
  6
Continuous
 62
   144
370
    18
100
AcDbLine
 10
36.3007070316
 20
22.9801227569
 30
0.0
 11
36.2790753136
 21
23.0087094035
 31
0.0
  0
LINE
  5
124
330
1F
100
AcDbEntity
  8
0
  6
Continuous
 62
   144
370
    18
100
AcDbLine
 10
36.3075214887
 20
22.952762735
 30
0.0
 11
36.3111984648
 21
23.0087325186
 31
0.0
  0
LINE
  5
125
330
1F
100
AcDbEntity
  8
0
  6
Continuous
 62
   144
370
    18
100
AcDbLine
 10
36.3075214887
 20
22.952762735
 30
0.0
 11
36.2969376437
 21
22.9259090176
 31
0.0
  0
LINE
  5
126
330
1F
100
AcDbEntity
  8
0
  6
Continuous
 62
   144
370
    18
100
AcDbLine
 10
37.1643161761
 20
23.1745231409
 30
0.0
 11
37.118839601
 21
23.1457044506
 31
0.0
  0
LINE
  5
127
330
1F
100
AcDbEntity
  8
0
  6
Continuous
 62
   144
370
    18
100
AcDbLine
 10
37.1637826266
 20
23.1185520189
 30
0.0
 11
37.1643011554
 21
23.1745463186
 31
0.0
  0
LINE
  5
128
330
1F
100
AcDbEntity
  8
0
  6
Continuous
 62
   144
370
    18
100
AcDbLine
 10
36.4833232249
 20
22.9259090176
 30
0.0
 11
36.4595279635
 21
22.8970620137
 31
0.0
  0
LINE
  5
129
330
1F
100
AcDbEntity
  8
0
  6
Continuous
 62
   144
370
    18
100
AcDbLine
 10
36.4595279635
 20
22.8970620137
 30
0.0
 11
36.4485246725
 21
22.952762735
 31
0.0
  0
LINE
  5
12A
330
1F
100
AcDbEntity
  8
0
  6
Continuous
 62
   144
370
    18
100
AcDbLine
 10
36.4833232249
 20
22.9259090176
 30
0.0
 11
36.4485246725
 21
22.952762735
 31
0.0
  0
LINE
  5
12B
330
1F
100
AcDbEntity
  8
0
  6
Continuous
 62
   144
370
    18
100
AcDbLine
 10
37.2587847216
 20
23.0628220692
 30
0.0
 11
37.2586453642
 21
23.0087563395
 31
0.0
  0
LINE
  5
12C
330
1F
100
AcDbEntity
  8
0
  6
Continuous
 62
   144
370
    18
100
AcDbLine
 10
37.1198693681
 20
22.9801227569
 30
0.0
 11
37.0725907111
 21
23.0087094035
 31
0.0
  0
LINE
  5
12D
330
1F
100
AcDbEntity
  8
0
  6
Continuous
 62
   144
370
    18
100
AcDbLine
 10
37.165074385
 20
23.0086997667
 30
0.0
 11
37.1174580728
 21
23.0357325725
 31
0.0
  0
LINE
  5
12E
330
1F
100
AcDbEntity
  8
0
  6
Continuous
 62
   144
370
    18
100
AcDbLine
 10
37.6292042613
 20
23.0087325186
 30
0.0
 11
37.6304010494
 21
22.952762735
 31
0.0
  0
LINE
  5
12F
330
1F
100
AcDbEntity
  8
0
  6
Continuous
 62
   144
370
    18
100
AcDbLine
 10
37.5833622784
 20
22.9259090176
 30
0.0
 11
37.5393710394
 21
22.952762735
 31
0.0
  0
LINE
  5
130
330
1F
100
AcDbEntity
  8
0
  6
Continuous
 62
   144
370
    18
100
AcDbLine
 10
36.2696441032
 20
23.1185520189
 30
0.0
 11
36.2913888583
 21
23.0916472381
 31
0.0
  0
LINE
  5
131
330
1F
100
AcDbEntity
  8
0
  6
Continuous
 62
   144
370
    18
100
AcDbLine
 10
36.2951344739
 20
23.1457044506
 30
0.0
 11
36.2734233006
 21
23.1745231409
 31
0.0
  0
LINE
  5
132
330
1F
100
AcDbEntity
  8
0
  6
Continuous
 62
   144
370
    18
100
AcDbLine
 10
38.0687081103
 20
23.0916472381
 30
0.0
 11
38.0658895821
 21
23.1457044506
 31
0.0
  0
LINE
  5
133
330
1F
100
AcDbEntity
  8
0
  6
Continuous
 62
   144
370
    18
100
AcDbLine
 10
38.0393752209
 20
23.1185520189
 30
0.0
 11
38.0687081103
 21
23.0916472381
 31
0.0
  0
LINE
  5
134
330
1F
100
AcDbEntity
  8
0
  6
Continuous
 62
   144
370
    18
100
AcDbLine
 10
37.4919439759
 20
22.9259090176
 30
0.0
 11
37.446561574
 21
22.952762735
 31
0.0
  0
LINE
  5
135
330
1F
100
AcDbEntity
  8
0
  6
Continuous
 62
   144
370
    18
100
AcDbLine
 10
37.4472065724
 20
23.2575525647
 30
0.0
 11
37.4462969066
 21
23.2286342994
 31
0.0
  0
LINE
  5
136
330
1F
100
AcDbEntity
  8
0
  6
Continuous
 62
   144
370
    18
100
AcDbLine
 10
37.6376004237
 20
23.1783758086
 30
0.0
 11
37.6780703403
 21
23.2015629679
 31
0.0
  0
LINE
  5
137
330
1F
100
AcDbEntity
  8
0
  6
Continuous
 62
   144
370
    18
100
AcDbLine
 10
37.6780703403
 20
23.2015629679
 30
0.0
 11
37.6767203284
 21
23.2575381358
 31
0.0
  0
LINE
  5
138
330
1F
100
AcDbEntity
  8
0
  6
Continuous
 62
   144
370
    18
100
AcDbLine
 10
38.3808373729
 20
23.0087563395
 30
0.0
 11
38.3887849755
 21
23.0357325725
 31
0.0
  0
LINE
  5
139
330
1F
100
AcDbEntity
  8
0
  6
Continuous
 62
   144
370
    18
100
AcDbLine
 10
38.3887849755
 20
23.0357325725
 30
0.0
 11
38.3848150726
 21
23.0916472381
 31
0.0
  0
LINE
  5
13A
330
1F
100
AcDbEntity
  8
0
  6
Continuous
 62
   144
370
    18
100
AcDbLine
 10
38.2681504292
 20
23.2575525648
 30
0.0
 11
38.2619686547
 21
23.2286342994
 31
0.0
  0
LINE
  5
13B
330
1F
100
AcDbEntity
  8
0
  6
Continuous
 62
     7
370
    25
100
AcDbLine
 10
37.3055583946
 20
22.9259090176
 30
0.0
 11
37.3520740284
 21
22.8970620137
 31
0.0
  0
LINE
  5
13C
330
1F
100
AcDbEntity
  8
0
  6
Continuous
 62
   144
370
    18
100
AcDbLine
 10
37.3520740284
 20
22.8970620137
 30
0.0
 11
37.3526790008
 21
22.952762735
 31
0.0
  0
LINE
  5
13D
330
1F
100
AcDbEntity
  8
0
  6
Continuous
 62
   144
370
    18
100
AcDbLine
 10
37.3055583946
 20
22.8699403789
 30
0.0
 11
37.3055583946
 21
22.9259090176
 31
0.0
  0
LINE
  5
13E
330
1F
100
AcDbEntity
  8
0
  6
Continuous
 62
   144
370
    18
100
AcDbLine
 10
37.3522300922
 20
22.8484179678
 30
0.0
 11
37.3520740284
 21
22.8970620137
 31
0.0
  0
LINE
  5
13F
330
1F
100
AcDbEntity
  8
0
  6
Continuous
 62
   144
370
    18
100
AcDbLine
 10
37.9980378728
 20
22.8699403789
 30
0.0
 11
37.9954956222
 21
22.9259090176
 31
0.0
  0
LINE
  5
140
330
1F
100
AcDbEntity
  8
0
  6
Continuous
 62
   144
370
    18
100
AcDbLine
 10
38.0260064555
 20
22.8970620137
 30
0.0
 11
38.0284236208
 21
22.8484179711
 31
0.0
  0
LINE
  5
141
330
1F
100
AcDbEntity
  8
0
  6
Continuous
 62
   144
370
    18
100
AcDbLine
 10
37.9954956222
 20
22.9259090176
 30
0.0
 11
38.0260064555
 21
22.8970620137
 31
0.0
  0
LINE
  5
142
330
1F
100
AcDbEntity
  8
0
  6
Continuous
 62
   144
370
    18
100
AcDbLine
 10
36.2649599106
 20
22.8699403789
 30
0.0
 11
36.2687801857
 21
22.9259090176
 31
0.0
  0
LINE
  5
143
330
1F
100
AcDbEntity
  8
0
  6
Continuous
 62
   144
370
    18
100
AcDbLine
 10
36.2644382689
 20
22.8970620137
 30
0.0
 11
36.2687801857
 21
22.9259090176
 31
0.0
  0
LINE
  5
144
330
1F
100
AcDbEntity
  8
0
  6
Continuous
 62
   144
370
    18
100
AcDbLine
 10
37.4455234262
 20
23.0628220692
 30
0.0
 11
37.4460099092
 21
23.0087563395
 31
0.0
  0
LINE
  5
145
330
1F
100
AcDbEntity
  8
0
  6
Continuous
 62
     7
370
    25
100
AcDbLine
 10
37.4460099092
 20
23.0087563395
 30
0.0
 11
37.4936587164
 21
23.0357325725
 31
0.0
  0
LINE
  5
146
330
1F
100
AcDbEntity
  8
0
  6
Continuous
 62
   144
370
    18
100
AcDbLine
 10
37.1655933743
 20
23.0628220692
 30
0.0
 11
37.1181474392
 21
23.0916472381
 31
0.0
  0
LINE
  5
147
330
1F
100
AcDbEntity
  8
0
  6
Continuous
 62
   144
370
    18
100
AcDbLine
 10
37.1655933743
 20
23.0628220692
 30
0.0
 11
37.163782638
 21
23.1185520189
 31
0.0
  0
LINE
  5
148
330
1F
100
AcDbEntity
  8
0
  6
Continuous
 62
   144
370
    18
100
AcDbLine
 10
37.629190779
 20
23.0087094035
 30
0.0
 11
37.6712943806
 21
22.9801227569
 31
0.0
  0
LINE
  5
149
330
1F
100
AcDbEntity
  8
0
  6
Continuous
 62
   144
370
    18
100
AcDbLine
 10
37.6292042722
 20
23.0087325186
 30
0.0
 11
37.6304010603
 21
22.952762735
 31
0.0
  0
LINE
  5
14A
330
1F
100
AcDbEntity
  8
0
  6
Continuous
 62
   144
370
    18
100
AcDbLine
 10
37.6304010603
 20
22.952762735
 30
0.0
 11
37.6726663256
 21
22.9259090176
 31
0.0
  0
LINE
  5
14B
330
1F
100
AcDbEntity
  8
0
  6
Continuous
 62
   144
370
    18
100
AcDbLine
 10
37.6309727662
 20
23.1745231409
 30
0.0
 11
37.6733226257
 21
23.1457044506
 31
0.0
  0
LINE
  5
14C
330
1F
100
AcDbEntity
  8
0
  6
Continuous
 62
   144
370
    18
100
AcDbLine
 10
37.632180921
 20
23.1185520189
 30
0.0
 11
37.6746859183
 21
23.0916472381
 31
0.0
  0
LINE
  5
14D
330
1F
100
AcDbEntity
  8
0
  6
Continuous
 62
   144
370
    18
100
AcDbLine
 10
37.0246866999
 20
23.2575381358
 30
0.0
 11
36.9813254798
 21
23.2286342994
 31
0.0
  0
LINE
  5
14E
330
1F
100
AcDbEntity
  8
0
  6
Continuous
 62
   144
370
    18
100
AcDbLine
 10
36.9813254798
 20
23.2286342994
 30
0.0
 11
36.9792297947
 21
23.2575525648
 31
0.0
  0
LINE
  5
14F
330
1F
100
AcDbEntity
  8
0
  6
Continuous
 62
   144
370
    18
100
AcDbLine
 10
37.7189588104
 20
22.9527627333
 30
0.0
 11
37.7136512423
 21
22.8970620151
 31
0.0
  0
LINE
  5
150
330
1F
100
AcDbEntity
  8
0
  6
Continuous
 62
   144
370
    18
100
AcDbLine
 10
36.9848863322
 20
22.8970620137
 30
0.0
 11
36.9807157398
 21
22.952762735
 31
0.0
  0
LINE
  5
151
330
1F
100
AcDbEntity
  8
0
  6
Continuous
 62
   144
370
    18
100
AcDbLine
 10
37.8052690751
 20
23.1745463186
 30
0.0
 11
37.8071034192
 21
23.1185520189
 31
0.0
  0
LINE
  5
152
330
1F
100
AcDbEntity
  8
0
  6
Continuous
 62
   144
370
    18
100
AcDbLine
 10
36.8058087627
 20
23.1745703054
 30
0.0
 11
36.8076827301
 21
23.2286342994
 31
0.0
  0
LINE
  5
153
330
1F
100
AcDbEntity
  8
0
  6
Continuous
 62
   144
370
    18
100
AcDbLine
 10
36.8058087627
 20
23.1745703054
 30
0.0
 11
36.8452623749
 21
23.2015472624
 31
0.0
  0
LINE
  5
154
330
1F
100
AcDbEntity
  8
0
  6
Continuous
 62
   144
370
    18
100
AcDbLine
 10
36.8469309881
 20
23.2575381358
 30
0.0
 11
36.8076827301
 21
23.2286342994
 31
0.0
  0
LINE
  5
155
330
1F
100
AcDbEntity
  8
0
  6
Continuous
 62
   144
370
    18
100
AcDbLine
 10
36.6888084715
 20
23.1457044506
 30
0.0
 11
36.7240960399
 21
23.1745231409
 31
0.0
  0
LINE
  5
156
330
1F
100
AcDbEntity
  8
0
  6
Continuous
 62
   144
370
    18
100
AcDbLine
 10
36.6118255743
 20
23.0916472381
 30
0.0
 11
36.6143877263
 21
23.1457044506
 31
0.0
  0
LINE
  5
157
330
1F
100
AcDbEntity
  8
0
  6
Continuous
 62
   144
370
    18
100
AcDbLine
 10
36.5744103718
 20
23.1745231409
 30
0.0
 11
36.6143877263
 21
23.1457044506
 31
0.0
  0
LINE
  5
158
330
1F
100
AcDbEntity
  8
0
  6
Continuous
 62
   144
370
    18
100
AcDbLine
 10
36.646765317
 20
23.1745703054
 30
0.0
 11
36.6054649416
 21
23.2015629679
 31
0.0
  0
LINE
  5
159
330
1F
100
AcDbEntity
  8
0
  6
Continuous
 62
   144
370
    18
100
AcDbLine
 10
36.6491676805
 20
23.2286342994
 30
0.0
 11
36.6080021339
 21
23.2575381358
 31
0.0
  0
LINE
  5
15A
330
1F
100
AcDbEntity
  8
0
  6
Continuous
 62
   144
370
    18
100
AcDbLine
 10
38.1063789439
 20
23.1185520189
 30
0.0
 11
38.0961509979
 21
23.0628220692
 31
0.0
  0
LINE
  5
15B
330
1F
100
AcDbEntity
  8
0
  6
Continuous
 62
   144
370
    18
100
AcDbLine
 10
38.1323169755
 20
23.0916472381
 30
0.0
 11
38.0961509979
 21
23.0628220692
 31
0.0
  0
LINE
  5
15C
330
1F
100
AcDbEntity
  8
0
  6
Continuous
 62
   144
370
    18
100
AcDbLine
 10
36.5047378531
 20
23.1185520189
 30
0.0
 11
36.5076667636
 21
23.1745463186
 31
0.0
  0
LINE
  5
15D
330
1F
100
AcDbEntity
  8
0
  6
Continuous
 62
     7
370
    25
100
AcDbLine
 10
38.3602191033
 20
22.9527627333
 30
0.0
 11
38.3466785182
 21
22.8970620151
 31
0.0
  0
LINE
  5
15E
330
1F
100
AcDbEntity
  8
0
  6
Continuous
 62
   144
370
    18
100
AcDbLine
 10
36.6503178979
 20
23.0087563395
 30
0.0
 11
36.6527751611
 21
23.0628220692
 31
0.0
  0
LINE
  5
15F
330
1F
100
AcDbEntity
  8
0
  6
Continuous
 62
   144
370
    18
100
AcDbLine
 10
36.6527751611
 20
23.0628220692
 30
0.0
 11
36.6865221953
 21
23.0916472381
 31
0.0
  0
LINE
  5
160
330
1F
100
AcDbEntity
  8
0
  6
Continuous
 62
   144
370
    18
100
AcDbLine
 10
37.118839601
 20
23.1457044506
 30
0.0
 11
37.0713079507
 21
23.1745231409
 31
0.0
  0
LINE
  5
161
330
1F
100
AcDbEntity
  8
0
  6
Continuous
 62
   144
370
    18
100
AcDbLine
 10
37.0236650969
 20
23.2015629679
 30
0.0
 11
37.0246866999
 21
23.2575381358
 31
0.0
  0
LINE
  5
162
330
1F
100
AcDbEntity
  8
0
  6
Continuous
 62
   144
370
    18
100
AcDbLine
 10
36.9800920048
 20
23.1745703054
 30
0.0
 11
37.0236650969
 21
23.2015629679
 31
0.0
  0
LINE
  5
163
330
1F
100
AcDbEntity
  8
0
  6
Continuous
 62
   144
370
    18
100
AcDbLine
 10
36.9800920048
 20
23.1745703054
 30
0.0
 11
36.9813254689
 21
23.2286342994
 31
0.0
  0
LINE
  5
164
330
1F
100
AcDbEntity
  8
0
  6
Continuous
 62
   144
370
    18
100
AcDbLine
 10
36.9813254689
 20
23.2286342994
 30
0.0
 11
37.0246866999
 21
23.2575381358
 31
0.0
  0
LINE
  5
165
330
1F
100
AcDbEntity
  8
0
  6
Continuous
 62
   144
370
    18
100
AcDbLine
 10
36.8914385271
 20
23.1745703054
 30
0.0
 11
36.8929339338
 21
23.2286342994
 31
0.0
  0
LINE
  5
166
330
1F
100
AcDbEntity
  8
0
  6
Continuous
 62
   144
370
    18
100
AcDbLine
 10
36.8914385271
 20
23.1745703054
 30
0.0
 11
36.8452623749
 21
23.2015472624
 31
0.0
  0
LINE
  5
167
330
1F
100
AcDbEntity
  8
0
  6
Continuous
 62
   144
370
    18
100
AcDbLine
 10
36.8452623749
 20
23.2015472624
 30
0.0
 11
36.8469314211
 21
23.2575525648
 31
0.0
  0
LINE
  5
168
330
1F
100
AcDbEntity
  8
0
  6
Continuous
 62
   144
370
    18
100
AcDbLine
 10
37.1648198713
 20
23.2286342994
 30
0.0
 11
37.2109765559
 21
23.2575381358
 31
0.0
  0
LINE
  5
169
330
1F
100
AcDbEntity
  8
0
  6
Continuous
 62
   144
370
    18
100
AcDbLine
 10
37.1642643885
 20
23.1745703054
 30
0.0
 11
37.1648198713
 21
23.2286342994
 31
0.0
  0
LINE
  5
16A
330
1F
100
AcDbEntity
  8
0
  6
Continuous
 62
   144
370
    18
100
AcDbLine
 10
37.1642643885
 20
23.1745703054
 30
0.0
 11
37.2106325373
 21
23.2015629679
 31
0.0
  0
LINE
  5
16B
330
1F
100
AcDbEntity
  8
0
  6
Continuous
 62
     7
370
    25
100
AcDbLine
 10
37.2106324411
 20
23.2015472624
 30
0.0
 11
37.2109766452
 21
23.2575525648
 31
0.0
  0
LINE
  5
16C
330
1F
100
AcDbEntity
  8
0
  6
Continuous
 62
   144
370
    18
100
AcDbLine
 10
37.2583868586
 20
23.1745703054
 30
0.0
 11
37.2106324411
 21
23.2015472624
 31
0.0
  0
LINE
  5
16D
330
1F
100
AcDbEntity
  8
0
  6
Continuous
 62
   144
370
    18
100
AcDbLine
 10
37.2109765559
 20
23.2575381358
 30
0.0
 11
37.2585262353
 21
23.2286342994
 31
0.0
  0
LINE
  5
16E
330
1F
100
AcDbEntity
  8
0
  6
Continuous
 62
   144
370
    18
100
AcDbLine
 10
37.4001402333
 20
23.2575381358
 30
0.0
 11
37.4462969066
 21
23.2286342994
 31
0.0
  0
LINE
  5
16F
330
1F
100
AcDbEntity
  8
0
  6
Continuous
 62
   144
370
    18
100
AcDbLine
 10
37.4004843482
 20
23.2015472624
 30
0.0
 11
37.400140144
 21
23.2575525648
 31
0.0
  0
LINE
  5
170
330
1F
100
AcDbEntity
  8
0
  6
Continuous
 62
   144
370
    18
100
AcDbLine
 10
37.4468523893
 20
23.1745703054
 30
0.0
 11
37.4004843482
 21
23.2015472624
 31
0.0
  0
LINE
  5
171
330
1F
100
AcDbEntity
  8
0
  6
Continuous
 62
   144
370
    18
100
AcDbLine
 10
37.4462969066
 20
23.2286342994
 30
0.0
 11
37.4468523893
 21
23.1745703054
 31
0.0
  0
LINE
  5
172
330
1F
100
AcDbEntity
  8
0
  6
Continuous
 62
   144
370
    18
100
AcDbLine
 10
38.1005200586
 20
23.2286342994
 30
0.0
 11
38.1368735743
 21
23.2575381358
 31
0.0
  0
LINE
  5
173
330
1F
100
AcDbEntity
  8
0
  6
Continuous
 62
   144
370
    18
100
AcDbLine
 10
38.1005200586
 20
23.2286342994
 30
0.0
 11
38.1034395039
 21
23.1745703054
 31
0.0
  0
LINE
  5
174
330
1F
100
AcDbEntity
  8
0
  6
Continuous
 62
   144
370
    18
100
AcDbLine
 10
38.1034395039
 20
23.1745703054
 30
0.0
 11
38.1398972824
 21
23.2015629679
 31
0.0
  0
LINE
  5
175
330
1F
100
AcDbEntity
  8
0
  6
Continuous
 62
   144
370
    18
100
AcDbLine
 10
38.1398972824
 20
23.2015629679
 30
0.0
 11
38.1368735743
 21
23.2575381358
 31
0.0
  0
LINE
  5
176
330
1F
100
AcDbEntity
  8
0
  6
Continuous
 62
   144
370
    18
100
AcDbLine
 10
38.0056518476
 20
23.2015629679
 30
0.0
 11
38.0031146553
 21
23.2575381358
 31
0.0
  0
LINE
  5
177
330
1F
100
AcDbEntity
  8
0
  6
Continuous
 62
   144
370
    18
100
AcDbLine
 10
37.9643514722
 20
23.1745703054
 30
0.0
 11
38.0056518476
 21
23.2015629679
 31
0.0
  0
LINE
  5
178
330
1F
100
AcDbEntity
  8
0
  6
Continuous
 62
   144
370
    18
100
AcDbLine
 10
37.9619491087
 20
23.2286342994
 30
0.0
 11
37.9643514722
 21
23.1745703054
 31
0.0
  0
LINE
  5
179
330
1F
100
AcDbEntity
  8
0
  6
Continuous
 62
   144
370
    18
100
AcDbLine
 10
38.2453734023
 20
23.2575381358
 30
0.0
 11
38.2619686547
 21
23.2286342994
 31
0.0
  0
LINE
  5
17A
330
1F
100
AcDbEntity
  8
0
  6
Continuous
 62
   144
370
    18
100
AcDbLine
 10
38.2655253235
 20
23.1745703054
 30
0.0
 11
38.2487927089
 21
23.2015472624
 31
0.0
  0
LINE
  5
17B
330
1F
100
AcDbEntity
  8
0
  6
Continuous
 62
   144
370
    18
100
AcDbLine
 10
38.2619686547
 20
23.2286342994
 30
0.0
 11
38.2655253235
 21
23.1745703054
 31
0.0
  0
LINE
  5
17C
330
1F
100
AcDbEntity
  8
0
  6
Continuous
 62
   144
370
    18
100
AcDbLine
 10
38.2149365007
 20
23.2286342994
 30
0.0
 11
38.2183216841
 21
23.1745703054
 31
0.0
  0
LINE
  5
17D
330
1F
100
AcDbEntity
  8
0
  6
Continuous
 62
   144
370
    18
100
AcDbLine
 10
38.2183216841
 20
23.1745703054
 30
0.0
 11
38.1977404408
 21
23.2015472624
 31
0.0
  0
LINE
  5
17E
330
1F
100
AcDbEntity
  8
0
  6
Continuous
 62
   144
370
    18
100
AcDbLine
 10
38.1977404408
 20
23.2015472624
 30
0.0
 11
38.1945053639
 21
23.2575525648
 31
0.0
  0
LINE
  5
17F
330
1F
100
AcDbEntity
  8
0
  6
Continuous
 62
   144
370
    18
100
AcDbLine
 10
38.1945062031
 20
23.2575381358
 30
0.0
 11
38.2149365007
 21
23.2286342994
 31
0.0
  0
LINE
  5
180
330
1F
100
AcDbEntity
  8
0
  6
Continuous
 62
   144
370
    18
100
AcDbLine
 10
38.3635838227
 20
23.2382664694
 30
0.0
 11
38.3742765891
 21
23.2575381358
 31
0.0
  0
LINE
  5
181
330
1F
100
AcDbEntity
  8
0
  6
Continuous
 62
   144
370
    18
100
AcDbLine
 10
38.3608613385
 20
23.1921902259
 30
0.0
 11
38.3621289542
 21
23.1745703054
 31
0.0
  0
LINE
  5
182
330
1F
100
AcDbEntity
  8
0
  6
Continuous
 62
   144
370
    18
100
AcDbLine
 10
38.3621289542
 20
23.1745703054
 30
0.0
 11
38.3781637933
 21
23.2015629679
 31
0.0
  0
LINE
  5
183
330
1F
100
AcDbEntity
  8
0
  6
Continuous
 62
     7
370
    25
100
AcDbLine
 10
38.3905670085
 20
23.2015472624
 30
0.0
 11
38.3866327371
 21
23.2575525648
 31
0.0
  0
LINE
  5
184
330
1F
100
AcDbEntity
  8
0
  6
Continuous
 62
   144
370
    18
100
AcDbLine
 10
38.3866337577
 20
23.2575381358
 30
0.0
 11
38.3827718131
 21
23.2286342994
 31
0.0
  0
LINE
  5
185
330
1F
100
AcDbEntity
  8
0
  6
Continuous
 62
   144
370
    18
100
AcDbLine
 10
38.374573568
 20
23.2286342994
 30
0.0
 11
38.3785265058
 21
23.1745703054
 31
0.0
  0
LINE
  5
186
330
1F
100
AcDbEntity
  8
0
  6
Continuous
 62
   144
370
    18
100
AcDbLine
 10
38.374573568
 20
23.2286342994
 30
0.0
 11
38.3866337577
 21
23.2575381358
 31
0.0
  0
LINE
  5
187
330
1F
100
AcDbEntity
  8
0
  6
Continuous
 62
   144
370
    18
100
AcDbLine
 10
38.3907108895
 20
23.1185520189
 30
0.0
 11
38.3821104352
 21
23.083968749
 31
0.0
  0
LINE
  5
188
330
1F
100
AcDbEntity
  8
0
  6
Continuous
 62
   144
370
    18
100
AcDbLine
 10
38.3815452843
 20
23.0798118162
 30
0.0
 11
38.3848150726
 21
23.0916472381
 31
0.0
  0
LINE
  5
189
330
1F
100
AcDbEntity
  8
0
  6
Continuous
 62
   144
370
    18
100
AcDbLine
 10
38.3907108895
 20
23.1185520189
 30
0.0
 11
38.3848150726
 21
23.0916472381
 31
0.0
  0
LINE
  5
18A
330
1F
100
AcDbEntity
  8
0
  6
Continuous
 62
   144
370
    18
100
AcDbLine
 10
36.2263017166
 20
23.0916472381
 30
0.0
 11
36.2295715048
 21
23.0798118156
 31
0.0
  0
LINE
  5
18B
330
1F
100
AcDbEntity
  8
0
  6
Continuous
 62
   144
370
    18
100
AcDbLine
 10
36.2263017166
 20
23.0916472381
 30
0.0
 11
36.2223318138
 21
23.0357325725
 31
0.0
  0
LINE
  5
18C
330
1F
100
AcDbEntity
  8
0
  6
Continuous
 62
   144
370
    18
100
AcDbLine
 10
38.3897344015
 20
23.2575525648
 30
0.0
 11
38.3866377248
 21
23.2575525648
 31
0.0
  0
LINE
  5
18D
330
1F
100
AcDbEntity
  8
0
  6
Continuous
 62
   144
370
    18
100
AcDbLine
 10
38.3866377248
 20
23.2575525648
 30
0.0
 11
38.3814831679
 21
23.2575525648
 31
0.0
  0
LINE
  5
18E
330
1F
100
AcDbEntity
  8
0
  6
Continuous
 62
   144
370
    18
100
AcDbLine
 10
38.3814831679
 20
23.2575525648
 30
0.0
 11
38.3742805182
 21
23.2575525648
 31
0.0
  0
LINE
  5
18F
330
1F
100
AcDbEntity
  8
0
  6
Continuous
 62
   144
370
    18
100
AcDbLine
 10
38.3742805182
 20
23.2575525648
 30
0.0
 11
38.3650434972
 21
23.2575525648
 31
0.0
  0
LINE
  5
190
330
1F
100
AcDbEntity
  8
0
  6
Continuous
 62
   144
370
    18
100
AcDbLine
 10
38.3650434972
 20
23.2575525648
 30
0.0
 11
38.3537896835
 21
23.2575525648
 31
0.0
  0
LINE
  5
191
330
1F
100
AcDbEntity
  8
0
  6
Continuous
 62
   144
370
    18
100
AcDbLine
 10
38.3537896835
 20
23.2575525648
 30
0.0
 11
38.3405405051
 21
23.2575525648
 31
0.0
  0
LINE
  5
192
330
1F
100
AcDbEntity
  8
0
  6
Continuous
 62
   144
370
    18
100
AcDbLine
 10
38.3405405051
 20
23.2575525648
 30
0.0
 11
38.3253211758
 21
23.2575525648
 31
0.0
  0
LINE
  5
193
330
1F
100
AcDbEntity
  8
0
  6
Continuous
 62
   144
370
    18
100
AcDbLine
 10
38.3253211758
 20
23.2575525648
 30
0.0
 11
38.3081606742
 21
23.2575525648
 31
0.0
  0
LINE
  5
194
330
1F
100
AcDbEntity
  8
0
  6
Continuous
 62
   144
370
    18
100
AcDbLine
 10
38.3081606742
 20
23.2575525648
 30
0.0
 11
38.2890916576
 21
23.2575525648
 31
0.0
  0
LINE
  5
195
330
1F
100
AcDbEntity
  8
0
  6
Continuous
 62
     7
370
    25
100
AcDbLine
 10
38.2890916576
 20
23.2575525648
 30
0.0
 11
38.2681504345
 21
23.2575525648
 31
0.0
  0
LINE
  5
196
330
1F
100
AcDbEntity
  8
0
  6
Continuous
 62
   144
370
    18
100
AcDbLine
 10
38.2681504345
 20
23.2575525648
 30
0.0
 11
38.2453768574
 21
23.2575525648
 31
0.0
  0
LINE
  5
197
330
1F
100
AcDbEntity
  8
0
  6
Continuous
 62
   144
370
    18
100
AcDbLine
 10
38.2453768574
 20
23.2575525648
 30
0.0
 11
38.2208142882
 21
23.2575525648
 31
0.0
  0
LINE
  5
198
330
1F
100
AcDbEntity
  8
0
  6
Continuous
 62
   144
370
    18
100
AcDbLine
 10
38.2208142882
 20
23.2575525648
 30
0.0
 11
38.1945094712
 21
23.2575525648
 31
0.0
  0
LINE
  5
199
330
1F
100
AcDbEntity
  8
0
  6
Continuous
 62
   144
370
    18
100
AcDbLine
 10
38.1945094712
 20
23.2575525648
 30
0.0
 11
38.1665124919
 21
23.2575525648
 31
0.0
  0
LINE
  5
19A
330
1F
100
AcDbEntity
  8
0
  6
Continuous
 62
   144
370
    18
100
AcDbLine
 10
38.1665124919
 20
23.2575525648
 30
0.0
 11
38.1368766306
 21
23.2575525648
 31
0.0
  0
LINE
  5
19B
330
1F
100
AcDbEntity
  8
0
  6
Continuous
 62
   144
370
    18
100
AcDbLine
 10
38.1368766306
 20
23.2575525648
 30
0.0
 11
38.1056583151
 21
23.2575525648
 31
0.0
  0
LINE
  5
19C
330
1F
100
AcDbEntity
  8
0
  6
Continuous
 62
   144
370
    18
100
AcDbLine
 10
38.1056583151
 20
23.2575525648
 30
0.0
 11
38.0729169562
 21
23.2575525648
 31
0.0
  0
LINE
  5
19D
330
1F
100
AcDbEntity
  8
0
  6
Continuous
 62
   144
370
    18
100
AcDbLine
 10
38.0729169562
 20
23.2575525648
 30
0.0
 11
38.0387148948
 21
23.2575525648
 31
0.0
  0
LINE
  5
19E
330
1F
100
AcDbEntity
  8
0
  6
Continuous
 62
   144
370
    18
100
AcDbLine
 10
38.0387148948
 20
23.2575525648
 30
0.0
 11
38.0031172198
 21
23.2575525648
 31
0.0
  0
LINE
  5
19F
330
1F
100
AcDbEntity
  8
0
  6
Continuous
 62
     7
370
    25
100
AcDbLine
 10
38.0031172198
 20
23.2575525648
 30
0.0
 11
37.9661917108
 21
23.2575525648
 31
0.0
  0
LINE
  5
1A0
330
1F
100
AcDbEntity
  8
0
  6
Continuous
 62
   144
370
    18
100
AcDbLine
 10
37.9661917108
 20
23.2575525648
 30
0.0
 11
37.9280086396
 21
23.2575525648
 31
0.0
  0
LINE
  5
1A1
330
1F
100
AcDbEntity
  8
0
  6
Continuous
 62
   144
370
    18
100
AcDbLine
 10
37.9280086396
 20
23.2575525648
 30
0.0
 11
37.8886407083
 21
23.2575525648
 31
0.0
  0
LINE
  5
1A2
330
1F
100
AcDbEntity
  8
0
  6
Continuous
 62
   144
370
    18
100
AcDbLine
 10
37.8886407083
 20
23.2575525648
 30
0.0
 11
37.8481628371
 21
23.2575525648
 31
0.0
  0
LINE
  5
1A3
330
1F
100
AcDbEntity
  8
0
  6
Continuous
 62
   144
370
    18
100
AcDbLine
 10
37.8481628371
 20
23.2575525648
 30
0.0
 11
37.8066520974
 21
23.2575525648
 31
0.0
  0
LINE
  5
1A4
330
1F
100
AcDbEntity
  8
0
  6
Continuous
 62
   144
370
    18
100
AcDbLine
 10
37.8066520974
 20
23.2575525648
 30
0.0
 11
37.7641874872
 21
23.2575525648
 31
0.0
  0
LINE
  5
1A5
330
1F
100
AcDbEntity
  8
0
  6
Continuous
 62
   144
370
    18
100
AcDbLine
 10
37.7641874872
 20
23.2575525648
 30
0.0
 11
37.7208498609
 21
23.2575525648
 31
0.0
  0
LINE
  5
1A6
330
1F
100
AcDbEntity
  8
0
  6
Continuous
 62
   144
370
    18
100
AcDbLine
 10
37.7208498609
 20
23.2575525648
 30
0.0
 11
37.676721693
 21
23.2575525648
 31
0.0
  0
LINE
  5
1A7
330
1F
100
AcDbEntity
  8
0
  6
Continuous
 62
   144
370
    18
100
AcDbLine
 10
37.676721693
 20
23.2575525648
 30
0.0
 11
37.6318870055
 21
23.2575525648
 31
0.0
  0
LINE
  5
1A8
330
1F
100
AcDbEntity
  8
0
  6
Continuous
 62
   144
370
    18
100
AcDbLine
 10
37.6318870055
 20
23.2575525648
 30
0.0
 11
37.586431122
 21
23.2575525648
 31
0.0
  0
LINE
  5
1A9
330
1F
100
AcDbEntity
  8
0
  6
Continuous
 62
   144
370
    18
100
AcDbLine
 10
37.586431122
 20
23.2575525648
 30
0.0
 11
37.5404405923
 21
23.2575525648
 31
0.0
  0
LINE
  5
1AA
330
1F
100
AcDbEntity
  8
0
  6
Continuous
 62
   144
370
    18
100
AcDbLine
 10
37.5404405923
 20
23.2575525648
 30
0.0
 11
37.4940029399
 21
23.2575525648
 31
0.0
  0
LINE
  5
1AB
330
1F
100
AcDbEntity
  8
0
  6
Continuous
 62
   144
370
    18
100
AcDbLine
 10
37.4940029399
 20
23.2575525648
 30
0.0
 11
37.4472065838
 21
23.2575525648
 31
0.0
  0
LINE
  5
1AC
330
1F
100
AcDbEntity
  8
0
  6
Continuous
 62
   144
370
    18
100
AcDbLine
 10
37.4472065838
 20
23.2575525648
 30
0.0
 11
37.4001406647
 21
23.2575525648
 31
0.0
  0
LINE
  5
1AD
330
1F
100
AcDbEntity
  8
0
  6
Continuous
 62
   144
370
    18
100
AcDbLine
 10
37.4001406647
 20
23.2575525648
 30
0.0
 11
37.3528945471
 21
23.2575525648
 31
0.0
  0
LINE
  5
1AE
330
1F
100
AcDbEntity
  8
0
  6
Continuous
 62
   144
370
    18
100
AcDbLine
 10
37.3528945471
 20
23.2575525648
 30
0.0
 11
37.3055583946
 21
23.2575525648
 31
0.0
  0
LINE
  5
1AF
330
1F
100
AcDbEntity
  8
0
  6
Continuous
 62
   144
370
    18
100
AcDbLine
 10
37.3055583946
 20
23.2575525648
 30
0.0
 11
37.2582222536
 21
23.2575525648
 31
0.0
  0
LINE
  5
1B0
330
1F
100
AcDbEntity
  8
0
  6
Continuous
 62
   144
370
    18
100
AcDbLine
 10
37.2582222536
 20
23.2575525648
 30
0.0
 11
37.2109761245
 21
23.2575525648
 31
0.0
  0
LINE
  5
1B1
330
1F
100
AcDbEntity
  8
0
  6
Continuous
 62
   144
370
    18
100
AcDbLine
 10
37.2109761245
 20
23.2575525648
 30
0.0
 11
37.1639102168
 21
23.2575525648
 31
0.0
  0
LINE
  5
1B2
330
1F
100
AcDbEntity
  8
0
  6
Continuous
 62
     7
370
    25
100
AcDbLine
 10
37.1639102168
 20
23.2575525648
 30
0.0
 11
37.1171138493
 21
23.2575525648
 31
0.0
  0
LINE
  5
1B3
330
1F
100
AcDbEntity
  8
0
  6
Continuous
 62
   144
370
    18
100
AcDbLine
 10
37.1171138493
 20
23.2575525648
 30
0.0
 11
37.0706762081
 21
23.2575525648
 31
0.0
  0
LINE
  5
1B4
330
1F
100
AcDbEntity
  8
0
  6
Continuous
 62
   144
370
    18
100
AcDbLine
 10
37.0706762081
 20
23.2575525648
 30
0.0
 11
37.0246856673
 21
23.2575525648
 31
0.0
  0
LINE
  5
1B5
330
1F
100
AcDbEntity
  8
0
  6
Continuous
 62
   144
370
    18
100
AcDbLine
 10
37.0246856673
 20
23.2575525648
 30
0.0
 11
36.9792297947
 21
23.2575525648
 31
0.0
  0
LINE
  5
1B6
330
1F
100
AcDbEntity
  8
0
  6
Continuous
 62
   144
370
    18
100
AcDbLine
 10
36.9792297947
 20
23.2575525648
 30
0.0
 11
36.9343950962
 21
23.2575525648
 31
0.0
  0
LINE
  5
1B7
330
1F
100
AcDbEntity
  8
0
  6
Continuous
 62
   144
370
    18
100
AcDbLine
 10
36.9343950962
 20
23.2575525648
 30
0.0
 11
36.890266939
 21
23.2575525648
 31
0.0
  0
LINE
  5
1B8
330
1F
100
AcDbEntity
  8
0
  6
Continuous
 62
   144
370
    18
100
AcDbLine
 10
36.890266939
 20
23.2575525648
 30
0.0
 11
36.846929302
 21
23.2575525648
 31
0.0
  0
LINE
  5
1B9
330
1F
100
AcDbEntity
  8
0
  6
Continuous
 62
   144
370
    18
100
AcDbLine
 10
36.846929302
 20
23.2575525648
 30
0.0
 11
36.804464702
 21
23.2575525648
 31
0.0
  0
LINE
  5
1BA
330
1F
100
AcDbEntity
  8
0
  6
Continuous
 62
   144
370
    18
100
AcDbLine
 10
36.804464702
 20
23.2575525648
 30
0.0
 11
36.7629539521
 21
23.2575525648
 31
0.0
  0
LINE
  5
1BB
330
1F
100
AcDbEntity
  8
0
  6
Continuous
 62
   144
370
    18
100
AcDbLine
 10
36.7629539521
 20
23.2575525648
 30
0.0
 11
36.7224760906
 21
23.2575525648
 31
0.0
  0
LINE
  5
1BC
330
1F
100
AcDbEntity
  8
0
  6
Continuous
 62
     7
370
    25
100
AcDbLine
 10
36.7224760906
 20
23.2575525648
 30
0.0
 11
36.6831081497
 21
23.2575525648
 31
0.0
  0
LINE
  5
1BD
330
1F
100
AcDbEntity
  8
0
  6
Continuous
 62
   144
370
    18
100
AcDbLine
 10
36.6831081497
 20
23.2575525648
 30
0.0
 11
36.6449250876
 21
23.2575525648
 31
0.0
  0
LINE
  5
1BE
330
1F
100
AcDbEntity
  8
0
  6
Continuous
 62
   144
370
    18
100
AcDbLine
 10
36.6449250876
 20
23.2575525648
 30
0.0
 11
36.6079995694
 21
23.2575525648
 31
0.0
  0
LINE
  5
1BF
330
1F
100
AcDbEntity
  8
0
  6
Continuous
 62
   144
370
    18
100
AcDbLine
 10
36.6079995694
 20
23.2575525648
 30
0.0
 11
36.5724019029
 21
23.2575525648
 31
0.0
  0
LINE
  5
1C0
330
1F
100
AcDbEntity
  8
0
  6
Continuous
 62
   144
370
    18
100
AcDbLine
 10
36.5724019029
 20
23.2575525648
 30
0.0
 11
36.538199833
 21
23.2575525648
 31
0.0
  0
LINE
  5
1C1
330
1F
100
AcDbEntity
  8
0
  6
Continuous
 62
   144
370
    18
100
AcDbLine
 10
36.538199833
 20
23.2575525648
 30
0.0
 11
36.5054584819
 21
23.2575525648
 31
0.0
  0
LINE
  5
1C2
330
1F
100
AcDbEntity
  8
0
  6
Continuous
 62
   144
370
    18
100
AcDbLine
 10
36.5054584819
 20
23.2575525648
 30
0.0
 11
36.4742401586
 21
23.2575525648
 31
0.0
  0
LINE
  5
1C3
330
1F
100
AcDbEntity
  8
0
  6
Continuous
 62
   144
370
    18
100
AcDbLine
 10
36.4742401586
 20
23.2575525648
 30
0.0
 11
36.4446043043
 21
23.2575525648
 31
0.0
  0
LINE
  5
1C4
330
1F
100
AcDbEntity
  8
0
  6
Continuous
 62
   144
370
    18
100
AcDbLine
 10
36.4446043043
 20
23.2575525648
 30
0.0
 11
36.416607318
 21
23.2575525648
 31
0.0
  0
LINE
  5
1C5
330
1F
100
AcDbEntity
  8
0
  6
Continuous
 62
   144
370
    18
100
AcDbLine
 10
36.416607318
 20
23.2575525648
 30
0.0
 11
36.3903025072
 21
23.2575525648
 31
0.0
  0
LINE
  5
1C6
330
1F
100
AcDbEntity
  8
0
  6
Continuous
 62
   144
370
    18
100
AcDbLine
 10
36.3903025072
 20
23.2575525648
 30
0.0
 11
36.3657399318
 21
23.2575525648
 31
0.0
  0
LINE
  5
1C7
330
1F
100
AcDbEntity
  8
0
  6
Continuous
 62
   144
370
    18
100
AcDbLine
 10
36.3657399318
 20
23.2575525648
 30
0.0
 11
36.34296636
 21
23.2575525648
 31
0.0
  0
LINE
  5
1C8
330
1F
100
AcDbEntity
  8
0
  6
Continuous
 62
   144
370
    18
100
AcDbLine
 10
36.34296636
 20
23.2575525648
 30
0.0
 11
36.3220251316
 21
23.2575525648
 31
0.0
  0
LINE
  5
1C9
330
1F
100
AcDbEntity
  8
0
  6
Continuous
 62
   144
370
    18
100
AcDbLine
 10
36.3220251316
 20
23.2575525648
 30
0.0
 11
36.3029561195
 21
23.2575525648
 31
0.0
  0
LINE
  5
1CA
330
1F
100
AcDbEntity
  8
0
  6
Continuous
 62
     7
370
    25
100
AcDbLine
 10
36.3029561195
 20
23.2575525648
 30
0.0
 11
36.2857956134
 21
23.2575525648
 31
0.0
  0
LINE
  5
1CB
330
1F
100
AcDbEntity
  8
0
  6
Continuous
 62
   144
370
    18
100
AcDbLine
 10
36.2857956134
 20
23.2575525648
 30
0.0
 11
36.2705762876
 21
23.2575525648
 31
0.0
  0
LINE
  5
1CC
330
1F
100
AcDbEntity
  8
0
  6
Continuous
 62
   144
370
    18
100
AcDbLine
 10
36.2705762876
 20
23.2575525648
 30
0.0
 11
36.2573271057
 21
23.2575525648
 31
0.0
  0
LINE
  5
1CD
330
1F
100
AcDbEntity
  8
0
  6
Continuous
 62
   144
370
    18
100
AcDbLine
 10
36.2573271057
 20
23.2575525648
 30
0.0
 11
36.2460732945
 21
23.2575525648
 31
0.0
  0
LINE
  5
1CE
330
1F
100
AcDbEntity
  8
0
  6
Continuous
 62
   144
370
    18
100
AcDbLine
 10
36.2460732945
 20
23.2575525648
 30
0.0
 11
36.236836271
 21
23.2575525648
 31
0.0
  0
LINE
  5
1CF
330
1F
100
AcDbEntity
  8
0
  6
Continuous
 62
   144
370
    18
100
AcDbLine
 10
36.236836271
 20
23.2575525648
 30
0.0
 11
36.2296336228
 21
23.2575525648
 31
0.0
  0
LINE
  5
1D0
330
1F
100
AcDbEntity
  8
0
  6
Continuous
 62
   144
370
    18
100
AcDbLine
 10
36.2296336228
 20
23.2575525648
 30
0.0
 11
36.2244790644
 21
23.2575525648
 31
0.0
  0
LINE
  5
1D1
330
1F
100
AcDbEntity
  8
0
  6
Continuous
 62
   144
370
    18
100
AcDbLine
 10
36.2244790644
 20
23.2575525648
 30
0.0
 11
36.2213823883
 21
23.2575525648
 31
0.0
  0
LINE
  5
1D2
330
1F
100
AcDbEntity
  8
0
  6
Continuous
 62
   144
370
    18
100
AcDbLine
 10
37.1648198826
 20
23.2286342994
 30
0.0
 11
37.1171145421
 21
23.2575381358
 31
0.0
  0
LINE
  5
1D3
330
1F
100
AcDbEntity
  8
0
  6
Continuous
 62
   144
370
    18
100
AcDbLine
 10
37.1648198826
 20
23.2286342994
 30
0.0
 11
37.1639102168
 21
23.2575525648
 31
0.0
  0
LINE
  5
1D4
330
1F
100
AcDbEntity
  8
0
  6
Continuous
 62
     7
370
    25
100
AcDbLine
 10
36.7262206503
 20
23.2286342994
 30
0.0
 11
36.683110438
 21
23.2575381358
 31
0.0
  0
LINE
  5
1D5
330
1F
100
AcDbEntity
  8
0
  6
Continuous
 62
   144
370
    18
100
AcDbLine
 10
36.7262206503
 20
23.2286342994
 30
0.0
 11
36.7224760908
 21
23.2575525648
 31
0.0
  0
LINE
  5
1D6
330
1F
100
AcDbEntity
  8
0
  6
Continuous
 62
   144
370
    18
100
AcDbLine
 10
36.680846434
 20
23.2015629679
 30
0.0
 11
36.683110438
 21
23.2575381358
 31
0.0
  0
LINE
  5
1D7
330
1F
100
AcDbEntity
  8
0
  6
Continuous
 62
   144
370
    18
100
AcDbLine
 10
36.7241052753
 20
23.1745703054
 30
0.0
 11
36.680846434
 21
23.2015629679
 31
0.0
  0
LINE
  5
1D8
330
1F
100
AcDbEntity
  8
0
  6
Continuous
 62
   144
370
    18
100
AcDbLine
 10
36.7241052753
 20
23.1745703054
 30
0.0
 11
36.7262206503
 21
23.2286342994
 31
0.0
  0
LINE
  5
1D9
330
1F
100
AcDbEntity
  8
0
  6
Continuous
 62
   144
370
    18
100
AcDbLine
 10
38.0031146553
 20
23.2575381358
 30
0.0
 11
37.9619491178
 21
23.2286342994
 31
0.0
  0
LINE
  5
1DA
330
1F
100
AcDbEntity
  8
0
  6
Continuous
 62
   144
370
    18
100
AcDbLine
 10
37.9661917108
 20
23.2575525648
 30
0.0
 11
37.9619491178
 21
23.2286342994
 31
0.0
  0
LINE
  5
1DB
330
1F
100
AcDbEntity
  8
0
  6
Continuous
 62
   144
370
    18
100
AcDbLine
 10
38.2890880418
 20
23.2575381358
 30
0.0
 11
38.26196866
 21
23.2286342994
 31
0.0
  0
LINE
  5
1DC
330
1F
100
AcDbEntity
  8
0
  6
Continuous
 62
   144
370
    18
100
AcDbLine
 10
36.3093948401
 20
23.2286342994
 30
0.0
 11
36.2857993624
 21
23.2575381358
 31
0.0
  0
LINE
  5
1DD
330
1F
100
AcDbEntity
  8
0
  6
Continuous
 62
   144
370
    18
100
AcDbLine
 10
36.3093948401
 20
23.2286342994
 30
0.0
 11
36.3029561195
 21
23.2575525648
 31
0.0
  0
LINE
  5
1DE
330
1F
100
AcDbEntity
  8
0
  6
Continuous
 62
   144
370
    18
100
AcDbLine
 10
36.5382026542
 20
23.2575381358
 30
0.0
 11
36.5771102319
 21
23.2286342994
 31
0.0
  0
LINE
  5
1DF
330
1F
100
AcDbEntity
  8
0
  6
Continuous
 62
   144
370
    18
100
AcDbLine
 10
36.5771102319
 20
23.2286342994
 30
0.0
 11
36.5724018944
 21
23.2575525648
 31
0.0
  0
LINE
  5
1E0
330
1F
100
AcDbEntity
  8
0
  6
Continuous
 62
   144
370
    18
100
AcDbLine
 10
37.8481608423
 20
23.2575381358
 30
0.0
 11
37.8848961389
 21
23.2286342994
 31
0.0
  0
LINE
  5
1E1
330
1F
100
AcDbEntity
  8
0
  6
Continuous
 62
   144
370
    18
100
AcDbLine
 10
37.8886406986
 20
23.2575525648
 30
0.0
 11
37.8848961389
 21
23.2286342994
 31
0.0
  0
LWPOLYLINE
  5
1E2
330
1F
100
AcDbEntity
  8
0
  6
Continuous
 62
   144
370
    18
100
AcDbPolyline
 90
        3
 70
   128
 43
0.0
 10
37.4452204389
 20
22.848437731
 10
37.4639416431
 20
22.8556223737
 10
37.4836732243
 20
22.8648451706
  0
LINE
  5
1E3
330
1F
100
AcDbEntity
  8
0
  6
Continuous
 62
   144
370
    18
100
AcDbLine
 10
37.4836724097
 20
22.86484659
 30
0.0
 11
37.4926307614
 21
22.8699403789
 31
0.0
  0
ARC
  5
1E4
330
1F
100
AcDbEntity
  8
0
  6
Continuous
 62
     7
370
    25
100
AcDbCircle
 10
37.6143992273
 20
23.0648063649
 30
0.0
 40
0.2297831843315897
100
AcDbArc
 50
237.9994325323
 51
250.3538751843
  0
LWPOLYLINE
  5
1E5
330
1F
100
AcDbEntity
  8
0
  6
Continuous
 62
   144
370
    18
100
AcDbPolyline
 90
        3
 70
   128
 43
0.0
 10
37.5371471505
 20
22.848437731
 10
37.5558091808
 20
22.8556223737
 10
37.5754673591
 20
22.864845171
  0
LINE
  5
1E6
330
1F
100
AcDbEntity
  8
0
  6
Continuous
 62
   144
370
    18
100
AcDbLine
 10
37.5754665981
 20
22.8648465903
 30
0.0
 11
37.5843859181
 21
22.8699403789
 31
0.0
  0
ARC
  5
1E7
330
1F
100
AcDbEntity
  8
0
  6
Continuous
 62
   144
370
    18
100
AcDbCircle
 10
37.7035823239
 20
23.0539120409
 30
0.0
 40
0.2192107561702491
100
AcDbArc
 50
237.0605421295
 51
249.6376910116
  0
LWPOLYLINE
  5
1E8
330
1F
100
AcDbEntity
  8
0
  6
Continuous
 62
   144
370
    18
100
AcDbPolyline
 90
        3
 70
   128
 43
0.0
 10
37.6273113317
 20
22.848437731
 10
37.6457721589
 20
22.8556223737
 10
37.6652073236
 20
22.8648451712
  0
LINE
  5
1E9
330
1F
100
AcDbEntity
  8
0
  6
Continuous
 62
   144
370
    18
100
AcDbLine
 10
37.6652066219
 20
22.8648465905
 30
0.0
 11
37.6740190289
 21
22.8699403789
 31
0.0
  0
ARC
  5
1EA
330
1F
100
AcDbEntity
  8
0
  6
Continuous
 62
   144
370
    18
100
AcDbCircle
 10
37.7901312547
 20
23.0411611793
 30
0.0
 40
0.2068782528188681
100
AcDbArc
 50
235.8571077986
 51
248.7114391702
  0
LWPOLYLINE
  5
1EB
330
1F
100
AcDbEntity
  8
0
  6
Continuous
 62
   144
370
    18
100
AcDbPolyline
 90
        3
 70
   128
 43
0.0
 10
37.7150267788
 20
22.848437731
 10
37.7331459049
 20
22.8556223737
 10
37.7522101425
 20
22.8648451714
  0
LINE
  5
1EC
330
1F
100
AcDbEntity
  8
0
  6
Continuous
 62
   144
370
    18
100
AcDbLine
 10
37.7522095055
 20
22.8648465907
 30
0.0
 11
37.7608479319
 21
22.8699403789
 31
0.0
  0
ARC
  5
1ED
330
1F
100
AcDbEntity
  8
0
  6
Continuous
 62
   144
370
    18
100
AcDbCircle
 10
37.8734510704
 20
23.0269506287
 30
0.0
 40
0.1932140920194361
100
AcDbArc
 50
234.3530207081
 51
247.5345525922
  0
LWPOLYLINE
  5
1EE
330
1F
100
AcDbEntity
  8
0
  6
Continuous
 62
   144
370
    18
100
AcDbPolyline
 90
        3
 70
   128
 43
0.0
 10
37.7996259243
 20
22.848437731
 10
37.8172654517
 20
22.8556223737
 10
37.8358136717
 20
22.8648451715
  0
LINE
  5
1EF
330
1F
100
AcDbEntity
  8
0
  6
Continuous
 62
   144
370
    18
100
AcDbLine
 10
37.8358131042
 20
22.8648465908
 30
0.0
 11
37.8442118066
 21
22.8699403789
 31
0.0
  0
ARC
  5
1F0
330
1F
100
AcDbEntity
  8
0
  6
Continuous
 62
   144
370
    18
100
AcDbCircle
 10
37.9529991466
 20
23.0117239284
 30
0.0
 40
0.1787099892689987
100
AcDbArc
 50
232.501781509
 51
246.0510529763
  0
LWPOLYLINE
  5
1F1
330
1F
100
AcDbEntity
  8
0
  6
Continuous
 62
   144
370
    18
100
AcDbPolyline
 90
        3
 70
   128
 43
0.0
 10
37.8804649176
 20
22.848437731
 10
37.8974905988
 20
22.8556223737
 10
37.9153816379
 20
22.8648451715
  0
LINE
  5
1F2
330
1F
100
AcDbEntity
  8
0
  6
Continuous
 62
   144
370
    18
100
AcDbLine
 10
37.9153811442
 20
22.8648465908
 30
0.0
 11
37.9234762035
 21
22.8699403789
 31
0.0
  0
ARC
  5
1F3
330
1F
100
AcDbEntity
  8
0
  6
Continuous
 62
     7
370
    25
100
AcDbCircle
 10
38.0283043473
 20
22.9959591049
 30
0.0
 40
0.1639196725338769
100
AcDbArc
 50
230.2447661456
 51
244.1836379195
  0
LWPOLYLINE
  5
1F4
330
1F
100
AcDbEntity
  8
0
  6
Continuous
 62
   144
370
    18
100
AcDbPolyline
 90
        3
 70
   128
 43
0.0
 10
37.956928525
 20
22.848437731
 10
37.9732107844
 20
22.8556223737
 10
37.9903084809
 20
22.8648451714
  0
LINE
  5
1F5
330
1F
100
AcDbEntity
  8
0
  6
Continuous
 62
   144
370
    18
100
AcDbLine
 10
37.9903080648
 20
22.8648465908
 30
0.0
 11
37.9980378728
 21
22.8699403789
 31
0.0
  0
ARC
  5
1F6
330
1F
100
AcDbEntity
  8
0
  6
Continuous
 62
   144
370
    18
100
AcDbCircle
 10
38.098997452
 20
22.9801563507
 30
0.0
 40
0.1494670434472489
100
AcDbArc
 50
227.5098216532
 51
241.8251600485
  0
LWPOLYLINE
  5
1F7
330
1F
100
AcDbEntity
  8
0
  6
Continuous
 62
     7
370
    25
100
AcDbPolyline
 90
        3
 70
   128
 43
0.0
 10
38.0284348125
 20
22.848437731
 10
38.0438497322
 20
22.8556223737
 10
38.0600239621
 20
22.8648451713
  0
LINE
  5
1F8
330
1F
100
AcDbEntity
  8
0
  6
Continuous
 62
     7
370
    25
100
AcDbLine
 10
38.0600231113
 20
22.8648468164
 30
0.0
 11
38.0673293552
 21
22.8699403789
 31
0.0
  0
ARC
  5
1F9
330
1F
100
AcDbEntity
  8
0
  6
Continuous
 62
   144
370
    18
100
AcDbCircle
 10
38.1648650053
 20
22.9648269152
 30
0.0
 40
0.1360759266387052
100
AcDbArc
 50
224.21124768
 51
238.8267555088
  0
LWPOLYLINE
  5
1FA
330
1F
100
AcDbEntity
  8
0
  6
Continuous
 62
   144
370
    18
100
AcDbPolyline
 90
        3
 70
   128
 43
0.0
 10
38.0944395739
 20
22.848437731
 10
38.1088698371
 20
22.8556223737
 10
38.1239975048
 20
22.864845171
  0
LINE
  5
1FB
330
1F
100
AcDbEntity
  8
0
  6
Continuous
 62
   144
370
    18
100
AcDbLine
 10
38.1239972528
 20
22.8648465904
 30
0.0
 11
38.1308233006
 21
22.8699403789
 31
0.0
  0
ARC
  5
1FC
330
1F
100
AcDbEntity
  8
0
  6
Continuous
 62
   144
370
    18
100
AcDbCircle
 10
38.2259562134
 20
22.9504858371
 30
0.0
 40
0.1246508802599111
100
AcDbArc
 50
220.2533337603
 51
234.9826038812
  0
LWPOLYLINE
  5
1FD
330
1F
100
AcDbEntity
  8
0
  6
Continuous
 62
     7
370
    25
100
AcDbPolyline
 90
        3
 70
   128
 43
0.0
 10
38.1544404733
 20
22.848437731
 10
38.1677762569
 20
22.8556223737
 10
38.1817422316
 20
22.8648451708
  0
LINE
  5
1FE
330
1F
100
AcDbEntity
  8
0
  6
Continuous
 62
     7
370
    25
100
AcDbLine
 10
38.1817414661
 20
22.8648468159
 30
0.0
 11
38.1880364817
 21
22.8699403789
 31
0.0
  0
ARC
  5
1FF
330
1F
100
AcDbEntity
  8
0
  6
Continuous
 62
   144
370
    18
100
AcDbCircle
 10
38.2828242207
 20
22.937654954
 30
0.0
 40
0.1164902534524014
100
AcDbArc
 50
215.5412988488
 51
230.0143236182
  0
LWPOLYLINE
  5
200
330
1F
100
AcDbEntity
  8
0
  6
Continuous
 62
   144
370
    18
100
AcDbPolyline
 90
        3
 70
   128
 43
0.0
 10
38.2079808674
 20
22.848437731
 10
38.2201206781
 20
22.8556223737
 10
38.2328186703
 20
22.8648451704
  0
LINE
  5
201
330
1F
100
AcDbEntity
  8
0
  6
Continuous
 62
   144
370
    18
100
AcDbLine
 10
38.2328185901
 20
22.8648465897
 30
0.0
 11
38.2385334718
 21
22.8699403789
 31
0.0
  0
ARC
  5
202
330
1F
100
AcDbEntity
  8
0
  6
Continuous
 62
   144
370
    18
100
AcDbCircle
 10
38.3371644772
 20
22.9268959486
 30
0.0
 40
0.1138947415295076
100
AcDbArc
 50
210.0047627668
 51
223.5669308356
  0
LWPOLYLINE
  5
203
330
1F
100
AcDbEntity
  8
0
  6
Continuous
 62
   144
370
    18
100
AcDbPolyline
 90
        3
 70
   128
 43
0.0
 10
38.2546532816
 20
22.848437731
 10
38.2655047282
 20
22.8556223737
 10
38.2768380985
 20
22.86484517
  0
LINE
  5
204
330
1F
100
AcDbEntity
  8
0
  6
Continuous
 62
   144
370
    18
100
AcDbLine
 10
38.2768381054
 20
22.8648465893
 30
0.0
 11
38.2819299581
 21
22.8699403789
 31
0.0
  0
ARC
  5
205
330
1F
100
AcDbEntity
  8
0
  6
Continuous
 62
   144
370
    18
100
AcDbCircle
 10
38.3939248207
 20
22.9189528738
 30
0.0
 40
0.1222500466490341
100
AcDbArc
 50
203.6357079151
 51
215.2484625782
  0
LWPOLYLINE
  5
206
330
1F
100
AcDbEntity
  8
0
  6
Continuous
 62
   144
370
    18
100
AcDbPolyline
 90
        3
 70
   128
 43
0.0
 10
38.2941025107
 20
22.848437731
 10
38.303583007
 20
22.8556223737
 10
38.3134655017
 20
22.8648451696
  0
LINE
  5
207
330
1F
100
AcDbEntity
  8
0
  6
Continuous
 62
   144
370
    18
100
AcDbLine
 10
38.3134655957
 20
22.8648465889
 30
0.0
 11
38.3178956674
 21
22.8699403789
 31
0.0
  0
ARC
  5
208
330
1F
100
AcDbEntity
  8
0
  6
Continuous
 62
     7
370
    25
100
AcDbCircle
 10
38.4713728127
 20
22.9154814772
 30
0.0
 40
0.1600913045228792
100
AcDbArc
 50
196.527142542
 51
204.7729255842
  0
LWPOLYLINE
  5
209
330
1F
100
AcDbEntity
  8
0
  6
Continuous
 62
   144
370
    18
100
AcDbPolyline
 90
        3
 70
   128
 43
0.0
 10
38.3260283221
 20
22.848437731
 10
38.3340657158
 20
22.8556223737
 10
38.3424221234
 20
22.8648451692
  0
LINE
  5
20A
330
1F
100
AcDbEntity
  8
0
  6
Continuous
 62
   144
370
    18
100
AcDbLine
 10
38.3424223037
 20
22.8648465884
 30
0.0
 11
38.3461568787
 21
22.8699403789
 31
0.0
  0
ARC
  5
20B
330
1F
100
AcDbEntity
  8
0
  6
Continuous
 62
   144
370
    18
100
AcDbCircle
 10
38.7137221721
 20
22.927323392
 30
0.0
 40
0.3720175468423206
100
AcDbArc
 50
188.873193209
 51
192.2484316392
  0
LWPOLYLINE
  5
20C
330
1F
100
AcDbEntity
  8
0
  6
Continuous
 62
     7
370
    25
100
AcDbPolyline
 90
        3
 70
   128
 43
0.0
 10
38.3501877412
 20
22.848437731
 10
38.356720863
 20
22.8556223737
 10
38.3634875861
 20
22.8648451687
  0
LINE
  5
20D
330
1F
100
AcDbEntity
  8
0
  6
Continuous
 62
     7
370
    25
100
AcDbLine
 10
38.3634871285
 20
22.8648468137
 30
0.0
 11
38.3664985072
 21
22.8699403789
 31
0.0
  0
ARC
  5
20E
330
1F
100
AcDbEntity
  8
0
  6
Continuous
 62
   144
370
    18
100
AcDbCircle
 10
37.8600224933
 20
22.8619131948
 30
0.0
 40
0.5065396216604571
100
AcDbArc
 50
358.4712586903
 51
0.9080099645
  0
LWPOLYLINE
  5
20F
330
1F
100
AcDbEntity
  8
0
  6
Continuous
 62
   144
370
    18
100
AcDbPolyline
 90
        3
 70
   128
 43
0.0
 10
38.3663969003
 20
22.848437731
 10
38.371376029
 20
22.8556223737
 10
38.3765015691
 20
22.8648451683
  0
LINE
  5
210
330
1F
100
AcDbEntity
  8
0
  6
Continuous
 62
   144
370
    18
100
AcDbLine
 10
38.3765019172
 20
22.8648465875
 30
0.0
 11
38.3787657408
 21
22.8699403789
 31
0.0
  0
ARC
  5
211
330
1F
100
AcDbEntity
  8
0
  6
Continuous
 62
   144
370
    18
100
AcDbCircle
 10
38.2234320252
 20
22.8893874224
 30
0.0
 40
0.1565463212831937
100
AcDbArc
 50
344.8215622251
 51
352.8639689548
  0
LWPOLYLINE
  5
212
330
1F
100
AcDbEntity
  8
0
  6
Continuous
 62
   144
370
    18
100
AcDbPolyline
 90
        3
 70
   128
 43
0.0
 10
38.3745324377
 20
22.848437731
 10
38.3779196793
 20
22.8556223737
 10
38.3813650279
 20
22.8648451678
  0
LINE
  5
213
330
1F
100
AcDbEntity
  8
0
  6
Continuous
 62
   144
370
    18
100
AcDbLine
 10
38.3813654564
 20
22.864846587
 30
0.0
 11
38.3828652185
 21
22.8699403789
 31
0.0
  0
ARC
  5
214
330
1F
100
AcDbEntity
  8
0
  6
Continuous
 62
   144
370
    18
100
AcDbCircle
 10
38.2980308312
 20
22.8912869788
 30
0.0
 40
0.0874788580431187
100
AcDbArc
 50
336.0424811618
 51
345.876067751
  0
LINE
  5
215
330
1F
100
AcDbEntity
  8
0
  6
Continuous
 62
   144
370
    18
100
AcDbLine
 10
38.3750961343
 20
22.849633382
 30
0.0
 11
38.3745172427
 21
22.8483995263
 31
0.0
  0
LWPOLYLINE
  5
216
330
1F
100
AcDbEntity
  8
0
  6
Continuous
 62
   144
370
    18
100
AcDbPolyline
 90
        3
 70
   128
 43
0.0
 10
38.3663968988
 20
22.848437731
 10
38.3665353406
 20
22.8556223737
 10
38.3665546301
 20
22.8648451671
  0
LWPOLYLINE
  5
217
330
1F
100
AcDbEntity
  8
0
  6
Continuous
 62
     7
370
    25
100
AcDbPolyline
 90
        3
 70
   128
 43
0.0
 10
38.3501877388
 20
22.848437731
 10
38.3486939934
 20
22.8556223737
 10
38.3469934895
 20
22.8648451668
  0
LWPOLYLINE
  5
218
330
1F
100
AcDbEntity
  8
0
  6
Continuous
 62
   144
370
    18
100
AcDbPolyline
 90
        3
 70
   128
 43
0.0
 10
38.2941025064
 20
22.848437731
 10
38.2893908267
 20
22.8556223737
 10
38.2843025521
 20
22.8648451664
  0
LWPOLYLINE
  5
219
330
1F
100
AcDbEntity
  8
0
  6
Continuous
 62
   144
370
    18
100
AcDbPolyline
 90
        3
 70
   128
 43
0.0
 10
38.2546532764
 20
22.848437731
 10
38.2483803403
 20
22.8556223737
 10
38.2416498711
 20
22.8648451663
  0
LWPOLYLINE
  5
21A
330
1F
100
AcDbEntity
  8
0
  6
Continuous
 62
   144
370
    18
100
AcDbPolyline
 90
        3
 70
   128
 43
0.0
 10
38.2079808613
 20
22.848437731
 10
38.2001944095
 20
22.8556223737
 10
38.1918729687
 20
22.8648451663
  0
LWPOLYLINE
  5
21B
330
1F
100
AcDbEntity
  8
0
  6
Continuous
 62
   144
370
    18
100
AcDbPolyline
 90
        3
 70
   128
 43
0.0
 10
38.1544404664
 20
22.848437731
 10
38.1451997584
 20
22.8556223737
 10
38.1353506772
 20
22.8648451663
  0
LWPOLYLINE
  5
21C
330
1F
100
AcDbEntity
  8
0
  6
Continuous
 62
     7
370
    25
100
AcDbPolyline
 90
        3
 70
   128
 43
0.0
 10
38.0944395663
 20
22.848437731
 10
38.0838149296
 20
22.8556223737
 10
38.0725131652
 20
22.8648451665
  0
LWPOLYLINE
  5
21D
330
1F
100
AcDbEntity
  8
0
  6
Continuous
 62
   144
370
    18
100
AcDbPolyline
 90
        3
 70
   128
 43
0.0
 10
38.0284348041
 20
22.848437731
 10
38.0165070987
 20
22.8556223737
 10
38.0038386642
 20
22.8648451667
  0
LINE
  5
21E
330
1F
100
AcDbEntity
  8
0
  6
Continuous
 62
     7
370
    25
100
AcDbLine
 10
36.2297520679
 20
22.8648468128
 30
0.0
 11
36.2282515707
 21
22.8699403789
 31
0.0
  0
ARC
  5
21F
330
1F
100
AcDbEntity
  8
0
  6
Continuous
 62
     7
370
    25
100
AcDbCircle
 10
36.3316909279
 20
22.8976394098
 30
0.0
 40
0.1070837846133295
100
AcDbArc
 50
194.9909755662
 51
207.3758652067
  0
LWPOLYLINE
  5
220
330
1F
100
AcDbEntity
  8
0
  6
Continuous
 62
     7
370
    25
100
AcDbPolyline
 90
        3
 70
   128
 43
0.0
 10
36.236584352
 20
22.848437731
 10
36.2348147765
 20
22.8556223737
 10
36.2330758403
 20
22.8648451674
  0
LINE
  5
221
330
1F
100
AcDbEntity
  8
0
  6
Continuous
 62
     7
370
    25
100
AcDbLine
 10
36.2330760677
 20
22.8648468124
 30
0.0
 11
36.2323510484
 21
22.8699403789
 31
0.0
  0
ARC
  5
222
330
1F
100
AcDbEntity
  8
0
  6
Continuous
 62
     7
370
    25
100
AcDbCircle
 10
36.3198385553
 20
22.9059070822
 30
0.0
 40
0.0945921117443469
100
AcDbArc
 50
202.347893852
 51
217.4416365404
  0
LWPOLYLINE
  5
223
330
1F
100
AcDbEntity
  8
0
  6
Continuous
 62
   144
370
    18
100
AcDbPolyline
 90
        3
 70
   128
 43
0.0
 10
36.2447198904
 20
22.848437731
 10
36.2445814486
 20
22.8556223737
 10
36.2445621591
 20
22.8648451671
  0
LINE
  5
224
330
1F
100
AcDbEntity
  8
0
  6
Continuous
 62
   144
370
    18
100
AcDbLine
 10
36.2445615804
 20
22.8648465862
 30
0.0
 11
36.244618282
 21
22.8699403789
 31
0.0
  0
ARC
  5
225
330
1F
100
AcDbEntity
  8
0
  6
Continuous
 62
     7
370
    25
100
AcDbCircle
 10
36.3275023273
 20
22.9158005005
 30
0.0
 40
0.0947254755335646
100
AcDbArc
 50
208.9559561876
 51
225.3603605311
  0
LWPOLYLINE
  5
226
330
1F
100
AcDbEntity
  8
0
  6
Continuous
 62
   144
370
    18
100
AcDbPolyline
 90
        3
 70
   128
 43
0.0
 10
36.2609290504
 20
22.848437731
 10
36.2624227958
 20
22.8556223737
 10
36.2641232997
 20
22.8648451668
  0
LINE
  5
227
330
1F
100
AcDbEntity
  8
0
  6
Continuous
 62
   144
370
    18
100
AcDbLine
 10
36.2641226523
 20
22.8648465859
 30
0.0
 11
36.2649599106
 21
22.8699403789
 31
0.0
  0
ARC
  5
228
330
1F
100
AcDbEntity
  8
0
  6
Continuous
 62
   144
370
    18
100
AcDbCircle
 10
36.3481263063
 20
22.9275216845
 30
0.0
 40
0.1011546149923631
100
AcDbArc
 50
214.6972818639
 51
231.4615565829
  0
LWPOLYLINE
  5
229
330
1F
100
AcDbEntity
  8
0
  6
Continuous
 62
   144
370
    18
100
AcDbPolyline
 90
        3
 70
   128
 43
0.0
 10
36.2850884705
 20
22.848437731
 10
36.2882030349
 20
22.8556223737
 10
36.2916103902
 20
22.8648451665
  0
LINE
  5
22A
330
1F
100
AcDbEntity
  8
0
  6
Continuous
 62
   144
370
    18
100
AcDbLine
 10
36.2916096789
 20
22.8648465857
 30
0.0
 11
36.2932211219
 21
22.8699403789
 31
0.0
  0
ARC
  5
22B
330
1F
100
AcDbEntity
  8
0
  6
Continuous
 62
   144
370
    18
100
AcDbCircle
 10
36.3790854918
 20
22.9409122882
 30
0.0
 40
0.111398841726698
100
AcDbArc
 50
219.5757168172
 51
236.146463174
  0
LWPOLYLINE
  5
22C
330
1F
100
AcDbEntity
  8
0
  6
Continuous
 62
   144
370
    18
100
AcDbPolyline
 90
        3
 70
   128
 43
0.0
 10
36.3170142829
 20
22.848437731
 10
36.3217259625
 20
22.8556223737
 10
36.3268142372
 20
22.8648451664
  0
LINE
  5
22D
330
1F
100
AcDbEntity
  8
0
  6
Continuous
 62
   144
370
    18
100
AcDbLine
 10
36.3268134674
 20
22.8648465855
 30
0.0
 11
36.3291868311
 21
22.8699403789
 31
0.0
  0
ARC
  5
22E
330
1F
100
AcDbEntity
  8
0
  6
Continuous
 62
   144
370
    18
100
AcDbCircle
 10
36.4189954127
 20
22.9556617188
 30
0.0
 40
0.1241520416330682
100
AcDbArc
 50
223.6660998418
 51
239.7639739151
  0
LWPOLYLINE
  5
22F
330
1F
100
AcDbEntity
  8
0
  6
Continuous
 62
   144
370
    18
100
AcDbPolyline
 90
        3
 70
   128
 43
0.0
 10
36.3564635128
 20
22.848437731
 10
36.362736449
 20
22.8556223737
 10
36.3694669181
 20
22.8648451663
  0
LINE
  5
230
330
1F
100
AcDbEntity
  8
0
  6
Continuous
 62
   144
370
    18
100
AcDbLine
 10
36.3694660958
 20
22.8648465854
 30
0.0
 11
36.3725833174
 21
22.8699403789
 31
0.0
  0
ARC
  5
231
330
1F
100
AcDbEntity
  8
0
  6
Continuous
 62
     7
370
    25
100
AcDbCircle
 10
36.4669425889
 20
22.9713757915
 30
0.0
 40
0.1385381357023899
100
AcDbArc
 50
227.0698040952
 51
242.5820109711
  0
LWPOLYLINE
  5
232
330
1F
100
AcDbEntity
  8
0
  6
Continuous
 62
   144
370
    18
100
AcDbPolyline
 90
        3
 70
   128
 43
0.0
 10
36.4031359279
 20
22.848437731
 10
36.4109223797
 20
22.8556223737
 10
36.4192438205
 20
22.8648451663
  0
LINE
  5
233
330
1F
100
AcDbEntity
  8
0
  6
Continuous
 62
   144
370
    18
100
AcDbLine
 10
36.4192429519
 20
22.8648465854
 30
0.0
 11
36.4230803075
 21
22.8699403789
 31
0.0
  0
ARC
  5
234
330
1F
100
AcDbEntity
  8
0
  6
Continuous
 62
   144
370
    18
100
AcDbCircle
 10
36.5222074219
 20
22.9876105773
 30
0.0
 40
0.1538585727800547
100
AcDbArc
 50
229.8887180415
 51
244.7961975648
  0
LWPOLYLINE
  5
235
330
1F
100
AcDbEntity
  8
0
  6
Continuous
 62
   144
370
    18
100
AcDbPolyline
 90
        3
 70
   128
 43
0.0
 10
36.4566763228
 20
22.848437731
 10
36.4659170308
 20
22.8556223737
 10
36.4757661121
 20
22.8648451663
  0
LINE
  5
236
330
1F
100
AcDbEntity
  8
0
  6
Continuous
 62
   144
370
    18
100
AcDbLine
 10
36.4757652037
 20
22.8648465854
 30
0.0
 11
36.4802934886
 21
22.8699403789
 31
0.0
  0
ARC
  5
237
330
1F
100
AcDbEntity
  8
0
  6
Continuous
 62
     7
370
    25
100
AcDbCircle
 10
36.5841486947
 20
23.0038953602
 30
0.0
 40
0.1694987931005955
100
AcDbArc
 50
232.2136027848
 51
246.5468879648
  0
LWPOLYLINE
  5
238
330
1F
100
AcDbEntity
  8
0
  6
Continuous
 62
   144
370
    18
100
AcDbPolyline
 90
        3
 70
   128
 43
0.0
 10
36.5166772229
 20
22.848437731
 10
36.5273018596
 20
22.8556223737
 10
36.538603624
 20
22.8648451665
  0
LINE
  5
239
330
1F
100
AcDbEntity
  8
0
  6
Continuous
 62
   144
370
    18
100
AcDbLine
 10
36.5386026829
 20
22.8648465856
 30
0.0
 11
36.543787434
 21
22.8699403789
 31
0.0
  0
ARC
  5
23A
330
1F
100
AcDbEntity
  8
0
  6
Continuous
 62
   144
370
    18
100
AcDbCircle
 10
36.6521507788
 20
23.0197515414
 30
0.0
 40
0.1848945616046715
100
AcDbArc
 50
234.1205461712
 51
247.934545617
  0
LWPOLYLINE
  5
23B
330
1F
100
AcDbEntity
  8
0
  6
Continuous
 62
   144
370
    18
100
AcDbPolyline
 90
        3
 70
   128
 43
0.0
 10
36.5826819851
 20
22.848437731
 10
36.5946096905
 20
22.8556223737
 10
36.607278125
 20
22.8648451667
  0
LINE
  5
23C
330
1F
100
AcDbEntity
  8
0
  6
Continuous
 62
   144
370
    18
100
AcDbLine
 10
36.6072771582
 20
22.8648465858
 30
0.0
 11
36.6130789164
 21
22.8699403789
 31
0.0
  0
ARC
  5
23D
330
1F
100
AcDbEntity
  8
0
  6
Continuous
 62
   144
370
    18
100
AcDbCircle
 10
36.7255983794
 20
23.0347096274
 30
0.0
 40
0.1995232689063232
100
AcDbArc
 50
235.6711765713
 51
249.031339597
  0
LWPOLYLINE
  5
23E
330
1F
100
AcDbEntity
  8
0
  6
Continuous
 62
     7
370
    25
100
AcDbPolyline
 90
        3
 70
   128
 43
0.0
 10
36.6541882732
 20
22.848437731
 10
36.6673282704
 20
22.8556223737
 10
36.6812669606
 20
22.8648451669
  0
LINE
  5
23F
330
1F
100
AcDbEntity
  8
0
  6
Continuous
 62
     7
370
    25
100
AcDbLine
 10
36.6812664021
 20
22.8648468118
 30
0.0
 11
36.6876405857
 21
22.8699403789
 31
0.0
  0
ARC
  5
240
330
1F
100
AcDbEntity
  8
0
  6
Continuous
 62
   144
370
    18
100
AcDbCircle
 10
36.8038646183
 20
23.0483248926
 30
0.0
 40
0.2129062246437023
100
AcDbArc
 50
236.9142859466
 51
249.8893172332
  0
LWPOLYLINE
  5
241
330
1F
100
AcDbEntity
  8
0
  6
Continuous
 62
   144
370
    18
100
AcDbPolyline
 90
        3
 70
   128
 43
0.0
 10
36.7306518812
 20
22.848437731
 10
36.7449041669
 20
22.8556223737
 10
36.7600070311
 20
22.8648451673
  0
LINE
  5
242
330
1F
100
AcDbEntity
  8
0
  6
Continuous
 62
   144
370
    18
100
AcDbLine
 10
36.7600060353
 20
22.8648465864
 30
0.0
 11
36.7669049827
 21
22.8699403789
 31
0.0
  0
ARC
  5
243
330
1F
100
AcDbEntity
  8
0
  6
Continuous
 62
     7
370
    25
100
AcDbCircle
 10
36.8863061197
 20
23.0601917413
 30
0.0
 40
0.2246156994126513
100
AcDbArc
 50
237.8877516722
 51
250.5460068857
  0
LWPOLYLINE
  5
244
330
1F
100
AcDbEntity
  8
0
  6
Continuous
 62
   144
370
    18
100
AcDbPolyline
 90
        3
 70
   128
 43
0.0
 10
36.811490875
 20
22.848437731
 10
36.8267469807
 20
22.8556223737
 10
36.8428990771
 20
22.8648451677
  0
LINE
  5
245
330
1F
100
AcDbEntity
  8
0
  6
Continuous
 62
   144
370
    18
100
AcDbLine
 10
36.842898078
 20
22.8648465868
 30
0.0
 11
36.8502688573
 21
22.8699403789
 31
0.0
  0
ARC
  5
246
330
1F
100
AcDbEntity
  8
0
  6
Continuous
 62
   144
370
    18
100
AcDbCircle
 10
36.9722620453
 20
23.0699565775
 30
0.0
 40
0.234283626474471
100
AcDbArc
 50
238.6202941403
 51
251.0282119448
  0
LWPOLYLINE
  5
247
330
1F
100
AcDbEntity
  8
0
  6
Continuous
 62
     7
370
    25
100
AcDbPolyline
 90
        3
 70
   128
 43
0.0
 10
36.8960900209
 20
22.848437731
 10
36.9122338383
 20
22.8556223737
 10
36.9293122399
 20
22.8648451681
  0
LINE
  5
248
330
1F
100
AcDbEntity
  8
0
  6
Continuous
 62
     7
370
    25
100
AcDbLine
 10
36.9293115023
 20
22.8648468131
 30
0.0
 11
36.9370977603
 21
22.8699403789
 31
0.0
  0
ARC
  5
249
330
1F
100
AcDbEntity
  8
0
  6
Continuous
 62
   144
370
    18
100
AcDbCircle
 10
37.0610554996
 20
23.0773289209
 30
0.0
 40
0.2416102822193219
100
AcDbArc
 50
239.1329118162
 51
251.3545534535
  0
LWPOLYLINE
  5
24A
330
1F
100
AcDbEntity
  8
0
  6
Continuous
 62
   144
370
    18
100
AcDbPolyline
 90
        3
 70
   128
 43
0.0
 10
36.9838054683
 20
22.848437731
 10
37.0007141334
 20
22.8556223737
 10
37.0185888633
 20
22.8648451685
  0
LINE
  5
24B
330
1F
100
AcDbEntity
  8
0
  6
Continuous
 62
   144
370
    18
100
AcDbLine
 10
37.0185878806
 20
22.8648465878
 30
0.0
 11
37.0267308712
 21
22.8699403789
 31
0.0
  0
ARC
  5
24C
330
1F
100
AcDbEntity
  8
0
  6
Continuous
 62
     7
370
    25
100
AcDbCircle
 10
37.1519964498
 20
23.082090501
 30
0.0
 40
0.2463719535713978
100
AcDbArc
 50
239.439965215
 51
251.5371385653
  0
LWPOLYLINE
  5
24D
330
1F
100
AcDbEntity
  8
0
  6
Continuous
 62
     7
370
    25
100
AcDbPolyline
 90
        3
 70
   128
 43
0.0
 10
37.0739696498
 20
22.848437731
 10
37.0915144774
 20
22.8556223737
 10
37.1100494982
 20
22.864845169
  0
LINE
  5
24E
330
1F
100
AcDbEntity
  8
0
  6
Continuous
 62
     7
370
    25
100
AcDbLine
 10
37.1100486685
 20
22.864846814
 30
0.0
 11
37.1184860278
 21
22.8699403789
 31
0.0
  0
ARC
  5
24F
330
1F
100
AcDbEntity
  8
0
  6
Continuous
 62
   144
370
    18
100
AcDbCircle
 10
37.2443856749
 20
23.0841020989
 30
0.0
 40
0.2484269781337368
100
AcDbArc
 50
239.5499280987
 51
251.582597948
  0
LWPOLYLINE
  5
250
330
1F
100
AcDbEntity
  8
0
  6
Continuous
 62
   144
370
    18
100
AcDbPolyline
 90
        3
 70
   128
 43
0.0
 10
37.1658963615
 20
22.848437731
 10
37.1839438248
 20
22.8556223737
 10
37.2029980739
 20
22.8648451694
  0
LINE
  5
251
330
1F
100
AcDbEntity
  8
0
  6
Continuous
 62
   144
370
    18
100
AcDbLine
 10
37.2029971374
 20
22.8648465887
 30
0.0
 11
37.2116649182
 21
22.8699403789
 31
0.0
  0
ARC
  5
252
330
1F
100
AcDbEntity
  8
0
  6
Continuous
 62
     7
370
    25
100
AcDbCircle
 10
37.3375194664
 20
23.0833079543
 30
0.0
 40
0.2477197803201549
100
AcDbArc
 50
239.4658337321
 51
251.4926395964
  0
LWPOLYLINE
  5
253
330
1F
100
AcDbEntity
  8
0
  6
Continuous
 62
   144
370
    18
100
AcDbPolyline
 90
        3
 70
   128
 43
0.0
 10
37.2588859856
 20
22.848437731
 10
37.2772987325
 20
22.8556223737
 10
37.2967271956
 20
22.8648451699
  0
LINE
  5
254
330
1F
100
AcDbEntity
  8
0
  6
Continuous
 62
   144
370
    18
100
AcDbLine
 10
37.2967262929
 20
22.8648465892
 30
0.0
 11
37.3055583946
 21
22.8699403789
 31
0.0
  0
ARC
  5
255
330
1F
100
AcDbEntity
  8
0
  6
Continuous
 62
   144
370
    18
100
AcDbCircle
 10
37.4306949352
 20
23.0797376262
 30
0.0
 40
0.2442827026024661
100
AcDbArc
 50
239.1854378203
 51
251.2641964858
  0
LWPOLYLINE
  5
256
330
1F
100
AcDbEntity
  8
0
  6
Continuous
 62
     7
370
    25
100
AcDbPolyline
 90
        3
 70
   128
 43
0.0
 10
37.3522308149
 20
22.848437731
 10
37.3708687133
 20
22.8556223737
 10
37.3905235279
 20
22.8648451703
  0
LINE
  5
257
330
1F
100
AcDbEntity
  8
0
  6
Continuous
 62
     7
370
    25
100
AcDbLine
 10
37.390522608
 20
22.8648468154
 30
0.0
 11
37.399451871
 21
22.8699403789
 31
0.0
  0
ARC
  5
258
330
1F
100
AcDbEntity
  8
0
  6
Continuous
 62
   144
370
    18
100
AcDbCircle
 10
37.5232158746
 20
23.0735052689
 30
0.0
 40
0.2382355830793474
100
AcDbArc
 50
238.7011075381
 51
250.8891894992
  0
LINE
  5
259
330
1F
100
AcDbEntity
  8
0
  6
Continuous
 62
   144
370
    18
100
AcDbLine
 10
36.2519779582
 20
22.8140771313
 30
0.0
 11
38.359138831
 21
22.8140771313
 31
0.0
  0
LINE
  5
25A
330
1F
100
AcDbEntity
  8
0
  6
Continuous
 62
   144
370
    18
100
AcDbLine
 10
37.2116649182
 20
22.8699403789
 30
0.0
 11
37.2120096226
 21
22.9259090176
 31
0.0
  0
LINE
  5
25B
330
1F
100
AcDbEntity
  8
0
  6
Continuous
 62
   144
370
    18
100
AcDbLine
 10
37.258886708
 20
22.8484179678
 30
0.0
 11
37.2590427721
 21
22.8970620137
 31
0.0
  0
LINE
  5
25C
330
1F
100
AcDbEntity
  8
0
  6
Continuous
 62
   144
370
    18
100
AcDbLine
 10
37.2120096226
 20
22.9259090176
 30
0.0
 11
37.2590427721
 21
22.8970620137
 31
0.0
  0
LINE
  5
25D
330
1F
100
AcDbEntity
  8
0
  6
Continuous
 62
   144
370
    18
100
AcDbLine
 10
37.3522308744
 20
22.8484192931
 30
0.0
 11
37.3520740284
 21
22.8970620137
 31
0.0
  0
LINE
  5
25E
330
1F
100
AcDbEntity
  8
0
  6
Continuous
 62
   144
370
    18
100
AcDbLine
 10
37.399451871
 20
22.8699403789
 30
0.0
 11
37.3991071666
 21
22.9259090176
 31
0.0
  0
LINE
  5
25F
330
1F
100
AcDbEntity
  8
0
  6
Continuous
 62
   144
370
    18
100
AcDbLine
 10
37.3520740171
 20
22.8970620137
 30
0.0
 11
37.3991071666
 21
22.9259090176
 31
0.0
  0
LINE
  5
260
330
1F
100
AcDbEntity
  8
0
  6
Continuous
 62
     7
370
    25
100
AcDbLine
 10
37.4919439759
 20
22.9259090176
 30
0.0
 11
37.5363691749
 21
22.8970620137
 31
0.0
  0
LINE
  5
261
330
1F
100
AcDbEntity
  8
0
  6
Continuous
 62
   144
370
    18
100
AcDbLine
 10
37.4926307614
 20
22.8699403789
 30
0.0
 11
37.4919439759
 21
22.9259090176
 31
0.0
  0
LINE
  5
262
330
1F
100
AcDbEntity
  8
0
  6
Continuous
 62
   144
370
    18
100
AcDbLine
 10
37.5363691749
 20
22.8970620137
 30
0.0
 11
37.5371435648
 21
22.8484179711
 31
0.0
  0
LINE
  5
263
330
1F
100
AcDbEntity
  8
0
  6
Continuous
 62
     7
370
    25
100
AcDbLine
 10
37.0739732351
 20
22.8484179678
 30
0.0
 11
37.0747476254
 21
22.8970620137
 31
0.0
  0
LINE
  5
264
330
1F
100
AcDbEntity
  8
0
  6
Continuous
 62
   144
370
    18
100
AcDbLine
 10
37.1184860278
 20
22.8699403789
 30
0.0
 11
37.1191728133
 21
22.9259090176
 31
0.0
  0
LINE
  5
265
330
1F
100
AcDbEntity
  8
0
  6
Continuous
 62
   144
370
    18
100
AcDbLine
 10
37.0747476143
 20
22.8970620137
 30
0.0
 11
37.1191728133
 21
22.9259090176
 31
0.0
  0
LINE
  5
266
330
1F
100
AcDbEntity
  8
0
  6
Continuous
 62
   144
370
    18
100
AcDbLine
 10
37.5393710506
 20
22.952762735
 30
0.0
 11
37.5363691749
 21
22.8970620137
 31
0.0
  0
LINE
  5
267
330
1F
100
AcDbEntity
  8
0
  6
Continuous
 62
   144
370
    18
100
AcDbLine
 10
37.4919439759
 20
22.9259090176
 30
0.0
 11
37.5393710506
 21
22.952762735
 31
0.0
  0
LINE
  5
268
330
1F
100
AcDbEntity
  8
0
  6
Continuous
 62
   144
370
    18
100
AcDbLine
 10
37.0267308712
 20
22.8699403789
 30
0.0
 11
37.0277545108
 21
22.9259090176
 31
0.0
  0
LINE
  5
269
330
1F
100
AcDbEntity
  8
0
  6
Continuous
 62
   144
370
    18
100
AcDbLine
 10
37.0277545108
 20
22.9259090176
 30
0.0
 11
37.0747476254
 21
22.8970620137
 31
0.0
  0
LINE
  5
26A
330
1F
100
AcDbEntity
  8
0
  6
Continuous
 62
   144
370
    18
100
AcDbLine
 10
36.8960894993
 20
22.8484192931
 30
0.0
 11
36.897465547
 21
22.8970620137
 31
0.0
  0
LINE
  5
26B
330
1F
100
AcDbEntity
  8
0
  6
Continuous
 62
   144
370
    18
100
AcDbLine
 10
36.9370977603
 20
22.8699403789
 30
0.0
 11
36.9384504636
 21
22.9259090176
 31
0.0
  0
LINE
  5
26C
330
1F
100
AcDbEntity
  8
0
  6
Continuous
 62
   144
370
    18
100
AcDbLine
 10
36.8974655365
 20
22.8970620137
 30
0.0
 11
36.9384504636
 21
22.9259090176
 31
0.0
  0
LINE
  5
26D
330
1F
100
AcDbEntity
  8
0
  6
Continuous
 62
   144
370
    18
100
AcDbLine
 10
36.7669049827
 20
22.8699403789
 30
0.0
 11
36.7688825026
 21
22.9259090176
 31
0.0
  0
LINE
  5
26E
330
1F
100
AcDbEntity
  8
0
  6
Continuous
 62
   144
370
    18
100
AcDbLine
 10
36.8114985239
 20
22.8484179678
 30
0.0
 11
36.8131505948
 21
22.8970620137
 31
0.0
  0
LINE
  5
26F
330
1F
100
AcDbEntity
  8
0
  6
Continuous
 62
   144
370
    18
100
AcDbLine
 10
36.7688825026
 20
22.9259090176
 30
0.0
 11
36.8131505948
 21
22.8970620137
 31
0.0
  0
LINE
  5
270
330
1F
100
AcDbEntity
  8
0
  6
Continuous
 62
   144
370
    18
100
AcDbLine
 10
37.9234762035
 20
22.8699403789
 30
0.0
 11
37.9212076858
 21
22.9259090176
 31
0.0
  0
LINE
  5
271
330
1F
100
AcDbEntity
  8
0
  6
Continuous
 62
   144
370
    18
100
AcDbLine
 10
37.9547403789
 20
22.8970620137
 30
0.0
 11
37.9569184403
 21
22.8484179711
 31
0.0
  0
LINE
  5
272
330
1F
100
AcDbEntity
  8
0
  6
Continuous
 62
   144
370
    18
100
AcDbLine
 10
37.9212076858
 20
22.9259090176
 30
0.0
 11
37.9547403789
 21
22.8970620137
 31
0.0
  0
LINE
  5
273
330
1F
100
AcDbEntity
  8
0
  6
Continuous
 62
   144
370
    18
100
AcDbLine
 10
36.6541874435
 20
22.8484192931
 30
0.0
 11
36.6563764193
 21
22.8970620137
 31
0.0
  0
LINE
  5
274
330
1F
100
AcDbEntity
  8
0
  6
Continuous
 62
   144
370
    18
100
AcDbLine
 10
36.6876405857
 20
22.8699403789
 30
0.0
 11
36.6899091034
 21
22.9259090176
 31
0.0
  0
LINE
  5
275
330
1F
100
AcDbEntity
  8
0
  6
Continuous
 62
   144
370
    18
100
AcDbLine
 10
36.6563764103
 20
22.8970620137
 30
0.0
 11
36.6899091034
 21
22.9259090176
 31
0.0
  0
LINE
  5
276
330
1F
100
AcDbEntity
  8
0
  6
Continuous
 62
   144
370
    18
100
AcDbLine
 10
38.0260064555
 20
22.8970620137
 30
0.0
 11
38.0284357335
 21
22.8484192898
 31
0.0
  0
LINE
  5
277
330
1F
100
AcDbEntity
  8
0
  6
Continuous
 62
   144
370
    18
100
AcDbLine
 10
38.0673293552
 20
22.8699403789
 30
0.0
 11
38.0645327197
 21
22.9259090176
 31
0.0
  0
LINE
  5
278
330
1F
100
AcDbEntity
  8
0
  6
Continuous
 62
   144
370
    18
100
AcDbLine
 10
38.0260064471
 20
22.8970620137
 30
0.0
 11
38.0645327197
 21
22.9259090176
 31
0.0
  0
LINE
  5
279
330
1F
100
AcDbEntity
  8
0
  6
Continuous
 62
   144
370
    18
100
AcDbLine
 10
36.4802934886
 20
22.8699403789
 30
0.0
 11
36.4833232249
 21
22.9259090176
 31
0.0
  0
LINE
  5
27A
330
1F
100
AcDbEntity
  8
0
  6
Continuous
 62
   144
370
    18
100
AcDbLine
 10
36.5166894361
 20
22.8484179678
 30
0.0
 11
36.5193273096
 21
22.8970620137
 31
0.0
  0
LINE
  5
27B
330
1F
100
AcDbEntity
  8
0
  6
Continuous
 62
   144
370
    18
100
AcDbLine
 10
36.4833232249
 20
22.9259090176
 30
0.0
 11
36.5193273096
 21
22.8970620137
 31
0.0
  0
LINE
  5
27C
330
1F
100
AcDbEntity
  8
0
  6
Continuous
 62
   144
370
    18
100
AcDbLine
 10
38.1515888257
 20
22.8970620137
 30
0.0
 11
38.1544415548
 21
22.8484192898
 31
0.0
  0
LINE
  5
27D
330
1F
100
AcDbEntity
  8
0
  6
Continuous
 62
   144
370
    18
100
AcDbLine
 10
38.1880364817
 20
22.8699403789
 30
0.0
 11
38.1847967027
 21
22.9259090176
 31
0.0
  0
LINE
  5
27E
330
1F
100
AcDbEntity
  8
0
  6
Continuous
 62
   144
370
    18
100
AcDbLine
 10
38.1515888188
 20
22.8970620137
 30
0.0
 11
38.1847967027
 21
22.9259090176
 31
0.0
  0
LINE
  5
27F
330
1F
100
AcDbEntity
  8
0
  6
Continuous
 62
   144
370
    18
100
AcDbLine
 10
36.3725833174
 20
22.8699403789
 30
0.0
 11
36.3760084825
 21
22.9259090176
 31
0.0
  0
LINE
  5
280
330
1F
100
AcDbEntity
  8
0
  6
Continuous
 62
   144
370
    18
100
AcDbLine
 10
36.403149899
 20
22.8484179678
 30
0.0
 11
36.4061674336
 21
22.8970620137
 31
0.0
  0
LINE
  5
281
330
1F
100
AcDbEntity
  8
0
  6
Continuous
 62
   144
370
    18
100
AcDbLine
 10
36.3760084825
 20
22.9259090176
 30
0.0
 11
36.4061674336
 21
22.8970620137
 31
0.0
  0
LINE
  5
282
330
1F
100
AcDbEntity
  8
0
  6
Continuous
 62
   144
370
    18
100
AcDbLine
 10
38.3178956674
 20
22.8699403789
 30
0.0
 11
38.3141791456
 21
22.9259090176
 31
0.0
  0
LINE
  5
283
330
1F
100
AcDbEntity
  8
0
  6
Continuous
 62
   144
370
    18
100
AcDbLine
 10
38.3226002599
 20
22.8970620137
 30
0.0
 11
38.3260125231
 21
22.8484179711
 31
0.0
  0
LINE
  5
284
330
1F
100
AcDbEntity
  8
0
  6
Continuous
 62
   144
370
    18
100
AcDbLine
 10
38.3141791456
 20
22.9259090176
 30
0.0
 11
38.3226002599
 21
22.8970620137
 31
0.0
  0
LINE
  5
285
330
1F
100
AcDbEntity
  8
0
  6
Continuous
 62
   144
370
    18
100
AcDbLine
 10
38.3466785204
 20
22.8970620137
 30
0.0
 11
38.3501890722
 21
22.8484192898
 31
0.0
  0
LINE
  5
286
330
1F
100
AcDbEntity
  8
0
  6
Continuous
 62
   144
370
    18
100
AcDbLine
 10
38.3664985072
 20
22.8699403789
 30
0.0
 11
38.3626035532
 21
22.9259090176
 31
0.0
  0
LINE
  5
287
330
1F
100
AcDbEntity
  8
0
  6
Continuous
 62
   144
370
    18
100
AcDbLine
 10
38.3466785179
 20
22.8970620137
 30
0.0
 11
38.3626035532
 21
22.9259090176
 31
0.0
  0
LINE
  5
288
330
1F
100
AcDbEntity
  8
0
  6
Continuous
 62
   144
370
    18
100
AcDbLine
 10
36.244618282
 20
22.8699403789
 30
0.0
 11
36.248513236
 21
22.9259090176
 31
0.0
  0
LINE
  5
289
330
1F
100
AcDbEntity
  8
0
  6
Continuous
 62
   144
370
    18
100
AcDbLine
 10
36.2609452232
 20
22.8484179678
 30
0.0
 11
36.2644382713
 21
22.8970620137
 31
0.0
  0
LINE
  5
28A
330
1F
100
AcDbEntity
  8
0
  6
Continuous
 62
   144
370
    18
100
AcDbLine
 10
36.248513236
 20
22.9259090176
 30
0.0
 11
36.2644382713
 21
22.8970620137
 31
0.0
  0
LINE
  5
28B
330
1F
100
AcDbEntity
  8
0
  6
Continuous
 62
     7
370
    25
100
AcDbLine
 10
36.2323510484
 20
22.8699403789
 30
0.0
 11
36.2362910382
 21
22.9259090176
 31
0.0
  0
LINE
  5
28C
330
1F
100
AcDbEntity
  8
0
  6
Continuous
 62
   144
370
    18
100
AcDbLine
 10
36.2362910382
 20
22.9259090176
 30
0.0
 11
36.2467606537
 21
22.9007252425
 31
0.0
  0
LINE
  5
28D
330
1F
100
AcDbEntity
  8
0
  6
Continuous
 62
     7
370
    25
100
AcDbLine
 10
36.2366009017
 20
22.8484179678
 30
0.0
 11
36.2379677934
 21
22.8670197385
 31
0.0
  0
LINE
  5
28E
330
1F
100
AcDbEntity
  8
0
  6
Continuous
 62
     7
370
    25
100
AcDbLine
 10
36.2282515707
 20
22.869940379
 30
0.0
 11
36.2322066106
 21
22.9259090176
 31
0.0
  0
LINE
  5
28F
330
1F
100
AcDbEntity
  8
0
  6
Continuous
 62
   144
370
    18
100
AcDbLine
 10
36.2322066106
 20
22.9259090176
 30
0.0
 11
36.2354615592
 21
22.914126041
 31
0.0
  0
LINE
  5
290
330
1F
100
AcDbEntity
  8
0
  6
Continuous
 62
   144
370
    18
100
AcDbLine
 10
38.3461568787
 20
22.8699403789
 30
0.0
 11
38.3423366035
 21
22.9259090176
 31
0.0
  0
LINE
  5
291
330
1F
100
AcDbEntity
  8
0
  6
Continuous
 62
   144
370
    18
100
AcDbLine
 10
38.2907816925
 20
22.8970620137
 30
0.0
 11
38.2940872017
 21
22.8484179711
 31
0.0
  0
LINE
  5
292
330
1F
100
AcDbEntity
  8
0
  6
Continuous
 62
   144
370
    18
100
AcDbLine
 10
38.3141791456
 20
22.9259090176
 30
0.0
 11
38.2907816925
 21
22.8970620137
 31
0.0
  0
LINE
  5
293
330
1F
100
AcDbEntity
  8
0
  6
Continuous
 62
     7
370
    25
100
AcDbLine
 10
36.403149893
 20
22.8484179678
 30
0.0
 11
36.4061674275
 21
22.8970620137
 31
0.0
  0
LINE
  5
294
330
1F
100
AcDbEntity
  8
0
  6
Continuous
 62
   144
370
    18
100
AcDbLine
 10
36.4230803075
 20
22.8699403789
 30
0.0
 11
36.4263200865
 21
22.9259090176
 31
0.0
  0
LINE
  5
295
330
1F
100
AcDbEntity
  8
0
  6
Continuous
 62
   144
370
    18
100
AcDbLine
 10
36.4263200865
 20
22.9259090176
 30
0.0
 11
36.4061674275
 21
22.8970620137
 31
0.0
  0
LINE
  5
296
330
1F
100
AcDbEntity
  8
0
  6
Continuous
 62
   144
370
    18
100
AcDbLine
 10
38.1515888188
 20
22.8970620137
 30
0.0
 11
38.154427324
 21
22.8484179711
 31
0.0
  0
LINE
  5
297
330
1F
100
AcDbEntity
  8
0
  6
Continuous
 62
   144
370
    18
100
AcDbLine
 10
38.0917894796
 20
22.8970620137
 30
0.0
 11
38.0944405713
 21
22.8484192898
 31
0.0
  0
LINE
  5
298
330
1F
100
AcDbEntity
  8
0
  6
Continuous
 62
   144
370
    18
100
AcDbLine
 10
36.543787434
 20
22.8699403789
 30
0.0
 11
36.5465840695
 21
22.9259090176
 31
0.0
  0
LINE
  5
299
330
1F
100
AcDbEntity
  8
0
  6
Continuous
 62
   144
370
    18
100
AcDbLine
 10
36.5465840695
 20
22.9259090176
 30
0.0
 11
36.5193273019
 21
22.8970620137
 31
0.0
  0
LINE
  5
29A
330
1F
100
AcDbEntity
  8
0
  6
Continuous
 62
   144
370
    18
100
AcDbLine
 10
36.6130789164
 20
22.8699403789
 30
0.0
 11
36.615621167
 21
22.9259090176
 31
0.0
  0
LINE
  5
29B
330
1F
100
AcDbEntity
  8
0
  6
Continuous
 62
   144
370
    18
100
AcDbLine
 10
36.6563764193
 20
22.8970620137
 30
0.0
 11
36.615621167
 21
22.9259090176
 31
0.0
  0
LINE
  5
29C
330
1F
100
AcDbEntity
  8
0
  6
Continuous
 62
   144
370
    18
100
AcDbLine
 10
37.8785336259
 20
22.8970620137
 30
0.0
 11
37.8804560074
 21
22.8484179711
 31
0.0
  0
LINE
  5
29D
330
1F
100
AcDbEntity
  8
0
  6
Continuous
 62
   144
370
    18
100
AcDbLine
 10
37.9212076858
 20
22.9259090176
 30
0.0
 11
37.8785336259
 21
22.8970620137
 31
0.0
  0
LINE
  5
29E
330
1F
100
AcDbEntity
  8
0
  6
Continuous
 62
     7
370
    25
100
AcDbLine
 10
36.8114985141
 20
22.8484179678
 30
0.0
 11
36.8131505848
 21
22.8970620137
 31
0.0
  0
LINE
  5
29F
330
1F
100
AcDbEntity
  8
0
  6
Continuous
 62
   144
370
    18
100
AcDbLine
 10
37.7979661944
 20
22.8970620137
 30
0.0
 11
37.7996265437
 21
22.8484192898
 31
0.0
  0
LINE
  5
2A0
330
1F
100
AcDbEntity
  8
0
  6
Continuous
 62
   144
370
    18
100
AcDbLine
 10
37.7608479319
 20
22.8699403789
 30
0.0
 11
37.7591764598
 21
22.9259090176
 31
0.0
  0
LINE
  5
2A1
330
1F
100
AcDbEntity
  8
0
  6
Continuous
 62
   144
370
    18
100
AcDbLine
 10
37.7979662044
 20
22.8970620137
 30
0.0
 11
37.7591764598
 21
22.9259090176
 31
0.0
  0
LINE
  5
2A2
330
1F
100
AcDbEntity
  8
0
  6
Continuous
 62
   144
370
    18
100
AcDbLine
 10
36.8502688573
 20
22.8699403789
 30
0.0
 11
36.8519403294
 21
22.9259090176
 31
0.0
  0
LINE
  5
2A3
330
1F
100
AcDbEntity
  8
0
  6
Continuous
 62
   144
370
    18
100
AcDbLine
 10
36.8519403294
 20
22.9259090176
 30
0.0
 11
36.8131505848
 21
22.8970620137
 31
0.0
  0
LINE
  5
2A4
330
1F
100
AcDbEntity
  8
0
  6
Continuous
 62
   144
370
    18
100
AcDbLine
 10
36.9838050476
 20
22.8484192931
 30
0.0
 11
36.9848863214
 21
22.8970620137
 31
0.0
  0
LINE
  5
2A5
330
1F
100
AcDbEntity
  8
0
  6
Continuous
 62
   144
370
    18
100
AcDbLine
 10
36.9848863322
 20
22.8970620137
 30
0.0
 11
36.9384504636
 21
22.9259090176
 31
0.0
  0
LINE
  5
2A6
330
1F
100
AcDbEntity
  8
0
  6
Continuous
 62
   144
370
    18
100
AcDbLine
 10
37.6740190289
 20
22.8699403789
 30
0.0
 11
37.6726663256
 21
22.9259090176
 31
0.0
  0
LINE
  5
2A7
330
1F
100
AcDbEntity
  8
0
  6
Continuous
 62
   144
370
    18
100
AcDbLine
 10
37.6262304571
 20
22.8970620137
 30
0.0
 11
37.6273063397
 21
22.8484179711
 31
0.0
  0
LINE
  5
2A8
330
1F
100
AcDbEntity
  8
0
  6
Continuous
 62
   144
370
    18
100
AcDbLine
 10
37.6726663256
 20
22.9259090176
 30
0.0
 11
37.6262304571
 21
22.8970620137
 31
0.0
  0
LINE
  5
2A9
330
1F
100
AcDbEntity
  8
0
  6
Continuous
 62
   144
370
    18
100
AcDbLine
 10
37.4447512614
 20
22.8970620137
 30
0.0
 11
37.4452182656
 21
22.8484179711
 31
0.0
  0
LINE
  5
2AA
330
1F
100
AcDbEntity
  8
0
  6
Continuous
 62
   144
370
    18
100
AcDbLine
 10
37.4919439759
 20
22.9259090176
 30
0.0
 11
37.4447512614
 21
22.8970620137
 31
0.0
  0
LINE
  5
2AB
330
1F
100
AcDbEntity
  8
0
  6
Continuous
 62
   144
370
    18
100
AcDbLine
 10
37.3520740171
 20
22.8970620137
 30
0.0
 11
37.3522300812
 21
22.8484179711
 31
0.0
  0
LINE
  5
2AC
330
1F
100
AcDbEntity
  8
0
  6
Continuous
 62
   144
370
    18
100
AcDbLine
 10
37.352489903
 20
23.0087094035
 30
0.0
 11
37.3987575588
 21
22.9801227569
 31
0.0
  0
LINE
  5
2AD
330
1F
100
AcDbEntity
  8
0
  6
Continuous
 62
   144
370
    18
100
AcDbLine
 10
37.3987575588
 20
22.9801227569
 30
0.0
 11
37.4460583497
 21
23.0087094035
 31
0.0
  0
LINE
  5
2AE
330
1F
100
AcDbEntity
  8
0
  6
Continuous
 62
   144
370
    18
100
AcDbLine
 10
37.4460424042
 20
23.0086997667
 30
0.0
 11
37.3999678118
 21
23.0357325725
 31
0.0
  0
LINE
  5
2AF
330
1F
100
AcDbEntity
  8
0
  6
Continuous
 62
   144
370
    18
100
AcDbLine
 10
37.3525055002
 20
23.0086997667
 30
0.0
 11
37.3999678118
 21
23.0357325725
 31
0.0
  0
LINE
  5
2B0
330
1F
100
AcDbEntity
  8
0
  6
Continuous
 62
     7
370
    25
100
AcDbLine
 10
37.3055583946
 20
22.9801227569
 30
0.0
 11
37.3055583946
 21
22.9259090176
 31
0.0
  0
LINE
  5
2B1
330
1F
100
AcDbEntity
  8
0
  6
Continuous
 62
   144
370
    18
100
AcDbLine
 10
37.2585954688
 20
23.0087094035
 30
0.0
 11
37.3055583946
 21
22.9801227569
 31
0.0
  0
LINE
  5
2B2
330
1F
100
AcDbEntity
  8
0
  6
Continuous
 62
   144
370
    18
100
AcDbLine
 10
37.2584377999
 20
22.952762735
 30
0.0
 11
37.258611402
 21
23.0087325186
 31
0.0
  0
LINE
  5
2B3
330
1F
100
AcDbEntity
  8
0
  6
Continuous
 62
   144
370
    18
100
AcDbLine
 10
37.2584377999
 20
22.952762735
 30
0.0
 11
37.3055583946
 21
22.9259090176
 31
0.0
  0
LINE
  5
2B4
330
1F
100
AcDbEntity
  8
0
  6
Continuous
 62
   144
370
    18
100
AcDbLine
 10
37.3055583946
 20
22.9259090176
 30
0.0
 11
37.3526790008
 21
22.952762735
 31
0.0
  0
LINE
  5
2B5
330
1F
100
AcDbEntity
  8
0
  6
Continuous
 62
   144
370
    18
100
AcDbLine
 10
37.3526790008
 20
22.952762735
 30
0.0
 11
37.3525053986
 21
23.0087325186
 31
0.0
  0
LINE
  5
2B6
330
1F
100
AcDbEntity
  8
0
  6
Continuous
 62
   144
370
    18
100
AcDbLine
 10
37.3055583946
 20
22.9801227569
 30
0.0
 11
37.3525213318
 21
23.0087094035
 31
0.0
  0
LINE
  5
2B7
330
1F
100
AcDbEntity
  8
0
  6
Continuous
 62
   144
370
    18
100
AcDbLine
 10
37.9280063512
 20
23.2575381358
 30
0.0
 11
37.8848961486
 21
23.2286342994
 31
0.0
  0
LINE
  5
2B8
330
1F
100
AcDbEntity
  8
0
  6
Continuous
 62
   144
370
    18
100
AcDbLine
 10
37.9302709888
 20
23.2015472624
 30
0.0
 11
37.9280057636
 21
23.2575525648
 31
0.0
  0
LINE
  5
2B9
330
1F
100
AcDbEntity
  8
0
  6
Continuous
 62
     7
370
    25
100
AcDbLine
 10
37.8870115235
 20
23.1745703054
 30
0.0
 11
37.9302709888
 21
23.2015472624
 31
0.0
  0
LINE
  5
2BA
330
1F
100
AcDbEntity
  8
0
  6
Continuous
 62
   144
370
    18
100
AcDbLine
 10
37.8848961486
 20
23.2286342994
 30
0.0
 11
37.8870115235
 21
23.1745703054
 31
0.0
  0
LINE
  5
2BB
330
1F
100
AcDbEntity
  8
0
  6
Continuous
 62
   144
370
    18
100
AcDbLine
 10
37.887020759
 20
23.1745231409
 30
0.0
 11
37.9223083177
 21
23.1457044506
 31
0.0
  0
LINE
  5
2BC
330
1F
100
AcDbEntity
  8
0
  6
Continuous
 62
   144
370
    18
100
AcDbLine
 10
37.9643697784
 20
23.1745134292
 30
0.0
 11
37.9302709888
 21
23.2015472624
 31
0.0
  0
LINE
  5
2BD
330
1F
100
AcDbEntity
  8
0
  6
Continuous
 62
   144
370
    18
100
AcDbLine
 10
37.9223083177
 20
23.1457044506
 30
0.0
 11
37.9643839575
 21
23.1745231409
 31
0.0
  0
LINE
  5
2BE
330
1F
100
AcDbEntity
  8
0
  6
Continuous
 62
   144
370
    18
100
AcDbLine
 10
38.3159823153
 20
23.1457044506
 30
0.0
 11
38.3376934887
 21
23.1745231409
 31
0.0
  0
LINE
  5
2BF
330
1F
100
AcDbEntity
  8
0
  6
Continuous
 62
   144
370
    18
100
AcDbLine
 10
38.3376861722
 20
23.1745134292
 30
0.0
 11
38.3290275919
 21
23.2015472624
 31
0.0
  0
LINE
  5
2C0
330
1F
100
AcDbEntity
  8
0
  6
Continuous
 62
   144
370
    18
100
AcDbLine
 10
38.3053956402
 20
23.1745134292
 30
0.0
 11
38.3290275919
 21
23.2015472624
 31
0.0
  0
LINE
  5
2C1
330
1F
100
AcDbEntity
  8
0
  6
Continuous
 62
   144
370
    18
100
AcDbLine
 10
38.3053920714
 20
23.1745231409
 30
0.0
 11
38.3159823153
 21
23.1457044506
 31
0.0
  0
LINE
  5
2C2
330
1F
100
AcDbEntity
  8
0
  6
Continuous
 62
   144
370
    18
100
AcDbLine
 10
36.2283449761
 20
23.2286342994
 30
0.0
 11
36.2203534993
 21
23.2575381358
 31
0.0
  0
LINE
  5
2C3
330
1F
100
AcDbEntity
  8
0
  6
Continuous
 62
   144
370
    18
100
AcDbLine
 10
36.224358667
 20
23.1745703054
 30
0.0
 11
36.2283449761
 21
23.2286342994
 31
0.0
  0
LINE
  5
2C4
330
1F
100
AcDbEntity
  8
0
  6
Continuous
 62
     7
370
    25
100
AcDbLine
 10
36.2243723909
 20
23.1745134292
 30
0.0
 11
36.2164052241
 21
23.2015472624
 31
0.0
  0
LINE
  5
2C5
330
1F
100
AcDbEntity
  8
0
  6
Continuous
 62
   144
370
    18
100
AcDbLine
 10
36.2203534993
 20
23.2575381358
 30
0.0
 11
36.2164063287
 21
23.2015629679
 31
0.0
  0
LINE
  5
2C6
330
1F
100
AcDbEntity
  8
0
  6
Continuous
 62
   144
370
    18
100
AcDbLine
 10
36.2183970157
 20
23.1947888041
 30
0.0
 11
36.2164052241
 21
23.2015472624
 31
0.0
  0
LINE
  5
2C7
330
1F
100
AcDbEntity
  8
0
  6
Continuous
 62
   144
370
    18
100
AcDbLine
 10
36.2243703975
 20
23.1745231349
 30
0.0
 11
36.2302877174
 21
23.1457044506
 31
0.0
  0
LINE
  5
2C8
330
1F
100
AcDbEntity
  8
0
  6
Continuous
 62
   144
370
    18
100
AcDbLine
 10
36.2288088864
 20
23.1529066923
 30
0.0
 11
36.2243703968
 21
23.1745231409
 31
0.0
  0
LINE
  5
2C9
330
1F
100
AcDbEntity
  8
0
  6
Continuous
 62
     7
370
    25
100
AcDbLine
 10
37.4473341626
 20
23.1185520189
 30
0.0
 11
37.4455234262
 21
23.0628220692
 31
0.0
  0
LINE
  5
2CA
330
1F
100
AcDbEntity
  8
0
  6
Continuous
 62
   144
370
    18
100
AcDbLine
 10
37.4473341626
 20
23.1185520189
 30
0.0
 11
37.49296935
 21
23.0916472381
 31
0.0
  0
LINE
  5
2CB
330
1F
100
AcDbEntity
  8
0
  6
Continuous
 62
   144
370
    18
100
AcDbLine
 10
37.49296935
 20
23.0916472381
 30
0.0
 11
37.4455234262
 21
23.0628220692
 31
0.0
  0
LINE
  5
2CC
330
1F
100
AcDbEntity
  8
0
  6
Continuous
 62
   144
370
    18
100
AcDbLine
 10
37.4473341626
 20
23.1185520189
 30
0.0
 11
37.399621812
 21
23.0916472381
 31
0.0
  0
LINE
  5
2CD
330
1F
100
AcDbEntity
  8
0
  6
Continuous
 62
   144
370
    18
100
AcDbLine
 10
37.4455234262
 20
23.0628220692
 30
0.0
 11
37.399621812
 21
23.0916472381
 31
0.0
  0
LINE
  5
2CE
330
1F
100
AcDbEntity
  8
0
  6
Continuous
 62
   144
370
    18
100
AcDbLine
 10
37.3525905539
 20
23.2286342994
 30
0.0
 11
37.3055583946
 21
23.2575381358
 31
0.0
  0
LINE
  5
2CF
330
1F
100
AcDbEntity
  8
0
  6
Continuous
 62
   144
370
    18
100
AcDbLine
 10
37.3527994017
 20
23.1745703054
 30
0.0
 11
37.3525905539
 21
23.2286342994
 31
0.0
  0
LINE
  5
2D0
330
1F
100
AcDbEntity
  8
0
  6
Continuous
 62
   144
370
    18
100
AcDbLine
 10
37.3527994017
 20
23.1745703054
 30
0.0
 11
37.3055583946
 21
23.2015629679
 31
0.0
  0
LINE
  5
2D1
330
1F
100
AcDbEntity
  8
0
  6
Continuous
 62
     7
370
    25
100
AcDbLine
 10
37.3055583946
 20
23.2015472624
 30
0.0
 11
37.3055583946
 21
23.2575525648
 31
0.0
  0
LINE
  5
2D2
330
1F
100
AcDbEntity
  8
0
  6
Continuous
 62
   144
370
    18
100
AcDbLine
 10
37.3055583946
 20
23.2575381358
 30
0.0
 11
37.2585262467
 21
23.2286342994
 31
0.0
  0
LINE
  5
2D3
330
1F
100
AcDbEntity
  8
0
  6
Continuous
 62
   144
370
    18
100
AcDbLine
 10
37.258317399
 20
23.1745703054
 30
0.0
 11
37.3055583946
 21
23.2015472624
 31
0.0
  0
LINE
  5
2D4
330
1F
100
AcDbEntity
  8
0
  6
Continuous
 62
   144
370
    18
100
AcDbLine
 10
37.258317399
 20
23.1745703054
 30
0.0
 11
37.2585262467
 21
23.2286342994
 31
0.0
  0
LINE
  5
2D5
330
1F
100
AcDbEntity
  8
0
  6
Continuous
 62
   144
370
    18
100
AcDbLine
 10
37.3055583946
 20
23.1457044506
 30
0.0
 11
37.352779914
 21
23.1745231409
 31
0.0
  0
LINE
  5
2D6
330
1F
100
AcDbEntity
  8
0
  6
Continuous
 62
   144
370
    18
100
AcDbLine
 10
37.3529371815
 20
23.1185520189
 30
0.0
 11
37.352763899
 21
23.1745463186
 31
0.0
  0
LINE
  5
2D7
330
1F
100
AcDbEntity
  8
0
  6
Continuous
 62
   144
370
    18
100
AcDbLine
 10
37.3529371815
 20
23.1185520189
 30
0.0
 11
37.3055583946
 21
23.0916472381
 31
0.0
  0
LINE
  5
2D8
330
1F
100
AcDbEntity
  8
0
  6
Continuous
 62
   144
370
    18
100
AcDbLine
 10
37.3055583946
 20
23.0916472381
 30
0.0
 11
37.3055583946
 21
23.1457044506
 31
0.0
  0
LINE
  5
2D9
330
1F
100
AcDbEntity
  8
0
  6
Continuous
 62
   144
370
    18
100
AcDbLine
 10
37.4460271601
 20
23.0087094035
 30
0.0
 11
37.4912474212
 21
22.9801227569
 31
0.0
  0
LINE
  5
2DA
330
1F
100
AcDbEntity
  8
0
  6
Continuous
 62
   144
370
    18
100
AcDbLine
 10
37.4912474212
 20
22.9801227569
 30
0.0
 11
37.5385260781
 21
23.0087094035
 31
0.0
  0
LINE
  5
2DB
330
1F
100
AcDbEntity
  8
0
  6
Continuous
 62
   144
370
    18
100
AcDbLine
 10
37.5385101401
 20
23.0086997667
 30
0.0
 11
37.4936587164
 21
23.0357325725
 31
0.0
  0
LINE
  5
2DC
330
1F
100
AcDbEntity
  8
0
  6
Continuous
 62
   144
370
    18
100
AcDbLine
 10
37.4460424042
 20
23.0086997667
 30
0.0
 11
37.4936587164
 21
23.0357325725
 31
0.0
  0
LINE
  5
2DD
330
1F
100
AcDbEntity
  8
0
  6
Continuous
 62
   144
370
    18
100
AcDbLine
 10
37.5389321768
 20
23.2286342994
 30
0.0
 11
37.4940022471
 21
23.2575381358
 31
0.0
  0
LINE
  5
2DE
330
1F
100
AcDbEntity
  8
0
  6
Continuous
 62
   144
370
    18
100
AcDbLine
 10
37.5389321768
 20
23.2286342994
 30
0.0
 11
37.539830067
 21
23.1745703054
 31
0.0
  0
LINE
  5
2DF
330
1F
100
AcDbEntity
  8
0
  6
Continuous
 62
   144
370
    18
100
AcDbLine
 10
37.539830067
 20
23.1745703054
 30
0.0
 11
37.494687666
 21
23.2015629679
 31
0.0
  0
LINE
  5
2E0
330
1F
100
AcDbEntity
  8
0
  6
Continuous
 62
   144
370
    18
100
AcDbLine
 10
37.494687666
 20
23.2015629679
 30
0.0
 11
37.4940022471
 21
23.2575381358
 31
0.0
  0
LINE
  5
2E1
330
1F
100
AcDbEntity
  8
0
  6
Continuous
 62
   144
370
    18
100
AcDbLine
 10
37.4922771882
 20
23.1457044506
 30
0.0
 11
37.5398088385
 21
23.1745231409
 31
0.0
  0
LINE
  5
2E2
330
1F
100
AcDbEntity
  8
0
  6
Continuous
 62
     7
370
    25
100
AcDbLine
 10
37.5397923157
 20
23.1745463186
 30
0.0
 11
37.5406521445
 21
23.1185520189
 31
0.0
  0
LINE
  5
2E3
330
1F
100
AcDbEntity
  8
0
  6
Continuous
 62
   144
370
    18
100
AcDbLine
 10
37.5406521445
 20
23.1185520189
 30
0.0
 11
37.49296935
 21
23.0916472381
 31
0.0
  0
LINE
  5
2E4
330
1F
100
AcDbEntity
  8
0
  6
Continuous
 62
   144
370
    18
100
AcDbLine
 10
37.49296935
 20
23.0916472381
 30
0.0
 11
37.4922771882
 21
23.1457044506
 31
0.0
  0
LINE
  5
2E5
330
1F
100
AcDbEntity
  8
0
  6
Continuous
 62
   144
370
    18
100
AcDbLine
 10
37.5848905774
 20
23.0916472381
 30
0.0
 11
37.5838589245
 21
23.1457044506
 31
0.0
  0
LINE
  5
2E6
330
1F
100
AcDbEntity
  8
0
  6
Continuous
 62
   144
370
    18
100
AcDbLine
 10
37.5397779659
 20
23.1745231409
 30
0.0
 11
37.5838589245
 21
23.1457044506
 31
0.0
  0
LINE
  5
2E7
330
1F
100
AcDbEntity
  8
0
  6
Continuous
 62
   144
370
    18
100
AcDbLine
 10
37.5406521445
 20
23.1185520189
 30
0.0
 11
37.5848905774
 21
23.0916472381
 31
0.0
  0
LINE
  5
2E8
330
1F
100
AcDbEntity
  8
0
  6
Continuous
 62
     7
370
    25
100
AcDbLine
 10
37.2111489774
 20
23.0357325725
 30
0.0
 11
37.2114949772
 21
23.0916472381
 31
0.0
  0
LINE
  5
2E9
330
1F
100
AcDbEntity
  8
0
  6
Continuous
 62
   144
370
    18
100
AcDbLine
 10
37.2586453756
 20
23.0087563395
 30
0.0
 11
37.2111489774
 21
23.0357325725
 31
0.0
  0
LINE
  5
2EA
330
1F
100
AcDbEntity
  8
0
  6
Continuous
 62
   144
370
    18
100
AcDbLine
 10
37.2586453756
 20
23.0087563395
 30
0.0
 11
37.258784733
 21
23.0628220692
 31
0.0
  0
LINE
  5
2EB
330
1F
100
AcDbEntity
  8
0
  6
Continuous
 62
   144
370
    18
100
AcDbLine
 10
37.258784733
 20
23.0628220692
 30
0.0
 11
37.2114949772
 21
23.0916472381
 31
0.0
  0
LINE
  5
2EC
330
1F
100
AcDbEntity
  8
0
  6
Continuous
 62
   144
370
    18
100
AcDbLine
 10
37.1650379489
 20
23.0087563395
 30
0.0
 11
37.1655933743
 21
23.0628220692
 31
0.0
  0
LINE
  5
2ED
330
1F
100
AcDbEntity
  8
0
  6
Continuous
 62
   144
370
    18
100
AcDbLine
 10
37.1650379489
 20
23.0087563395
 30
0.0
 11
37.2111489774
 21
23.0357325725
 31
0.0
  0
LINE
  5
2EE
330
1F
100
AcDbEntity
  8
0
  6
Continuous
 62
   144
370
    18
100
AcDbLine
 10
37.2114949772
 20
23.0916472381
 30
0.0
 11
37.1655933743
 21
23.0628220692
 31
0.0
  0
LINE
  5
2EF
330
1F
100
AcDbEntity
  8
0
  6
Continuous
 62
   144
370
    18
100
AcDbLine
 10
37.2114949772
 20
23.0916472381
 30
0.0
 11
37.2118423801
 21
23.1457044506
 31
0.0
  0
LINE
  5
2F0
330
1F
100
AcDbEntity
  8
0
  6
Continuous
 62
   144
370
    18
100
AcDbLine
 10
37.2581796192
 20
23.1185520189
 30
0.0
 11
37.2114949772
 21
23.0916472381
 31
0.0
  0
LINE
  5
2F1
330
1F
100
AcDbEntity
  8
0
  6
Continuous
 62
   144
370
    18
100
AcDbLine
 10
37.2581796192
 20
23.1185520189
 30
0.0
 11
37.2583529017
 21
23.1745463186
 31
0.0
  0
LINE
  5
2F2
330
1F
100
AcDbEntity
  8
0
  6
Continuous
 62
   144
370
    18
100
AcDbLine
 10
37.2118423801
 20
23.1457044506
 30
0.0
 11
37.2583684788
 21
23.1745231409
 31
0.0
  0
LINE
  5
2F3
330
1F
100
AcDbEntity
  8
0
  6
Continuous
 62
   144
370
    18
100
AcDbLine
 10
37.5833622784
 20
22.9259090176
 30
0.0
 11
37.6262304678
 21
22.8970620137
 31
0.0
  0
LINE
  5
2F4
330
1F
100
AcDbEntity
  8
0
  6
Continuous
 62
   144
370
    18
100
AcDbLine
 10
37.6304010603
 20
22.952762735
 30
0.0
 11
37.6262304678
 21
22.8970620137
 31
0.0
  0
LINE
  5
2F5
330
1F
100
AcDbEntity
  8
0
  6
Continuous
 62
   144
370
    18
100
AcDbLine
 10
37.5833622784
 20
22.9259090176
 30
0.0
 11
37.6304010603
 21
22.952762735
 31
0.0
  0
LINE
  5
2F6
330
1F
100
AcDbEntity
  8
0
  6
Continuous
 62
   144
370
    18
100
AcDbLine
 10
37.6280093528
 20
23.0628220692
 30
0.0
 11
37.5848905774
 21
23.0916472381
 31
0.0
  0
LINE
  5
2F7
330
1F
100
AcDbEntity
  8
0
  6
Continuous
 62
   144
370
    18
100
AcDbLine
 10
37.6280093528
 20
23.0628220692
 30
0.0
 11
37.6292426846
 21
23.0087563395
 31
0.0
  0
LINE
  5
2F8
330
1F
100
AcDbEntity
  8
0
  6
Continuous
 62
   144
370
    18
100
AcDbLine
 10
37.6292426846
 20
23.0087563395
 30
0.0
 11
37.5859180639
 21
23.0357325725
 31
0.0
  0
LINE
  5
2F9
330
1F
100
AcDbEntity
  8
0
  6
Continuous
 62
   144
370
    18
100
AcDbLine
 10
37.5859180639
 20
23.0357325725
 30
0.0
 11
37.5848905774
 21
23.0916472381
 31
0.0
  0
LINE
  5
2FA
330
1F
100
AcDbEntity
  8
0
  6
Continuous
 62
   144
370
    18
100
AcDbLine
 10
37.6297913203
 20
23.2286342994
 30
0.0
 11
37.5864300894
 21
23.2575381358
 31
0.0
  0
LINE
  5
2FB
330
1F
100
AcDbEntity
  8
0
  6
Continuous
 62
     7
370
    25
100
AcDbLine
 10
37.6297913203
 20
23.2286342994
 30
0.0
 11
37.6309584656
 21
23.1745703054
 31
0.0
  0
LINE
  5
2FC
330
1F
100
AcDbEntity
  8
0
  6
Continuous
 62
   144
370
    18
100
AcDbLine
 10
37.6310247845
 20
23.1745703054
 30
0.0
 11
37.5874516923
 21
23.2015629679
 31
0.0
  0
LINE
  5
2FD
330
1F
100
AcDbEntity
  8
0
  6
Continuous
 62
   144
370
    18
100
AcDbLine
 10
37.5874516923
 20
23.2015629679
 30
0.0
 11
37.5864300894
 21
23.2575381358
 31
0.0
  0
LINE
  5
2FE
330
1F
100
AcDbEntity
  8
0
  6
Continuous
 62
   144
370
    18
100
AcDbLine
 10
37.6309584656
 20
23.1745703054
 30
0.0
 11
37.6780707181
 21
23.2015472624
 31
0.0
  0
LINE
  5
2FF
330
1F
100
AcDbEntity
  8
0
  6
Continuous
 62
   144
370
    18
100
AcDbLine
 10
37.6780707181
 20
23.2015472624
 30
0.0
 11
37.6767199781
 21
23.2575525648
 31
0.0
  0
LINE
  5
300
330
1F
100
AcDbEntity
  8
0
  6
Continuous
 62
   144
370
    18
100
AcDbLine
 10
37.6767203284
 20
23.2575381358
 30
0.0
 11
37.6297913203
 21
23.2286342994
 31
0.0
  0
LINE
  5
301
330
1F
100
AcDbEntity
  8
0
  6
Continuous
 62
   144
370
    18
100
AcDbLine
 10
37.1198693681
 20
22.9801227569
 30
0.0
 11
37.1191728133
 21
22.9259090176
 31
0.0
  0
LINE
  5
302
330
1F
100
AcDbEntity
  8
0
  6
Continuous
 62
   144
370
    18
100
AcDbLine
 10
37.1198693681
 20
22.9801227569
 30
0.0
 11
37.1650896405
 21
23.0087094035
 31
0.0
  0
LINE
  5
303
330
1F
100
AcDbEntity
  8
0
  6
Continuous
 62
   144
370
    18
100
AcDbLine
 10
37.1645552152
 20
22.952762735
 30
0.0
 11
37.1650747003
 21
23.0087325186
 31
0.0
  0
LINE
  5
304
330
1F
100
AcDbEntity
  8
0
  6
Continuous
 62
   144
370
    18
100
AcDbLine
 10
37.1191728133
 20
22.9259090176
 30
0.0
 11
37.1645552152
 21
22.952762735
 31
0.0
  0
LINE
  5
305
330
1F
100
AcDbEntity
  8
0
  6
Continuous
 62
     7
370
    25
100
AcDbLine
 10
37.1181474392
 20
23.0916472381
 30
0.0
 11
37.118839601
 21
23.1457044506
 31
0.0
  0
LINE
  5
306
330
1F
100
AcDbEntity
  8
0
  6
Continuous
 62
   144
370
    18
100
AcDbLine
 10
37.163782638
 20
23.1185520189
 30
0.0
 11
37.1181474392
 21
23.0916472381
 31
0.0
  0
LINE
  5
307
330
1F
100
AcDbEntity
  8
0
  6
Continuous
 62
   144
370
    18
100
AcDbLine
 10
37.163782638
 20
23.1185520189
 30
0.0
 11
37.1643011668
 21
23.1745463186
 31
0.0
  0
LINE
  5
308
330
1F
100
AcDbEntity
  8
0
  6
Continuous
 62
   144
370
    18
100
AcDbLine
 10
37.118839601
 20
23.1457044506
 30
0.0
 11
37.1643161874
 21
23.1745231409
 31
0.0
  0
LINE
  5
309
330
1F
100
AcDbEntity
  8
0
  6
Continuous
 62
     7
370
    25
100
AcDbLine
 10
37.070464656
 20
23.1185520189
 30
0.0
 11
37.0713244847
 21
23.1745463186
 31
0.0
  0
LINE
  5
30A
330
1F
100
AcDbEntity
  8
0
  6
Continuous
 62
   144
370
    18
100
AcDbLine
 10
37.0713079619
 20
23.1745231409
 30
0.0
 11
37.118839601
 21
23.1457044506
 31
0.0
  0
LINE
  5
30B
330
1F
100
AcDbEntity
  8
0
  6
Continuous
 62
   144
370
    18
100
AcDbLine
 10
37.070464656
 20
23.1185520189
 30
0.0
 11
37.1181474392
 21
23.0916472381
 31
0.0
  0
LINE
  5
30C
330
1F
100
AcDbEntity
  8
0
  6
Continuous
 62
   144
370
    18
100
AcDbLine
 10
37.0262262118
 20
23.0916472381
 30
0.0
 11
37.0272578647
 21
23.1457044506
 31
0.0
  0
LINE
  5
30D
330
1F
100
AcDbEntity
  8
0
  6
Continuous
 62
   144
370
    18
100
AcDbLine
 10
37.070464656
 20
23.1185520189
 30
0.0
 11
37.0262262118
 21
23.0916472381
 31
0.0
  0
LINE
  5
30E
330
1F
100
AcDbEntity
  8
0
  6
Continuous
 62
   144
370
    18
100
AcDbLine
 10
37.0272578647
 20
23.1457044506
 30
0.0
 11
37.0713388345
 21
23.1745231409
 31
0.0
  0
LINE
  5
30F
330
1F
100
AcDbEntity
  8
0
  6
Continuous
 62
   144
370
    18
100
AcDbLine
 10
37.6726663256
 20
22.9259090176
 30
0.0
 11
37.7189588212
 21
22.952762735
 31
0.0
  0
LINE
  5
310
330
1F
100
AcDbEntity
  8
0
  6
Continuous
 62
   144
370
    18
100
AcDbLine
 10
37.7174357678
 20
23.0087325186
 30
0.0
 11
37.7189588212
 21
22.952762735
 31
0.0
  0
LINE
  5
311
330
1F
100
AcDbEntity
  8
0
  6
Continuous
 62
   144
370
    18
100
AcDbLine
 10
37.6712943806
 20
22.9801227569
 30
0.0
 11
37.7174522193
 21
23.0087094035
 31
0.0
  0
LINE
  5
312
330
1F
100
AcDbEntity
  8
0
  6
Continuous
 62
   144
370
    18
100
AcDbLine
 10
37.6712943806
 20
22.9801227569
 30
0.0
 11
37.6726663256
 21
22.9259090176
 31
0.0
  0
LINE
  5
313
330
1F
100
AcDbEntity
  8
0
  6
Continuous
 62
     7
370
    25
100
AcDbLine
 10
36.9807157398
 20
22.952762735
 30
0.0
 11
36.9819125279
 21
23.0087325186
 31
0.0
  0
LINE
  5
314
330
1F
100
AcDbEntity
  8
0
  6
Continuous
 62
   144
370
    18
100
AcDbLine
 10
37.0287927114
 20
22.9801227569
 30
0.0
 11
37.0277545108
 21
22.9259090176
 31
0.0
  0
LINE
  5
315
330
1F
100
AcDbEntity
  8
0
  6
Continuous
 62
   144
370
    18
100
AcDbLine
 10
36.9818960183
 20
23.0087094035
 30
0.0
 11
37.0287927114
 21
22.9801227569
 31
0.0
  0
LINE
  5
316
330
1F
100
AcDbEntity
  8
0
  6
Continuous
 62
   144
370
    18
100
AcDbLine
 10
36.9807157398
 20
22.952762735
 30
0.0
 11
37.0277545108
 21
22.9259090176
 31
0.0
  0
LINE
  5
317
330
1F
100
AcDbEntity
  8
0
  6
Continuous
 62
   144
370
    18
100
AcDbLine
 10
36.9384504636
 20
22.9259090176
 30
0.0
 11
36.9807157398
 21
22.952762735
 31
0.0
  0
LINE
  5
318
330
1F
100
AcDbEntity
  8
0
  6
Continuous
 62
   144
370
    18
100
AcDbLine
 10
36.9398224086
 20
22.9801227569
 30
0.0
 11
36.9819260211
 21
23.0087094035
 31
0.0
  0
LINE
  5
319
330
1F
100
AcDbEntity
  8
0
  6
Continuous
 62
   144
370
    18
100
AcDbLine
 10
36.9398224086
 20
22.9801227569
 30
0.0
 11
36.9384504636
 21
22.9259090176
 31
0.0
  0
LINE
  5
31A
330
1F
100
AcDbEntity
  8
0
  6
Continuous
 62
   144
370
    18
100
AcDbLine
 10
37.0262262118
 20
23.0916472381
 30
0.0
 11
36.9831074473
 21
23.0628220692
 31
0.0
  0
LINE
  5
31B
330
1F
100
AcDbEntity
  8
0
  6
Continuous
 62
   144
370
    18
100
AcDbLine
 10
37.0251987253
 20
23.0357325725
 30
0.0
 11
37.0262262118
 21
23.0916472381
 31
0.0
  0
LINE
  5
31C
330
1F
100
AcDbEntity
  8
0
  6
Continuous
 62
   144
370
    18
100
AcDbLine
 10
36.9818741155
 20
23.0087563395
 30
0.0
 11
37.0251987253
 21
23.0357325725
 31
0.0
  0
LINE
  5
31D
330
1F
100
AcDbEntity
  8
0
  6
Continuous
 62
   144
370
    18
100
AcDbLine
 10
36.9818741155
 20
23.0087563395
 30
0.0
 11
36.9831074473
 21
23.0628220692
 31
0.0
  0
LINE
  5
31E
330
1F
100
AcDbEntity
  8
0
  6
Continuous
 62
   144
370
    18
100
AcDbLine
 10
37.7174231551
 20
23.0087094035
 30
0.0
 11
37.7574812116
 21
22.9801227569
 31
0.0
  0
LINE
  5
31F
330
1F
100
AcDbEntity
  8
0
  6
Continuous
 62
   144
370
    18
100
AcDbLine
 10
37.7574812116
 20
22.9801227569
 30
0.0
 11
37.802548896
 21
23.0087094035
 31
0.0
  0
LINE
  5
320
330
1F
100
AcDbEntity
  8
0
  6
Continuous
 62
   144
370
    18
100
AcDbLine
 10
37.8025337033
 20
23.0086997667
 30
0.0
 11
37.7633497293
 21
23.0357325725
 31
0.0
  0
LINE
  5
321
330
1F
100
AcDbEntity
  8
0
  6
Continuous
 62
   144
370
    18
100
AcDbLine
 10
37.717436659
 20
23.0086997667
 30
0.0
 11
37.7633497293
 21
23.0357325725
 31
0.0
  0
LINE
  5
322
330
1F
100
AcDbEntity
  8
0
  6
Continuous
 62
   144
370
    18
100
AcDbLine
 10
37.7616719759
 20
23.0916472381
 30
0.0
 11
37.7599874191
 21
23.1457044506
 31
0.0
  0
LINE
  5
323
330
1F
100
AcDbEntity
  8
0
  6
Continuous
 62
   144
370
    18
100
AcDbLine
 10
37.7196909668
 20
23.1745231409
 30
0.0
 11
37.7599874191
 21
23.1457044506
 31
0.0
  0
LINE
  5
324
330
1F
100
AcDbEntity
  8
0
  6
Continuous
 62
   144
370
    18
100
AcDbLine
 10
37.7197036534
 20
23.1745463186
 30
0.0
 11
37.7212239029
 21
23.1185520189
 31
0.0
  0
LINE
  5
325
330
1F
100
AcDbEntity
  8
0
  6
Continuous
 62
   144
370
    18
100
AcDbLine
 10
37.7212239029
 20
23.1185520189
 30
0.0
 11
37.7616719759
 21
23.0916472381
 31
0.0
  0
LINE
  5
326
330
1F
100
AcDbEntity
  8
0
  6
Continuous
 62
   144
370
    18
100
AcDbLine
 10
37.7641858011
 20
23.2575381358
 30
0.0
 11
37.7181828554
 21
23.2286342994
 31
0.0
  0
LINE
  5
327
330
1F
100
AcDbEntity
  8
0
  6
Continuous
 62
     7
370
    25
100
AcDbLine
 10
37.7658544143
 20
23.2015472624
 30
0.0
 11
37.7641853681
 21
23.2575525648
 31
0.0
  0
LINE
  5
328
330
1F
100
AcDbEntity
  8
0
  6
Continuous
 62
   144
370
    18
100
AcDbLine
 10
37.7196782621
 20
23.1745703054
 30
0.0
 11
37.7658544143
 21
23.2015472624
 31
0.0
  0
LINE
  5
329
330
1F
100
AcDbEntity
  8
0
  6
Continuous
 62
   144
370
    18
100
AcDbLine
 10
37.7181828554
 20
23.2286342994
 30
0.0
 11
37.7196782621
 21
23.1745703054
 31
0.0
  0
LINE
  5
32A
330
1F
100
AcDbEntity
  8
0
  6
Continuous
 62
   144
370
    18
100
AcDbLine
 10
37.8053080367
 20
23.1745703054
 30
0.0
 11
37.7658539475
 21
23.2015629679
 31
0.0
  0
LINE
  5
32B
330
1F
100
AcDbEntity
  8
0
  6
Continuous
 62
   144
370
    18
100
AcDbLine
 10
37.8034340693
 20
23.2286342994
 30
0.0
 11
37.8053080367
 21
23.1745703054
 31
0.0
  0
LINE
  5
32C
330
1F
100
AcDbEntity
  8
0
  6
Continuous
 62
   144
370
    18
100
AcDbLine
 10
37.8034340693
 20
23.2286342994
 30
0.0
 11
37.7641858011
 21
23.2575381358
 31
0.0
  0
LINE
  5
32D
330
1F
100
AcDbEntity
  8
0
  6
Continuous
 62
     7
370
    25
100
AcDbLine
 10
36.9801297624
 20
23.1745134292
 30
0.0
 11
36.9330460711
 21
23.2015472624
 31
0.0
  0
LINE
  5
32E
330
1F
100
AcDbEntity
  8
0
  6
Continuous
 62
   144
370
    18
100
AcDbLine
 10
36.9377941635
 20
23.1457044506
 30
0.0
 11
36.9801440339
 21
23.1745231409
 31
0.0
  0
LINE
  5
32F
330
1F
100
AcDbEntity
  8
0
  6
Continuous
 62
   144
370
    18
100
AcDbLine
 10
36.8914122535
 20
23.1745134292
 30
0.0
 11
36.9330460711
 21
23.2015472624
 31
0.0
  0
LINE
  5
330
330
1F
100
AcDbEntity
  8
0
  6
Continuous
 62
   144
370
    18
100
AcDbLine
 10
36.891396618
 20
23.1745231409
 30
0.0
 11
36.9377941635
 21
23.1457044506
 31
0.0
  0
LINE
  5
331
330
1F
100
AcDbEntity
  8
0
  6
Continuous
 62
   144
370
    18
100
AcDbLine
 10
36.9330464489
 20
23.2015629679
 30
0.0
 11
36.9343964608
 21
23.2575381358
 31
0.0
  0
LINE
  5
332
330
1F
100
AcDbEntity
  8
0
  6
Continuous
 62
   144
370
    18
100
AcDbLine
 10
36.9801583345
 20
23.1745703054
 30
0.0
 11
36.9813254798
 21
23.2286342994
 31
0.0
  0
LINE
  5
333
330
1F
100
AcDbEntity
  8
0
  6
Continuous
 62
   144
370
    18
100
AcDbLine
 10
36.9813254798
 20
23.2286342994
 30
0.0
 11
36.9343964608
 21
23.2575381358
 31
0.0
  0
LINE
  5
334
330
1F
100
AcDbEntity
  8
0
  6
Continuous
 62
   144
370
    18
100
AcDbLine
 10
37.8043703552
 20
22.952762735
 30
0.0
 11
37.8422342866
 21
22.9259090176
 31
0.0
  0
LINE
  5
335
330
1F
100
AcDbEntity
  8
0
  6
Continuous
 62
   144
370
    18
100
AcDbLine
 10
37.8043703448
 20
22.9527627333
 30
0.0
 11
37.7979661945
 21
22.8970620151
 31
0.0
  0
LINE
  5
336
330
1F
100
AcDbEntity
  8
0
  6
Continuous
 62
   144
370
    18
100
AcDbLine
 10
37.7979661944
 20
22.8970620137
 30
0.0
 11
37.8422342866
 21
22.9259090176
 31
0.0
  0
LINE
  5
337
330
1F
100
AcDbEntity
  8
0
  6
Continuous
 62
   144
370
    18
100
AcDbLine
 10
37.8402286372
 20
22.9801227569
 30
0.0
 11
37.8422342866
 21
22.9259090176
 31
0.0
  0
LINE
  5
338
330
1F
100
AcDbEntity
  8
0
  6
Continuous
 62
   144
370
    18
100
AcDbLine
 10
37.8451867336
 20
23.0916472381
 30
0.0
 11
37.8431937332
 21
23.1457044506
 31
0.0
  0
LINE
  5
339
330
1F
100
AcDbEntity
  8
0
  6
Continuous
 62
   144
370
    18
100
AcDbLine
 10
37.8891658751
 20
23.1185520189
 30
0.0
 11
37.8451867336
 21
23.0916472381
 31
0.0
  0
LINE
  5
33A
330
1F
100
AcDbEntity
  8
0
  6
Continuous
 62
   144
370
    18
100
AcDbLine
 10
37.8431937332
 20
23.1457044506
 30
0.0
 11
37.8870474289
 21
23.1745231409
 31
0.0
  0
LINE
  5
33B
330
1F
100
AcDbEntity
  8
0
  6
Continuous
 62
     7
370
    25
100
AcDbLine
 10
36.8536355776
 20
22.9801227569
 30
0.0
 11
36.8519403294
 21
22.9259090176
 31
0.0
  0
LINE
  5
33C
330
1F
100
AcDbEntity
  8
0
  6
Continuous
 62
   144
370
    18
100
AcDbLine
 10
36.8519403294
 20
22.9259090176
 30
0.0
 11
36.8921579786
 21
22.952762735
 31
0.0
  0
LINE
  5
33D
330
1F
100
AcDbEntity
  8
0
  6
Continuous
 62
   144
370
    18
100
AcDbLine
 10
36.8921579786
 20
22.952762735
 30
0.0
 11
36.893681032
 21
23.0087325186
 31
0.0
  0
LINE
  5
33E
330
1F
100
AcDbEntity
  8
0
  6
Continuous
 62
   144
370
    18
100
AcDbLine
 10
36.8536355776
 20
22.9801227569
 30
0.0
 11
36.8936936447
 21
23.0087094035
 31
0.0
  0
LINE
  5
33F
330
1F
100
AcDbEntity
  8
0
  6
Continuous
 62
   144
370
    18
100
AcDbLine
 10
36.8085679033
 20
23.0087094035
 30
0.0
 11
36.8536355776
 21
22.9801227569
 31
0.0
  0
LINE
  5
340
330
1F
100
AcDbEntity
  8
0
  6
Continuous
 62
   144
370
    18
100
AcDbLine
 10
36.8067464442
 20
22.952762735
 30
0.0
 11
36.8085841714
 21
23.0087325186
 31
0.0
  0
LINE
  5
341
330
1F
100
AcDbEntity
  8
0
  6
Continuous
 62
   144
370
    18
100
AcDbLine
 10
36.8067464442
 20
22.952762735
 30
0.0
 11
36.8519403294
 21
22.9259090176
 31
0.0
  0
LINE
  5
342
330
1F
100
AcDbEntity
  8
0
  6
Continuous
 62
   144
370
    18
100
AcDbLine
 10
36.889892897
 20
23.1185520189
 30
0.0
 11
36.8494448134
 21
23.0916472381
 31
0.0
  0
LINE
  5
343
330
1F
100
AcDbEntity
  8
0
  6
Continuous
 62
   144
370
    18
100
AcDbLine
 10
36.8952017071
 20
23.0628220692
 30
0.0
 11
36.8494448134
 21
23.0916472381
 31
0.0
  0
LINE
  5
344
330
1F
100
AcDbEntity
  8
0
  6
Continuous
 62
   144
370
    18
100
AcDbLine
 10
36.8952017071
 20
23.0628220692
 30
0.0
 11
36.889892897
 21
23.1185520189
 31
0.0
  0
LINE
  5
345
330
1F
100
AcDbEntity
  8
0
  6
Continuous
 62
   144
370
    18
100
AcDbLine
 10
36.8452628418
 20
23.2015629679
 30
0.0
 11
36.8469309881
 21
23.2575381358
 31
0.0
  0
LINE
  5
346
330
1F
100
AcDbEntity
  8
0
  6
Continuous
 62
   144
370
    18
100
AcDbLine
 10
36.8914385377
 20
23.1745703054
 30
0.0
 11
36.8452628418
 21
23.2015629679
 31
0.0
  0
LINE
  5
347
330
1F
100
AcDbEntity
  8
0
  6
Continuous
 62
   144
370
    18
100
AcDbLine
 10
36.8914385377
 20
23.1745703054
 30
0.0
 11
36.8929339444
 21
23.2286342994
 31
0.0
  0
LINE
  5
348
330
1F
100
AcDbEntity
  8
0
  6
Continuous
 62
   144
370
    18
100
AcDbLine
 10
36.8929339444
 20
23.2286342994
 30
0.0
 11
36.8469309881
 21
23.2575381358
 31
0.0
  0
LINE
  5
349
330
1F
100
AcDbEntity
  8
0
  6
Continuous
 62
   144
370
    18
100
AcDbLine
 10
37.8838366429
 20
23.0087094035
 30
0.0
 11
37.9189068993
 21
22.9801227569
 31
0.0
  0
LINE
  5
34A
330
1F
100
AcDbEntity
  8
0
  6
Continuous
 62
   144
370
    18
100
AcDbLine
 10
37.9189068993
 20
22.9801227569
 30
0.0
 11
37.9607762053
 21
23.0087094035
 31
0.0
  0
LINE
  5
34B
330
1F
100
AcDbEntity
  8
0
  6
Continuous
 62
   144
370
    18
100
AcDbLine
 10
37.9607620908
 20
23.0086997667
 30
0.0
 11
37.9268716366
 21
23.0357325725
 31
0.0
  0
LINE
  5
34C
330
1F
100
AcDbEntity
  8
0
  6
Continuous
 62
   144
370
    18
100
AcDbLine
 10
37.8838484654
 20
23.0086997667
 30
0.0
 11
37.9268716366
 21
23.0357325725
 31
0.0
  0
LINE
  5
34D
330
1F
100
AcDbEntity
  8
0
  6
Continuous
 62
   144
370
    18
100
AcDbLine
 10
37.9667867257
 20
23.1185520189
 30
0.0
 11
37.9245945939
 21
23.0916472381
 31
0.0
  0
LINE
  5
34E
330
1F
100
AcDbEntity
  8
0
  6
Continuous
 62
     7
370
    25
100
AcDbLine
 10
36.7251311699
 20
22.952762735
 30
0.0
 11
36.7272695848
 21
23.0087325186
 31
0.0
  0
LINE
  5
34F
330
1F
100
AcDbEntity
  8
0
  6
Continuous
 62
   144
370
    18
100
AcDbLine
 10
36.770888152
 20
22.9801227569
 30
0.0
 11
36.7688825026
 21
22.9259090176
 31
0.0
  0
LINE
  5
350
330
1F
100
AcDbEntity
  8
0
  6
Continuous
 62
   144
370
    18
100
AcDbLine
 10
36.7272536239
 20
23.0087094035
 30
0.0
 11
36.770888152
 21
22.9801227569
 31
0.0
  0
LINE
  5
351
330
1F
100
AcDbEntity
  8
0
  6
Continuous
 62
   144
370
    18
100
AcDbLine
 10
36.7251311699
 20
22.952762735
 30
0.0
 11
36.7688825026
 21
22.9259090176
 31
0.0
  0
LINE
  5
352
330
1F
100
AcDbEntity
  8
0
  6
Continuous
 62
   144
370
    18
100
AcDbLine
 10
36.6899091034
 20
22.9259090176
 30
0.0
 11
36.7251311699
 21
22.952762735
 31
0.0
  0
LINE
  5
353
330
1F
100
AcDbEntity
  8
0
  6
Continuous
 62
   144
370
    18
100
AcDbLine
 10
36.6922098899
 20
22.9801227569
 30
0.0
 11
36.727280156
 21
23.0087094035
 31
0.0
  0
LINE
  5
354
330
1F
100
AcDbEntity
  8
0
  6
Continuous
 62
   144
370
    18
100
AcDbLine
 10
36.6922098899
 20
22.9801227569
 30
0.0
 11
36.6899091034
 21
22.9259090176
 31
0.0
  0
LINE
  5
355
330
1F
100
AcDbEntity
  8
0
  6
Continuous
 62
   144
370
    18
100
AcDbLine
 10
36.7272308752
 20
23.0087563395
 30
0.0
 11
36.7294046607
 21
23.0628220692
 31
0.0
  0
LINE
  5
356
330
1F
100
AcDbEntity
  8
0
  6
Continuous
 62
   144
370
    18
100
AcDbLine
 10
36.7272308752
 20
23.0087563395
 30
0.0
 11
36.7639451042
 21
23.0357325725
 31
0.0
  0
LINE
  5
357
330
1F
100
AcDbEntity
  8
0
  6
Continuous
 62
   144
370
    18
100
AcDbLine
 10
36.7639451042
 20
23.0357325725
 30
0.0
 11
36.7659300556
 21
23.0916472381
 31
0.0
  0
LINE
  5
358
330
1F
100
AcDbEntity
  8
0
  6
Continuous
 62
   144
370
    18
100
AcDbLine
 10
36.7659300556
 20
23.0916472381
 30
0.0
 11
36.7294046607
 21
23.0628220692
 31
0.0
  0
LINE
  5
359
330
1F
100
AcDbEntity
  8
0
  6
Continuous
 62
   144
370
    18
100
AcDbLine
 10
36.7659300556
 20
23.0916472381
 30
0.0
 11
36.767923056
 21
23.1457044506
 31
0.0
  0
LINE
  5
35A
330
1F
100
AcDbEntity
  8
0
  6
Continuous
 62
   144
370
    18
100
AcDbLine
 10
36.8040133802
 20
23.1185520189
 30
0.0
 11
36.7659300556
 21
23.0916472381
 31
0.0
  0
LINE
  5
35B
330
1F
100
AcDbEntity
  8
0
  6
Continuous
 62
   144
370
    18
100
AcDbLine
 10
36.8040133802
 20
23.1185520189
 30
0.0
 11
36.8058477243
 21
23.1745463186
 31
0.0
  0
LINE
  5
35C
330
1F
100
AcDbEntity
  8
0
  6
Continuous
 62
   144
370
    18
100
AcDbLine
 10
36.767923056
 20
23.1457044506
 30
0.0
 11
36.8058594311
 21
23.1745231409
 31
0.0
  0
LINE
  5
35D
330
1F
100
AcDbEntity
  8
0
  6
Continuous
 62
   144
370
    18
100
AcDbLine
 10
37.992917209
 20
22.9801227569
 30
0.0
 11
37.9954956222
 21
22.9259090176
 31
0.0
  0
LINE
  5
35E
330
1F
100
AcDbEntity
  8
0
  6
Continuous
 62
   144
370
    18
100
AcDbLine
 10
37.992917209
 20
22.9801227569
 30
0.0
 11
38.0327026325
 21
23.0087094035
 31
0.0
  0
LINE
  5
35F
330
1F
100
AcDbEntity
  8
0
  6
Continuous
 62
   144
370
    18
100
AcDbLine
 10
38.0326876471
 20
23.0087325186
 30
0.0
 11
38.035376449
 21
22.952762735
 31
0.0
  0
LINE
  5
360
330
1F
100
AcDbEntity
  8
0
  6
Continuous
 62
   144
370
    18
100
AcDbLine
 10
37.9954956222
 20
22.9259090176
 30
0.0
 11
38.035376449
 21
22.952762735
 31
0.0
  0
LINE
  5
361
330
1F
100
AcDbEntity
  8
0
  6
Continuous
 62
   144
370
    18
100
AcDbLine
 10
37.996729063
 20
23.1457044506
 30
0.0
 11
38.0367064258
 21
23.1745231409
 31
0.0
  0
LINE
  5
362
330
1F
100
AcDbEntity
  8
0
  6
Continuous
 62
   144
370
    18
100
AcDbLine
 10
38.0393752294
 20
23.1185520189
 30
0.0
 11
37.9992912149
 21
23.0916472381
 31
0.0
  0
LINE
  5
363
330
1F
100
AcDbEntity
  8
0
  6
Continuous
 62
   144
370
    18
100
AcDbLine
 10
37.9992912149
 20
23.0916472381
 30
0.0
 11
37.996729063
 21
23.1457044506
 31
0.0
  0
LINE
  5
364
330
1F
100
AcDbEntity
  8
0
  6
Continuous
 62
   144
370
    18
100
AcDbLine
 10
36.6865221953
 20
23.0916472381
 30
0.0
 11
36.6888084715
 21
23.1457044506
 31
0.0
  0
LINE
  5
365
330
1F
100
AcDbEntity
  8
0
  6
Continuous
 62
   144
370
    18
100
AcDbLine
 10
36.6467328408
 20
23.1745231409
 30
0.0
 11
36.6888084715
 21
23.1457044506
 31
0.0
  0
LINE
  5
366
330
1F
100
AcDbEntity
  8
0
  6
Continuous
 62
   144
370
    18
100
AcDbLine
 10
38.0645327197
 20
22.9259090176
 30
0.0
 11
38.0917894873
 21
22.8970620137
 31
0.0
  0
LINE
  5
367
330
1F
100
AcDbEntity
  8
0
  6
Continuous
 62
   144
370
    18
100
AcDbLine
 10
38.1020150409
 20
22.952762735
 30
0.0
 11
38.0917894873
 21
22.8970620137
 31
0.0
  0
LINE
  5
368
330
1F
100
AcDbEntity
  8
0
  6
Continuous
 62
   144
370
    18
100
AcDbLine
 10
38.0645327197
 20
22.9259090176
 30
0.0
 11
38.1020150409
 21
22.952762735
 31
0.0
  0
LINE
  5
369
330
1F
100
AcDbEntity
  8
0
  6
Continuous
 62
   144
370
    18
100
AcDbLine
 10
38.0326738148
 20
23.0087563395
 30
0.0
 11
38.0715152555
 21
23.0357325725
 31
0.0
  0
LINE
  5
36A
330
1F
100
AcDbEntity
  8
0
  6
Continuous
 62
   144
370
    18
100
AcDbLine
 10
38.0715152555
 20
23.0357325725
 30
0.0
 11
38.0687081103
 21
23.0916472381
 31
0.0
  0
LINE
  5
36B
330
1F
100
AcDbEntity
  8
0
  6
Continuous
 62
   144
370
    18
100
AcDbLine
 10
38.1005200664
 20
23.2286342994
 30
0.0
 11
38.0729141351
 21
23.2575381358
 31
0.0
  0
LINE
  5
36C
330
1F
100
AcDbEntity
  8
0
  6
Continuous
 62
   144
370
    18
100
AcDbLine
 10
38.1005200664
 20
23.2286342994
 30
0.0
 11
38.1034864903
 21
23.1745703054
 31
0.0
  0
LINE
  5
36D
330
1F
100
AcDbEntity
  8
0
  6
Continuous
 62
   144
370
    18
100
AcDbLine
 10
38.1034864903
 20
23.1745703054
 30
0.0
 11
38.0757052061
 21
23.2015629679
 31
0.0
  0
LINE
  5
36E
330
1F
100
AcDbEntity
  8
0
  6
Continuous
 62
   144
370
    18
100
AcDbLine
 10
38.0757052061
 20
23.2015629679
 30
0.0
 11
38.0729141351
 21
23.2575381358
 31
0.0
  0
LINE
  5
36F
330
1F
100
AcDbEntity
  8
0
  6
Continuous
 62
   144
370
    18
100
AcDbLine
 10
36.6181995802
 20
22.9801227569
 30
0.0
 11
36.615621167
 21
22.9259090176
 31
0.0
  0
LINE
  5
370
330
1F
100
AcDbEntity
  8
0
  6
Continuous
 62
   144
370
    18
100
AcDbLine
 10
36.5757403487
 20
22.952762735
 30
0.0
 11
36.5784291505
 21
23.0087325186
 31
0.0
  0
LINE
  5
371
330
1F
100
AcDbEntity
  8
0
  6
Continuous
 62
   144
370
    18
100
AcDbLine
 10
36.6092737699
 20
23.0357325725
 30
0.0
 11
36.6118255743
 21
23.0916472381
 31
0.0
  0
LINE
  5
372
330
1F
100
AcDbEntity
  8
0
  6
Continuous
 62
   144
370
    18
100
AcDbLine
 10
36.6503730746
 20
23.0087563395
 30
0.0
 11
36.6092737699
 21
23.0357325725
 31
0.0
  0
LINE
  5
373
330
1F
100
AcDbEntity
  8
0
  6
Continuous
 62
   144
370
    18
100
AcDbLine
 10
36.6503730746
 20
23.0087563395
 30
0.0
 11
36.6527751701
 21
23.0628220692
 31
0.0
  0
LINE
  5
374
330
1F
100
AcDbEntity
  8
0
  6
Continuous
 62
   144
370
    18
100
AcDbLine
 10
36.6527751701
 20
23.0628220692
 30
0.0
 11
36.6118255743
 21
23.0916472381
 31
0.0
  0
LINE
  5
375
330
1F
100
AcDbEntity
  8
0
  6
Continuous
 62
   144
370
    18
100
AcDbLine
 10
36.5743879036
 20
23.1745703054
 30
0.0
 11
36.5771102404
 21
23.2286342994
 31
0.0
  0
LINE
  5
376
330
1F
100
AcDbEntity
  8
0
  6
Continuous
 62
   144
370
    18
100
AcDbLine
 10
36.5743879036
 20
23.1745703054
 30
0.0
 11
36.6054642315
 21
23.2015472624
 31
0.0
  0
LINE
  5
377
330
1F
100
AcDbEntity
  8
0
  6
Continuous
 62
   144
370
    18
100
AcDbLine
 10
36.6054642315
 20
23.2015472624
 30
0.0
 11
36.6080027924
 21
23.2575525648
 31
0.0
  0
LINE
  5
378
330
1F
100
AcDbEntity
  8
0
  6
Continuous
 62
   144
370
    18
100
AcDbLine
 10
36.6080021339
 20
23.2575381358
 30
0.0
 11
36.5771102404
 21
23.2286342994
 31
0.0
  0
LINE
  5
379
330
1F
100
AcDbEntity
  8
0
  6
Continuous
 62
   144
370
    18
100
AcDbLine
 10
38.1277935643
 20
22.9259090176
 30
0.0
 11
38.1625921167
 21
22.952762735
 31
0.0
  0
LINE
  5
37A
330
1F
100
AcDbEntity
  8
0
  6
Continuous
 62
   144
370
    18
100
AcDbLine
 10
38.1594346258
 20
23.0087325186
 30
0.0
 11
38.1625921167
 21
22.952762735
 31
0.0
  0
LINE
  5
37B
330
1F
100
AcDbEntity
  8
0
  6
Continuous
 62
   144
370
    18
100
AcDbLine
 10
38.124720731
 20
22.9801227569
 30
0.0
 11
38.1594481804
 21
23.0087094035
 31
0.0
  0
LINE
  5
37C
330
1F
100
AcDbEntity
  8
0
  6
Continuous
 62
   144
370
    18
100
AcDbLine
 10
38.124720731
 20
22.9801227569
 30
0.0
 11
38.1277935643
 21
22.9259090176
 31
0.0
  0
LINE
  5
37D
330
1F
100
AcDbEntity
  8
0
  6
Continuous
 62
   144
370
    18
100
AcDbLine
 10
38.1063789439
 20
23.1185520189
 30
0.0
 11
38.1323169755
 21
23.0916472381
 31
0.0
  0
LINE
  5
37E
330
1F
100
AcDbEntity
  8
0
  6
Continuous
 62
   144
370
    18
100
AcDbLine
 10
38.1034500334
 20
23.1745463186
 30
0.0
 11
38.1063789439
 21
23.1185520189
 31
0.0
  0
LINE
  5
37F
330
1F
100
AcDbEntity
  8
0
  6
Continuous
 62
   144
370
    18
100
AcDbLine
 10
38.1034430525
 20
23.1745231409
 30
0.0
 11
38.1292635217
 21
23.1457044506
 31
0.0
  0
LINE
  5
380
330
1F
100
AcDbEntity
  8
0
  6
Continuous
 62
   144
370
    18
100
AcDbLine
 10
38.1323169755
 20
23.0916472381
 30
0.0
 11
38.1292635217
 21
23.1457044506
 31
0.0
  0
LINE
  5
381
330
1F
100
AcDbEntity
  8
0
  6
Continuous
 62
   144
370
    18
100
AcDbLine
 10
36.5120217439
 20
23.0087094035
 30
0.0
 11
36.5494204862
 21
22.9801227569
 31
0.0
  0
LINE
  5
382
330
1F
100
AcDbEntity
  8
0
  6
Continuous
 62
   144
370
    18
100
AcDbLine
 10
36.5494204862
 20
22.9801227569
 30
0.0
 11
36.578437359
 21
23.0087094035
 31
0.0
  0
LINE
  5
383
330
1F
100
AcDbEntity
  8
0
  6
Continuous
 62
   144
370
    18
100
AcDbLine
 10
36.5784275771
 20
23.0086997667
 30
0.0
 11
36.5396015337
 21
23.0357325725
 31
0.0
  0
LINE
  5
384
330
1F
100
AcDbEntity
  8
0
  6
Continuous
 62
   144
370
    18
100
AcDbLine
 10
36.5120343514
 20
23.0086997667
 30
0.0
 11
36.5396015337
 21
23.0357325725
 31
0.0
  0
LINE
  5
385
330
1F
100
AcDbEntity
  8
0
  6
Continuous
 62
   144
370
    18
100
AcDbLine
 10
36.5076523808
 20
23.1745231409
 30
0.0
 11
36.5452272072
 21
23.1457044506
 31
0.0
  0
LINE
  5
386
330
1F
100
AcDbEntity
  8
0
  6
Continuous
 62
   144
370
    18
100
AcDbLine
 10
36.5076650432
 20
23.1745134292
 30
0.0
 11
36.535410802
 21
23.2015472624
 31
0.0
  0
LINE
  5
387
330
1F
100
AcDbEntity
  8
0
  6
Continuous
 62
   144
370
    18
100
AcDbLine
 10
36.5744238439
 20
23.1745134292
 30
0.0
 11
36.535410802
 21
23.2015472624
 31
0.0
  0
LINE
  5
388
330
1F
100
AcDbEntity
  8
0
  6
Continuous
 62
   144
370
    18
100
AcDbLine
 10
36.5452272072
 20
23.1457044506
 30
0.0
 11
36.5744336862
 21
23.1745231409
 31
0.0
  0
LINE
  5
389
330
1F
100
AcDbEntity
  8
0
  6
Continuous
 62
   144
370
    18
100
AcDbLine
 10
36.581113754
 20
23.0628220692
 30
0.0
 11
36.5424086789
 21
23.0916472381
 31
0.0
  0
LINE
  5
38A
330
1F
100
AcDbEntity
  8
0
  6
Continuous
 62
   144
370
    18
100
AcDbLine
 10
36.5717415683
 20
23.1185520189
 30
0.0
 11
36.5424086789
 21
23.0916472381
 31
0.0
  0
LINE
  5
38B
330
1F
100
AcDbEntity
  8
0
  6
Continuous
 62
   144
370
    18
100
AcDbLine
 10
38.2099386115
 20
23.0628220692
 30
0.0
 11
38.1896337087
 21
23.0916472381
 31
0.0
  0
LINE
  5
38C
330
1F
100
AcDbEntity
  8
0
  6
Continuous
 62
   144
370
    18
100
AcDbLine
 10
38.2099386115
 20
23.0628220692
 30
0.0
 11
38.2133234237
 21
23.0087563395
 31
0.0
  0
LINE
  5
38D
330
1F
100
AcDbEntity
  8
0
  6
Continuous
 62
   144
370
    18
100
AcDbLine
 10
38.2133234237
 20
23.0087563395
 30
0.0
 11
38.1928856627
 21
23.0357325725
 31
0.0
  0
LINE
  5
38E
330
1F
100
AcDbEntity
  8
0
  6
Continuous
 62
   144
370
    18
100
AcDbLine
 10
38.1928856627
 20
23.0357325725
 30
0.0
 11
38.1896337087
 21
23.0916472381
 31
0.0
  0
LINE
  5
38F
330
1F
100
AcDbEntity
  8
0
  6
Continuous
 62
   144
370
    18
100
AcDbLine
 10
38.1641362523
 20
23.1745463186
 30
0.0
 11
38.1672879304
 21
23.1185520189
 31
0.0
  0
LINE
  5
390
330
1F
100
AcDbEntity
  8
0
  6
Continuous
 62
   144
370
    18
100
AcDbLine
 10
38.1641306095
 20
23.1745231409
 30
0.0
 11
38.186368568
 21
23.1457044506
 31
0.0
  0
LINE
  5
391
330
1F
100
AcDbEntity
  8
0
  6
Continuous
 62
   144
370
    18
100
AcDbLine
 10
38.1896337087
 20
23.0916472381
 30
0.0
 11
38.186368568
 21
23.1457044506
 31
0.0
  0
LINE
  5
392
330
1F
100
AcDbEntity
  8
0
  6
Continuous
 62
   144
370
    18
100
AcDbLine
 10
36.4757586917
 20
23.0357325725
 30
0.0
 11
36.4787998137
 21
23.0916472381
 31
0.0
  0
LINE
  5
393
330
1F
100
AcDbEntity
  8
0
  6
Continuous
 62
   144
370
    18
100
AcDbLine
 10
36.5120466783
 20
23.0087563395
 30
0.0
 11
36.4757586917
 21
23.0357325725
 31
0.0
  0
LINE
  5
394
330
1F
100
AcDbEntity
  8
0
  6
Continuous
 62
   144
370
    18
100
AcDbLine
 10
36.5120466783
 20
23.0087563395
 30
0.0
 11
36.514965799
 21
23.0628220692
 31
0.0
  0
LINE
  5
395
330
1F
100
AcDbEntity
  8
0
  6
Continuous
 62
   144
370
    18
100
AcDbLine
 10
36.514965799
 20
23.0628220692
 30
0.0
 11
36.4787998137
 21
23.0916472381
 31
0.0
  0
LINE
  5
396
330
1F
100
AcDbEntity
  8
0
  6
Continuous
 62
   144
370
    18
100
AcDbLine
 10
36.4485246795
 20
22.952762735
 30
0.0
 11
36.4516821704
 21
23.0087325186
 31
0.0
  0
LINE
  5
397
330
1F
100
AcDbEntity
  8
0
  6
Continuous
 62
   144
370
    18
100
AcDbLine
 10
36.4516686158
 20
23.0087094035
 30
0.0
 11
36.4863960582
 21
22.9801227569
 31
0.0
  0
LINE
  5
398
330
1F
100
AcDbEntity
  8
0
  6
Continuous
 62
   144
370
    18
100
AcDbLine
 10
36.4863960582
 20
22.9801227569
 30
0.0
 11
36.4833232249
 21
22.9259090176
 31
0.0
  0
LINE
  5
399
330
1F
100
AcDbEntity
  8
0
  6
Continuous
 62
   144
370
    18
100
AcDbLine
 10
36.4469454243
 20
23.1745703054
 30
0.0
 11
36.450133359
 21
23.2286342994
 31
0.0
  0
LINE
  5
39A
330
1F
100
AcDbEntity
  8
0
  6
Continuous
 62
   144
370
    18
100
AcDbLine
 10
36.4469454243
 20
23.1745703054
 30
0.0
 11
36.4712186606
 21
23.2015472624
 31
0.0
  0
LINE
  5
39B
330
1F
100
AcDbEntity
  8
0
  6
Continuous
 62
   144
370
    18
100
AcDbLine
 10
36.4712186606
 20
23.2015472624
 30
0.0
 11
36.4742439997
 21
23.2575525648
 31
0.0
  0
LINE
  5
39C
330
1F
100
AcDbEntity
  8
0
  6
Continuous
 62
   144
370
    18
100
AcDbLine
 10
36.4742432149
 20
23.2575381358
 30
0.0
 11
36.450133359
 21
23.2286342994
 31
0.0
  0
LINE
  5
39D
330
1F
100
AcDbEntity
  8
0
  6
Continuous
 62
   144
370
    18
100
AcDbLine
 10
38.2166466485
 20
22.952762735
 30
0.0
 11
38.2351083068
 21
22.9259090176
 31
0.0
  0
LINE
  5
39E
330
1F
100
AcDbEntity
  8
0
  6
Continuous
 62
   144
370
    18
100
AcDbLine
 10
38.2049493557
 20
22.8970620137
 30
0.0
 11
38.2351083068
 21
22.9259090176
 31
0.0
  0
LINE
  5
39F
330
1F
100
AcDbEntity
  8
0
  6
Continuous
 62
     7
370
    25
100
AcDbLine
 10
38.2567122783
 20
23.0628220692
 30
0.0
 11
38.240222095
 21
23.0916472381
 31
0.0
  0
LINE
  5
3A0
330
1F
100
AcDbEntity
  8
0
  6
Continuous
 62
   144
370
    18
100
AcDbLine
 10
38.2602685568
 20
23.0087563395
 30
0.0
 11
38.2436601317
 21
23.0357325725
 31
0.0
  0
LINE
  5
3A1
330
1F
100
AcDbEntity
  8
0
  6
Continuous
 62
   144
370
    18
100
AcDbLine
 10
38.2436601317
 20
23.0357325725
 30
0.0
 11
38.240222095
 21
23.0916472381
 31
0.0
  0
LINE
  5
3A2
330
1F
100
AcDbEntity
  8
0
  6
Continuous
 62
   144
370
    18
100
AcDbLine
 10
38.2690174156
 20
23.1185520189
 30
0.0
 11
38.240222095
 21
23.0916472381
 31
0.0
  0
LINE
  5
3A3
330
1F
100
AcDbEntity
  8
0
  6
Continuous
 62
   144
370
    18
100
AcDbLine
 10
38.2453734023
 20
23.2575381358
 30
0.0
 11
38.2149365068
 21
23.2286342994
 31
0.0
  0
LINE
  5
3A4
330
1F
100
AcDbEntity
  8
0
  6
Continuous
 62
   144
370
    18
100
AcDbLine
 10
38.2487927089
 20
23.2015472624
 30
0.0
 11
38.2453725151
 21
23.2575525648
 31
0.0
  0
LINE
  5
3A5
330
1F
100
AcDbEntity
  8
0
  6
Continuous
 62
   144
370
    18
100
AcDbLine
 10
38.2182843279
 20
23.1745703054
 30
0.0
 11
38.2487927089
 21
23.2015472624
 31
0.0
  0
LINE
  5
3A6
330
1F
100
AcDbEntity
  8
0
  6
Continuous
 62
   144
370
    18
100
AcDbLine
 10
38.2149365068
 20
23.2286342994
 30
0.0
 11
38.2182843279
 21
23.1745703054
 31
0.0
  0
LINE
  5
3A7
330
1F
100
AcDbEntity
  8
0
  6
Continuous
 62
   144
370
    18
100
AcDbLine
 10
36.4296059502
 20
22.9801227569
 30
0.0
 11
36.4263200865
 21
22.9259090176
 31
0.0
  0
LINE
  5
3A8
330
1F
100
AcDbEntity
  8
0
  6
Continuous
 62
   144
370
    18
100
AcDbLine
 10
36.3978141045
 20
23.0087094035
 30
0.0
 11
36.4296059502
 21
22.9801227569
 31
0.0
  0
LINE
  5
3A9
330
1F
100
AcDbEntity
  8
0
  6
Continuous
 62
   144
370
    18
100
AcDbLine
 10
36.3944701469
 20
22.952762735
 30
0.0
 11
36.397826786
 21
23.0087325186
 31
0.0
  0
LINE
  5
3AA
330
1F
100
AcDbEntity
  8
0
  6
Continuous
 62
   144
370
    18
100
AcDbLine
 10
36.3944701469
 20
22.952762735
 30
0.0
 11
36.4263200865
 21
22.9259090176
 31
0.0
  0
LINE
  5
3AB
330
1F
100
AcDbEntity
  8
0
  6
Continuous
 62
   144
370
    18
100
AcDbLine
 10
36.4214830805
 20
23.0916472381
 30
0.0
 11
36.4247482212
 21
23.1457044506
 31
0.0
  0
LINE
  5
3AC
330
1F
100
AcDbEntity
  8
0
  6
Continuous
 62
   144
370
    18
100
AcDbLine
 10
36.4438288658
 20
23.1185520189
 30
0.0
 11
36.4214830805
 21
23.0916472381
 31
0.0
  0
LINE
  5
3AD
330
1F
100
AcDbEntity
  8
0
  6
Continuous
 62
   144
370
    18
100
AcDbLine
 10
36.4438288658
 20
23.1185520189
 30
0.0
 11
36.4469805439
 21
23.1745463186
 31
0.0
  0
LINE
  5
3AE
330
1F
100
AcDbEntity
  8
0
  6
Continuous
 62
   144
370
    18
100
AcDbLine
 10
36.4247482212
 20
23.1457044506
 30
0.0
 11
36.4469861867
 21
23.1745231409
 31
0.0
  0
LINE
  5
3AF
330
1F
100
AcDbEntity
  8
0
  6
Continuous
 62
     7
370
    25
100
AcDbLine
 10
38.2747100033
 20
22.9801227569
 30
0.0
 11
38.2783454747
 21
22.9259090176
 31
0.0
  0
LINE
  5
3B0
330
1F
100
AcDbEntity
  8
0
  6
Continuous
 62
   144
370
    18
100
AcDbLine
 10
38.2602341931
 20
23.0087094035
 30
0.0
 11
38.2747100033
 21
22.9801227569
 31
0.0
  0
LINE
  5
3B1
330
1F
100
AcDbEntity
  8
0
  6
Continuous
 62
   144
370
    18
100
AcDbLine
 10
38.2637672485
 20
22.952762735
 30
0.0
 11
38.2783454747
 21
22.9259090176
 31
0.0
  0
LINE
  5
3B2
330
1F
100
AcDbEntity
  8
0
  6
Continuous
 62
   144
370
    18
100
AcDbLine
 10
38.2783454747
 20
22.9259090176
 30
0.0
 11
38.3035953005
 21
22.952762735
 31
0.0
  0
LINE
  5
3B3
330
1F
100
AcDbEntity
  8
0
  6
Continuous
 62
   144
370
    18
100
AcDbLine
 10
38.2999183245
 20
23.0087325186
 30
0.0
 11
38.3035953005
 21
22.952762735
 31
0.0
  0
LINE
  5
3B4
330
1F
100
AcDbEntity
  8
0
  6
Continuous
 62
   144
370
    18
100
AcDbLine
 10
38.2747100033
 20
22.9801227569
 30
0.0
 11
38.2999289777
 21
23.0087094035
 31
0.0
  0
LINE
  5
3B5
330
1F
100
AcDbEntity
  8
0
  6
Continuous
 62
   144
370
    18
100
AcDbLine
 10
38.2800845825
 20
23.1457044506
 30
0.0
 11
38.3054041727
 21
23.1745231409
 31
0.0
  0
LINE
  5
3B6
330
1F
100
AcDbEntity
  8
0
  6
Continuous
 62
   144
370
    18
100
AcDbLine
 10
38.3053934845
 20
23.1745463186
 30
0.0
 11
38.3090636914
 21
23.1185520189
 31
0.0
  0
LINE
  5
3B7
330
1F
100
AcDbEntity
  8
0
  6
Continuous
 62
   144
370
    18
100
AcDbLine
 10
38.3090636914
 20
23.1185520189
 30
0.0
 11
38.2836971261
 21
23.0916472381
 31
0.0
  0
LINE
  5
3B8
330
1F
100
AcDbEntity
  8
0
  6
Continuous
 62
   144
370
    18
100
AcDbLine
 10
38.2836971261
 20
23.0916472381
 30
0.0
 11
38.2800845825
 21
23.1457044506
 31
0.0
  0
LINE
  5
3B9
330
1F
100
AcDbEntity
  8
0
  6
Continuous
 62
   144
370
    18
100
AcDbLine
 10
36.3708946942
 20
23.0916472381
 30
0.0
 11
36.3544045161
 21
23.0628220692
 31
0.0
  0
LINE
  5
3BA
330
1F
100
AcDbEntity
  8
0
  6
Continuous
 62
   144
370
    18
100
AcDbLine
 10
36.3674566575
 20
23.0357325725
 30
0.0
 11
36.3708946942
 21
23.0916472381
 31
0.0
  0
LINE
  5
3BB
330
1F
100
AcDbEntity
  8
0
  6
Continuous
 62
   144
370
    18
100
AcDbLine
 10
36.3508482377
 20
23.0087563395
 30
0.0
 11
36.3674566575
 21
23.0357325725
 31
0.0
  0
LINE
  5
3BC
330
1F
100
AcDbEntity
  8
0
  6
Continuous
 62
   144
370
    18
100
AcDbLine
 10
36.3508482377
 20
23.0087563395
 30
0.0
 11
36.3544045161
 21
23.0628220692
 31
0.0
  0
LINE
  5
3BD
330
1F
100
AcDbEntity
  8
0
  6
Continuous
 62
   144
370
    18
100
AcDbLine
 10
36.3743466722
 20
23.1457044506
 30
0.0
 11
36.3928328819
 21
23.1745231409
 31
0.0
  0
LINE
  5
3BE
330
1F
100
AcDbEntity
  8
0
  6
Continuous
 62
   144
370
    18
100
AcDbLine
 10
36.3928266522
 20
23.1745134292
 30
0.0
 11
36.3623240803
 21
23.2015472624
 31
0.0
  0
LINE
  5
3BF
330
1F
100
AcDbEntity
  8
0
  6
Continuous
 62
   144
370
    18
100
AcDbLine
 10
36.3456210514
 20
23.1745134292
 30
0.0
 11
36.3623240803
 21
23.2015472624
 31
0.0
  0
LINE
  5
3C0
330
1F
100
AcDbEntity
  8
0
  6
Continuous
 62
   144
370
    18
100
AcDbLine
 10
36.3456113679
 20
23.1745231409
 30
0.0
 11
36.3743466722
 21
23.1457044506
 31
0.0
  0
LINE
  5
3C1
330
1F
100
AcDbEntity
  8
0
  6
Continuous
 62
   144
370
    18
100
AcDbLine
 10
38.2999169389
 20
23.0087094035
 30
0.0
 11
38.3104097576
 21
22.9801227569
 31
0.0
  0
LINE
  5
3C2
330
1F
100
AcDbEntity
  8
0
  6
Continuous
 62
   144
370
    18
100
AcDbLine
 10
38.3104097576
 20
22.9801227569
 30
0.0
 11
38.3320414725
 21
23.0087093995
 31
0.0
  0
LINE
  5
3C3
330
1F
100
AcDbEntity
  8
0
  6
Continuous
 62
   144
370
    18
100
AcDbLine
 10
38.3320341833
 20
23.0086997667
 30
0.0
 11
38.3234584193
 21
23.0357325725
 31
0.0
  0
LINE
  5
3C4
330
1F
100
AcDbEntity
  8
0
  6
Continuous
 62
   144
370
    18
100
AcDbLine
 10
38.2999204761
 20
23.0086997667
 30
0.0
 11
38.3234584193
 21
23.0357325725
 31
0.0
  0
LINE
  5
3C5
330
1F
100
AcDbEntity
  8
0
  6
Continuous
 62
   144
370
    18
100
AcDbLine
 10
36.3327713145
 20
22.9259090176
 30
0.0
 11
36.359651805
 21
22.8970620137
 31
0.0
  0
LINE
  5
3C6
330
1F
100
AcDbEntity
  8
0
  6
Continuous
 62
   144
370
    18
100
AcDbLine
 10
36.359651805
 20
22.8970620137
 30
0.0
 11
36.347349546
 21
22.952762735
 31
0.0
  0
LINE
  5
3C7
330
1F
100
AcDbEntity
  8
0
  6
Continuous
 62
   144
370
    18
100
AcDbLine
 10
36.3327713145
 20
22.9259090176
 30
0.0
 11
36.347349546
 21
22.952762735
 31
0.0
  0
LINE
  5
3C8
330
1F
100
AcDbEntity
  8
0
  6
Continuous
 62
     7
370
    25
100
AcDbLine
 10
36.3184503949
 20
23.2015472624
 30
0.0
 11
36.3220296759
 21
23.2575525648
 31
0.0
  0
LINE
  5
3C9
330
1F
100
AcDbEntity
  8
0
  6
Continuous
 62
   144
370
    18
100
AcDbLine
 10
36.3456235744
 20
23.1745703054
 30
0.0
 11
36.318451396
 21
23.2015629679
 31
0.0
  0
LINE
  5
3CA
330
1F
100
AcDbEntity
  8
0
  6
Continuous
 62
   144
370
    18
100
AcDbLine
 10
36.3456235744
 20
23.1745703054
 30
0.0
 11
36.3491481345
 21
23.2286342994
 31
0.0
  0
LINE
  5
3CB
330
1F
100
AcDbEntity
  8
0
  6
Continuous
 62
   144
370
    18
100
AcDbLine
 10
36.3491481345
 20
23.2286342994
 30
0.0
 11
36.3220287475
 21
23.2575381358
 31
0.0
  0
LINE
  5
3CC
330
1F
100
AcDbEntity
  8
0
  6
Continuous
 62
   144
370
    18
100
AcDbLine
 10
36.3056937542
 20
23.1745703054
 30
0.0
 11
36.3093948401
 21
23.2286342994
 31
0.0
  0
LINE
  5
3CD
330
1F
100
AcDbEntity
  8
0
  6
Continuous
 62
   144
370
    18
100
AcDbLine
 10
36.3056937542
 20
23.1745703054
 30
0.0
 11
36.3184503949
 21
23.2015472624
 31
0.0
  0
LINE
  5
3CE
330
1F
100
AcDbEntity
  8
0
  6
Continuous
 62
   144
370
    18
100
AcDbLine
 10
36.3220287475
 20
23.2575381358
 30
0.0
 11
36.3093948401
 21
23.2286342994
 31
0.0
  0
LINE
  5
3CF
330
1F
100
AcDbEntity
  8
0
  6
Continuous
 62
   144
370
    18
100
AcDbLine
 10
38.3423366035
 20
22.9259090176
 30
0.0
 11
38.3466785204
 21
22.8970620137
 31
0.0
  0
LINE
  5
3D0
330
1F
100
AcDbEntity
  8
0
  6
Continuous
 62
   144
370
    18
100
AcDbLine
 10
38.3423366035
 20
22.9259090176
 30
0.0
 11
38.3602191062
 21
22.952762735
 31
0.0
  0
LINE
  5
3D1
330
1F
100
AcDbEntity
  8
0
  6
Continuous
 62
   144
370
    18
100
AcDbLine
 10
38.3480402931
 20
23.0916472381
 30
0.0
 11
38.3282421621
 21
23.0628220692
 31
0.0
  0
LINE
  5
3D2
330
1F
100
AcDbEntity
  8
0
  6
Continuous
 62
     7
370
    25
100
AcDbLine
 10
38.3518749248
 20
23.0357325725
 30
0.0
 11
38.3480402931
 21
23.0916472381
 31
0.0
  0
LINE
  5
3D3
330
1F
100
AcDbEntity
  8
0
  6
Continuous
 62
   144
370
    18
100
AcDbLine
 10
38.3320381675
 20
23.0087563395
 30
0.0
 11
38.3518749248
 21
23.0357325725
 31
0.0
  0
LINE
  5
3D4
330
1F
100
AcDbEntity
  8
0
  6
Continuous
 62
   144
370
    18
100
AcDbLine
 10
38.3282421621
 20
23.0628220692
 30
0.0
 11
38.3320381675
 21
23.0087563395
 31
0.0
  0
LINE
  5
3D5
330
1F
100
AcDbEntity
  8
0
  6
Continuous
 62
     7
370
    25
100
AcDbLine
 10
38.3524539934
 20
23.0628220692
 30
0.0
 11
38.3563430458
 21
23.0087563395
 31
0.0
  0
LINE
  5
3D6
330
1F
100
AcDbEntity
  8
0
  6
Continuous
 62
   144
370
    18
100
AcDbLine
 10
38.3563580964
 20
23.0087563395
 30
0.0
 11
38.3518749248
 21
23.0357325725
 31
0.0
  0
LINE
  5
3D7
330
1F
100
AcDbEntity
  8
0
  6
Continuous
 62
   144
370
    18
100
AcDbLine
 10
38.3524539934
 20
23.0628220692
 30
0.0
 11
38.3480402931
 21
23.0916472381
 31
0.0
  0
LINE
  5
3D8
330
1F
100
AcDbEntity
  8
0
  6
Continuous
 62
   144
370
    18
100
AcDbLine
 10
38.3563430458
 20
23.0087563395
 30
0.0
 11
38.3723283297
 21
23.0357325725
 31
0.0
  0
LINE
  5
3D9
330
1F
100
AcDbEntity
  8
0
  6
Continuous
 62
   144
370
    18
100
AcDbLine
 10
38.3723283297
 20
23.0357325725
 30
0.0
 11
38.3684187386
 21
23.0916472381
 31
0.0
  0
LINE
  5
3DA
330
1F
100
AcDbEntity
  8
0
  6
Continuous
 62
   144
370
    18
100
AcDbLine
 10
38.3684187386
 20
23.0916472381
 30
0.0
 11
38.3524539934
 21
23.0628220692
 31
0.0
  0
LINE
  5
3DB
330
1F
100
AcDbEntity
  8
0
  6
Continuous
 62
     7
370
    25
100
AcDbLine
 10
38.3575995708
 20
23.2015472624
 30
0.0
 11
38.3537848403
 21
23.2575525648
 31
0.0
  0
LINE
  5
3DC
330
1F
100
AcDbEntity
  8
0
  6
Continuous
 62
   144
370
    18
100
AcDbLine
 10
38.3338938408
 20
23.2286342994
 30
0.0
 11
38.337690266
 21
23.1745703054
 31
0.0
  0
LINE
  5
3DD
330
1F
100
AcDbEntity
  8
0
  6
Continuous
 62
   144
370
    18
100
AcDbLine
 10
38.337690266
 20
23.1745703054
 30
0.0
 11
38.3575995708
 21
23.2015472624
 31
0.0
  0
LINE
  5
3DE
330
1F
100
AcDbEntity
  8
0
  6
Continuous
 62
   144
370
    18
100
AcDbLine
 10
38.3537858298
 20
23.2575381358
 30
0.0
 11
38.3338938408
 21
23.2286342994
 31
0.0
  0
LINE
  5
3DF
330
1F
100
AcDbEntity
  8
0
  6
Continuous
 62
   144
370
    18
100
AcDbLine
 10
38.3621440072
 20
23.1745703054
 30
0.0
 11
38.3575985038
 21
23.2015629679
 31
0.0
  0
LINE
  5
3E0
330
1F
100
AcDbEntity
  8
0
  6
Continuous
 62
   144
370
    18
100
AcDbLine
 10
38.3582394745
 20
23.2286342994
 30
0.0
 11
38.3621440072
 21
23.1745703054
 31
0.0
  0
LINE
  5
3E1
330
1F
100
AcDbEntity
  8
0
  6
Continuous
 62
   144
370
    18
100
AcDbLine
 10
38.3582394745
 20
23.2286342994
 30
0.0
 11
38.3537858298
 21
23.2575381358
 31
0.0
  0
LINE
  5
3E2
330
1F
100
AcDbEntity
  8
0
  6
Continuous
 62
   144
370
    18
100
AcDbLine
 10
36.3007070316
 20
22.9801227569
 30
0.0
 11
36.3111998547
 21
23.0087094035
 31
0.0
  0
LINE
  5
3E3
330
1F
100
AcDbEntity
  8
0
  6
Continuous
 62
   144
370
    18
100
AcDbLine
 10
36.3007070316
 20
22.9801227569
 30
0.0
 11
36.2969376437
 21
22.9259090176
 31
0.0
  0
LINE
  5
3E4
330
1F
100
AcDbEntity
  8
0
  6
Continuous
 62
   144
370
    18
100
AcDbLine
 10
36.2913888583
 20
23.0916472381
 30
0.0
 11
36.2951344739
 21
23.1457044506
 31
0.0
  0
LINE
  5
3E5
330
1F
100
AcDbEntity
  8
0
  6
Continuous
 62
   144
370
    18
100
AcDbLine
 10
38.3745735695
 20
23.2286342994
 30
0.0
 11
38.3742765891
 21
23.2575381358
 31
0.0
  0
LINE
  5
3E6
330
1F
100
AcDbEntity
  8
0
  6
Continuous
 62
   144
370
    18
100
AcDbLine
 10
38.3745735695
 20
23.2286342994
 30
0.0
 11
38.3785355837
 21
23.1745703054
 31
0.0
  0
LINE
  5
3E7
330
1F
100
AcDbEntity
  8
0
  6
Continuous
 62
   144
370
    18
100
AcDbLine
 10
38.3785355837
 20
23.1745703054
 30
0.0
 11
38.3781637933
 21
23.2015629679
 31
0.0
  0
LINE
  5
3E8
330
1F
100
AcDbEntity
  8
0
  6
Continuous
 62
   144
370
    18
100
AcDbLine
 10
38.3781637933
 20
23.2015629679
 30
0.0
 11
38.3742765891
 21
23.2575381358
 31
0.0
  0
LINE
  5
3E9
330
1F
100
AcDbEntity
  8
0
  6
Continuous
 62
   144
370
    18
100
AcDbLine
 10
36.2547810017
 20
23.0086997667
 30
0.0
 11
36.2592418644
 21
23.0357325725
 31
0.0
  0
LINE
  5
3EA
330
1F
100
AcDbEntity
  8
0
  6
Continuous
 62
   144
370
    18
100
AcDbLine
 10
36.2790826093
 20
23.0086997667
 30
0.0
 11
36.2592418644
 21
23.0357325725
 31
0.0
  0
LINE
  5
3EB
330
1F
100
AcDbEntity
  8
0
  6
Continuous
 62
   144
370
    18
100
AcDbLine
 10
36.2726548029
 20
22.9801227569
 30
0.0
 11
36.2790847769
 21
23.0087094035
 31
0.0
  0
LINE
  5
3EC
330
1F
100
AcDbEntity
  8
0
  6
Continuous
 62
   144
370
    18
100
AcDbLine
 10
36.2547749743
 20
23.0087094035
 30
0.0
 11
36.2726548029
 21
22.9801227569
 31
0.0
  0
LINE
  5
3ED
330
1F
100
AcDbEntity
  8
0
  6
Continuous
 62
   144
370
    18
100
AcDbLine
 10
36.2489891584
 20
23.1745231409
 30
0.0
 11
36.2669266773
 21
23.1457044506
 31
0.0
  0
LINE
  5
3EE
330
1F
100
AcDbEntity
  8
0
  6
Continuous
 62
   144
370
    18
100
AcDbLine
 10
36.2630764961
 20
23.0916472381
 30
0.0
 11
36.2669266773
 21
23.1457044506
 31
0.0
  0
LINE
  5
3EF
330
1F
100
AcDbEntity
  8
0
  6
Continuous
 62
     7
370
    25
100
AcDbLine
 10
36.2325961426
 20
23.1745231409
 30
0.0
 11
36.2466234951
 21
23.1457044506
 31
0.0
  0
LINE
  5
3F0
330
1F
100
AcDbEntity
  8
0
  6
Continuous
 62
   144
370
    18
100
AcDbLine
 10
36.2326008697
 20
23.1745134292
 30
0.0
 11
36.232951908
 21
23.2015472624
 31
0.0
  0
LINE
  5
3F1
330
1F
100
AcDbEntity
  8
0
  6
Continuous
 62
   144
370
    18
100
AcDbLine
 10
36.2489952032
 20
23.1745134292
 30
0.0
 11
36.232951908
 21
23.2015472624
 31
0.0
  0
LINE
  5
3F2
330
1F
100
AcDbEntity
  8
0
  6
Continuous
 62
   144
370
    18
100
AcDbLine
 10
36.2466234951
 20
23.1457044506
 30
0.0
 11
36.2489960027
 21
23.1745231409
 31
0.0
  0
LINE
  5
3F3
330
1F
100
AcDbEntity
  8
0
  6
Continuous
 62
   144
370
    18
100
AcDbLine
 10
36.2426980506
 20
23.0916472381
 30
0.0
 11
36.2466234951
 21
23.1457044506
 31
0.0
  0
LINE
  5
3F4
330
1F
100
AcDbEntity
  8
0
  6
Continuous
 62
   144
370
    18
100
AcDbLine
 10
36.2286645659
 20
23.1185520189
 30
0.0
 11
36.2326031831
 21
23.1745463186
 31
0.0
  0
LINE
  5
3F5
330
1F
100
AcDbEntity
  8
0
  6
Continuous
 62
   144
370
    18
100
AcDbLine
 10
36.2286645659
 20
23.1185520189
 30
0.0
 11
36.2426980506
 21
23.0916472381
 31
0.0
  0
LINE
  5
3F6
330
1F
100
AcDbEntity
  8
0
  6
Continuous
 62
   144
370
    18
100
AcDbLine
 10
37.3523320562
 20
23.0628220692
 30
0.0
 11
37.399621812
 21
23.0916472381
 31
0.0
  0
LINE
  5
3F7
330
1F
100
AcDbEntity
  8
0
  6
Continuous
 62
   144
370
    18
100
AcDbLine
 10
37.3523320562
 20
23.0628220692
 30
0.0
 11
37.3524714137
 21
23.0087563395
 31
0.0
  0
LINE
  5
3F8
330
1F
100
AcDbEntity
  8
0
  6
Continuous
 62
   144
370
    18
100
AcDbLine
 10
37.3999678118
 20
23.0357325725
 30
0.0
 11
37.399621812
 21
23.0916472381
 31
0.0
  0
LINE
  5
3F9
330
1F
100
AcDbEntity
  8
0
  6
Continuous
 62
   144
370
    18
100
AcDbLine
 10
36.6922098899
 20
22.9801227569
 30
0.0
 11
36.6503405839
 21
23.0087094035
 31
0.0
  0
LINE
  5
3FA
330
1F
100
AcDbEntity
  8
0
  6
Continuous
 62
   144
370
    18
100
AcDbLine
 10
36.6503546984
 20
23.0086997667
 30
0.0
 11
36.6842451526
 21
23.0357325725
 31
0.0
  0
LINE
  5
3FB
330
1F
100
AcDbEntity
  8
0
  6
Continuous
 62
   144
370
    18
100
AcDbLine
 10
36.7272683239
 20
23.0086997667
 30
0.0
 11
36.6842451526
 21
23.0357325725
 31
0.0
  0
LINE
  5
3FC
330
1F
100
AcDbEntity
  8
0
  6
Continuous
 62
   144
370
    18
100
AcDbLine
 10
38.1277935643
 20
22.9259090176
 30
0.0
 11
38.1020150331
 21
22.952762735
 31
0.0
  0
LINE
  5
3FD
330
1F
100
AcDbEntity
  8
0
  6
Continuous
 62
   144
370
    18
100
AcDbLine
 10
38.0990807208
 20
23.0087325186
 30
0.0
 11
38.1020150331
 21
22.952762735
 31
0.0
  0
LINE
  5
3FE
330
1F
100
AcDbEntity
  8
0
  6
Continuous
 62
   144
370
    18
100
AcDbLine
 10
38.124720731
 20
22.9801227569
 30
0.0
 11
38.099073792
 21
23.0087094035
 31
0.0
  0
LINE
  5
3FF
330
1F
100
AcDbEntity
  8
0
  6
Continuous
 62
   144
370
    18
100
AcDbLine
 10
36.8494448134
 20
23.0916472381
 30
0.0
 11
36.8511293701
 21
23.1457044506
 31
0.0
  0
LINE
  5
400
330
1F
100
AcDbEntity
  8
0
  6
Continuous
 62
   144
370
    18
100
AcDbLine
 10
36.80401337
 20
23.1185520189
 30
0.0
 11
36.8494448134
 21
23.0916472381
 31
0.0
  0
LINE
  5
401
330
1F
100
AcDbEntity
  8
0
  6
Continuous
 62
   144
370
    18
100
AcDbLine
 10
36.80401337
 20
23.1185520189
 30
0.0
 11
36.8058477141
 21
23.1745463186
 31
0.0
  0
LINE
  5
402
330
1F
100
AcDbEntity
  8
0
  6
Continuous
 62
   144
370
    18
100
AcDbLine
 10
36.8511293701
 20
23.1457044506
 30
0.0
 11
36.8058313717
 21
23.1745231409
 31
0.0
  0
LINE
  5
403
330
1F
100
AcDbEntity
  8
0
  6
Continuous
 62
   144
370
    18
100
AcDbLine
 10
37.2584377884
 20
22.952762735
 30
0.0
 11
37.2120096226
 21
22.9259090176
 31
0.0
  0
LINE
  5
404
330
1F
100
AcDbEntity
  8
0
  6
Continuous
 62
   144
370
    18
100
AcDbLine
 10
37.2584377999
 20
22.9527627333
 30
0.0
 11
37.2590427721
 21
22.8970620151
 31
0.0
  0
LINE
  5
405
330
1F
100
AcDbEntity
  8
0
  6
Continuous
 62
   144
370
    18
100
AcDbLine
 10
37.3525905425
 20
23.2286342994
 30
0.0
 11
37.4001402333
 21
23.2575381358
 31
0.0
  0
LINE
  5
406
330
1F
100
AcDbEntity
  8
0
  6
Continuous
 62
   144
370
    18
100
AcDbLine
 10
37.3525905425
 20
23.2286342994
 30
0.0
 11
37.3527299192
 21
23.1745703054
 31
0.0
  0
LINE
  5
407
330
1F
100
AcDbEntity
  8
0
  6
Continuous
 62
   144
370
    18
100
AcDbLine
 10
37.3527299192
 20
23.1745703054
 30
0.0
 11
37.4004842519
 21
23.2015629679
 31
0.0
  0
LINE
  5
408
330
1F
100
AcDbEntity
  8
0
  6
Continuous
 62
   144
370
    18
100
AcDbLine
 10
37.2583173876
 20
23.1745703054
 30
0.0
 11
37.3055583946
 21
23.2015629679
 31
0.0
  0
LINE
  5
409
330
1F
100
AcDbEntity
  8
0
  6
Continuous
 62
   144
370
    18
100
AcDbLine
 10
37.5864300894
 20
23.2575381358
 30
0.0
 11
37.5389321768
 21
23.2286342994
 31
0.0
  0
LINE
  5
40A
330
1F
100
AcDbEntity
  8
0
  6
Continuous
 62
   144
370
    18
100
AcDbLine
 10
37.5404405924
 20
23.2575525648
 30
0.0
 11
37.5389321768
 21
23.2286342994
 31
0.0
  0
LINE
  5
40B
330
1F
100
AcDbEntity
  8
0
  6
Continuous
 62
   144
370
    18
100
AcDbLine
 10
37.7181828554
 20
23.2286342994
 30
0.0
 11
37.6767203284
 21
23.2575381358
 31
0.0
  0
LINE
  5
40C
330
1F
100
AcDbEntity
  8
0
  6
Continuous
 62
   144
370
    18
100
AcDbLine
 10
37.7208498609
 20
23.2575525648
 30
0.0
 11
37.7181828554
 21
23.2286342994
 31
0.0
  0
LINE
  5
40D
330
1F
100
AcDbEntity
  8
0
  6
Continuous
 62
   144
370
    18
100
AcDbLine
 10
36.450133359
 20
23.2286342994
 30
0.0
 11
36.4166105861
 21
23.2575381358
 31
0.0
  0
LINE
  5
40E
330
1F
100
AcDbEntity
  8
0
  6
Continuous
 62
   144
370
    18
100
AcDbLine
 10
36.450133359
 20
23.2286342994
 30
0.0
 11
36.4446043043
 21
23.2575525648
 31
0.0
  0
LINE
  5
40F
330
1F
100
AcDbEntity
  8
0
  6
Continuous
 62
   144
370
    18
100
AcDbLine
 10
37.7208498502
 20
23.2575525648
 30
0.0
 11
37.7181828448
 21
23.2286342994
 31
0.0
  0
LINE
  5
410
330
1F
100
AcDbEntity
  8
0
  6
Continuous
 62
   144
370
    18
100
AcDbLine
 10
37.5874519782
 20
23.2015472624
 30
0.0
 11
37.5864298242
 21
23.2575525648
 31
0.0
  0
LINE
  5
411
330
1F
100
AcDbEntity
  8
0
  6
Continuous
 62
   144
370
    18
100
AcDbLine
 10
37.6244647769
 20
23.1786317558
 30
0.0
 11
37.5874519782
 21
23.2015472624
 31
0.0
  0
LINE
  5
412
330
1F
100
AcDbEntity
  8
0
  6
Continuous
 62
   144
370
    18
100
AcDbLine
 10
37.9280063512
 20
23.2575381358
 30
0.0
 11
37.9619491087
 21
23.2286342994
 31
0.0
  0
LINE
  5
413
330
1F
100
AcDbEntity
  8
0
  6
Continuous
 62
   144
370
    18
100
AcDbLine
 10
37.8034340591
 20
23.2286342994
 30
0.0
 11
37.8052463462
 21
23.1745703054
 31
0.0
  0
LINE
  5
414
330
1F
100
AcDbEntity
  8
0
  6
Continuous
 62
   144
370
    18
100
AcDbLine
 10
37.8052463462
 20
23.1745703054
 30
0.0
 11
37.8501344275
 21
23.2015629679
 31
0.0
  0
LINE
  5
415
330
1F
100
AcDbEntity
  8
0
  6
Continuous
 62
   144
370
    18
100
AcDbLine
 10
37.8501344275
 20
23.2015629679
 30
0.0
 11
37.8481608423
 21
23.2575381358
 31
0.0
  0
LINE
  5
416
330
1F
100
AcDbEntity
  8
0
  6
Continuous
 62
   144
370
    18
100
AcDbLine
 10
38.0757059872
 20
23.2015472624
 30
0.0
 11
38.0729134107
 21
23.2575525648
 31
0.0
  0
LINE
  5
417
330
1F
100
AcDbEntity
  8
0
  6
Continuous
 62
   144
370
    18
100
AcDbLine
 10
38.2182843218
 20
23.1745703054
 30
0.0
 11
38.2487917522
 21
23.2015629679
 31
0.0
  0
LINE
  5
418
330
1F
100
AcDbEntity
  8
0
  6
Continuous
 62
   144
370
    18
100
AcDbLine
 10
38.379478562
 20
22.9313806606
 30
0.0
 11
38.3709414352
 21
22.8970620137
 31
0.0
  0
LINE
  5
419
330
1F
100
AcDbEntity
  8
0
  6
Continuous
 62
   144
370
    18
100
AcDbLine
 10
37.4465615854
 20
22.952762735
 30
0.0
 11
37.4919439759
 21
22.9259090176
 31
0.0
  0
LINE
  5
41A
330
1F
100
AcDbEntity
  8
0
  6
Continuous
 62
   144
370
    18
100
AcDbLine
 10
37.446561574
 20
22.9527627333
 30
0.0
 11
37.4447512614
 21
22.8970620151
 31
0.0
  0
LINE
  5
41B
330
1F
100
AcDbEntity
  8
0
  6
Continuous
 62
   144
370
    18
100
AcDbLine
 10
37.4447512726
 20
22.8970620137
 30
0.0
 11
37.4452206169
 21
22.8484192898
 31
0.0
  0
LINE
  5
41C
330
1F
100
AcDbEntity
  8
0
  6
Continuous
 62
   144
370
    18
100
AcDbLine
 10
37.5843859181
 20
22.8699403789
 30
0.0
 11
37.5833622784
 21
22.9259090176
 31
0.0
  0
LINE
  5
41D
330
1F
100
AcDbEntity
  8
0
  6
Continuous
 62
   144
370
    18
100
AcDbLine
 10
37.6262304678
 20
22.8970620137
 30
0.0
 11
37.6273063502
 21
22.8484179711
 31
0.0
  0
LINE
  5
41E
330
1F
100
AcDbEntity
  8
0
  6
Continuous
 62
   144
370
    18
100
AcDbLine
 10
37.8785336354
 20
22.8970620137
 30
0.0
 11
37.88046565
 21
22.8484192898
 31
0.0
  0
LINE
  5
41F
330
1F
100
AcDbEntity
  8
0
  6
Continuous
 62
   144
370
    18
100
AcDbLine
 10
38.2049493617
 20
22.8970620137
 30
0.0
 11
38.207966896
 21
22.8484179711
 31
0.0
  0
LINE
  5
420
330
1F
100
AcDbEntity
  8
0
  6
Continuous
 62
   144
370
    18
100
AcDbLine
 10
38.1847967027
 20
22.9259090176
 30
0.0
 11
38.2049493617
 21
22.8970620137
 31
0.0
  0
LINE
  5
421
330
1F
100
AcDbEntity
  8
0
  6
Continuous
 62
   144
370
    18
100
AcDbLine
 10
36.3564623038
 20
22.8484192931
 30
0.0
 11
36.359651805
 21
22.8970620137
 31
0.0
  0
LINE
  5
422
330
1F
100
AcDbEntity
  8
0
  6
Continuous
 62
   144
370
    18
100
AcDbLine
 10
36.3596517998
 20
22.8970620137
 30
0.0
 11
36.3760084825
 21
22.9259090176
 31
0.0
  0
LINE
  5
423
330
1F
100
AcDbEntity
  8
0
  6
Continuous
 62
   144
370
    18
100
AcDbLine
 10
38.2907816968
 20
22.8970620137
 30
0.0
 11
38.2941037702
 21
22.8484192898
 31
0.0
  0
LINE
  5
424
330
1F
100
AcDbEntity
  8
0
  6
Continuous
 62
   144
370
    18
100
AcDbLine
 10
38.3226002565
 20
22.8970620137
 30
0.0
 11
38.3423366035
 21
22.9259090176
 31
0.0
  0
LINE
  5
425
330
1F
100
AcDbEntity
  8
0
  6
Continuous
 62
   144
370
    18
100
AcDbLine
 10
36.2618251328
 20
22.8608540152
 30
0.0
 11
36.2644382689
 21
22.8970620137
 31
0.0
  0
LINE
  5
426
330
1F
100
AcDbEntity
  8
0
  6
Continuous
 62
   144
370
    18
100
AcDbLine
 10
37.7136512422
 20
22.8970620137
 30
0.0
 11
37.7150204291
 21
22.8484179711
 31
0.0
  0
LINE
  5
427
330
1F
100
AcDbEntity
  8
0
  6
Continuous
 62
   144
370
    18
100
AcDbLine
 10
37.7591764598
 20
22.9259090176
 30
0.0
 11
37.7136512422
 21
22.8970620137
 31
0.0
  0
LINE
  5
428
330
1F
100
AcDbEntity
  8
0
  6
Continuous
 62
   144
370
    18
100
AcDbLine
 10
37.1658985127
 20
22.8484179678
 30
0.0
 11
37.1663655166
 21
22.8970620137
 31
0.0
  0
LINE
  5
429
330
1F
100
AcDbEntity
  8
0
  6
Continuous
 62
   144
370
    18
100
AcDbLine
 10
38.3947104605
 20
23.2015629679
 30
0.0
 11
38.3907632899
 21
23.2575381358
 31
0.0
  0
LINE
  5
42A
330
1F
100
AcDbEntity
  8
0
  6
Continuous
 62
   144
370
    18
100
AcDbLine
 10
37.4912474212
 20
22.9801227569
 30
0.0
 11
37.4919439759
 21
22.9259090176
 31
0.0
  0
LINE
  5
42B
330
1F
100
AcDbEntity
  8
0
  6
Continuous
 62
     7
370
    25
100
AcDbLine
 10
37.538509636
 20
23.0087325186
 30
0.0
 11
37.5393710506
 21
22.952762735
 31
0.0
  0
LINE
  5
42C
330
1F
100
AcDbEntity
  8
0
  6
Continuous
 62
   144
370
    18
100
AcDbLine
 10
37.5823240779
 20
22.9801227569
 30
0.0
 11
37.5833622784
 21
22.9259090176
 31
0.0
  0
LINE
  5
42D
330
1F
100
AcDbEntity
  8
0
  6
Continuous
 62
   144
370
    18
100
AcDbLine
 10
37.5393710506
 20
22.952762735
 30
0.0
 11
37.5833622784
 21
22.9259090176
 31
0.0
  0
LINE
  5
42E
330
1F
100
AcDbEntity
  8
0
  6
Continuous
 62
   144
370
    18
100
AcDbLine
 10
38.186368568
 20
23.1457044506
 30
0.0
 11
38.2183009041
 21
23.1745231409
 31
0.0
  0
LINE
  5
42F
330
1F
100
AcDbEntity
  8
0
  6
Continuous
 62
   144
370
    18
100
AcDbLine
 10
38.1641381035
 20
23.1745134292
 30
0.0
 11
38.1977404408
 21
23.2015472624
 31
0.0
  0
LINE
  5
430
330
1F
100
AcDbEntity
  8
0
  6
Continuous
 62
   144
370
    18
100
AcDbLine
 10
38.390565908
 20
23.2015629679
 30
0.0
 11
38.3866337577
 21
23.2575381358
 31
0.0
  0
LINE
  5
431
330
1F
100
AcDbEntity
  8
0
  6
Continuous
 62
   144
370
    18
100
AcDbLine
 10
37.4460421002
 20
23.0087325186
 30
0.0
 11
37.4465615854
 21
22.952762735
 31
0.0
  0
LINE
  5
432
330
1F
100
AcDbEntity
  8
0
  6
Continuous
 62
   144
370
    18
100
AcDbLine
 10
37.4004842519
 20
23.2015629679
 30
0.0
 11
37.4001402333
 21
23.2575381358
 31
0.0
  0
LINE
  5
433
330
1F
100
AcDbEntity
  8
0
  6
Continuous
 62
   144
370
    18
100
AcDbLine
 10
37.4468524007
 20
23.1745703054
 30
0.0
 11
37.4004842519
 21
23.2015629679
 31
0.0
  0
LINE
  5
434
330
1F
100
AcDbEntity
  8
0
  6
Continuous
 62
   144
370
    18
100
AcDbLine
 10
37.4946878579
 20
23.2015472624
 30
0.0
 11
37.4940020692
 21
23.2575525648
 31
0.0
  0
LINE
  5
435
330
1F
100
AcDbEntity
  8
0
  6
Continuous
 62
   144
370
    18
100
AcDbLine
 10
37.4940022471
 20
23.2575381358
 30
0.0
 11
37.4462969179
 21
23.2286342994
 31
0.0
  0
LINE
  5
436
330
1F
100
AcDbEntity
  8
0
  6
Continuous
 62
   144
370
    18
100
AcDbLine
 10
37.3527483219
 20
23.1745231409
 30
0.0
 11
37.3992744091
 21
23.1457044506
 31
0.0
  0
LINE
  5
437
330
1F
100
AcDbEntity
  8
0
  6
Continuous
 62
   144
370
    18
100
AcDbLine
 10
37.3055583946
 20
23.0357325725
 30
0.0
 11
37.3055583946
 21
23.0916472381
 31
0.0
  0
LINE
  5
438
330
1F
100
AcDbEntity
  8
0
  6
Continuous
 62
   144
370
    18
100
AcDbLine
 10
37.3525408962
 20
23.0087563395
 30
0.0
 11
37.3055583946
 21
23.0357325725
 31
0.0
  0
LINE
  5
439
330
1F
100
AcDbEntity
  8
0
  6
Continuous
 62
   144
370
    18
100
AcDbLine
 10
37.3525408962
 20
23.0087563395
 30
0.0
 11
37.3523320676
 21
23.0628220692
 31
0.0
  0
LINE
  5
43A
330
1F
100
AcDbEntity
  8
0
  6
Continuous
 62
   144
370
    18
100
AcDbLine
 10
37.3523320676
 20
23.0628220692
 30
0.0
 11
37.3055583946
 21
23.0916472381
 31
0.0
  0
LINE
  5
43B
330
1F
100
AcDbEntity
  8
0
  6
Continuous
 62
   144
370
    18
100
AcDbLine
 10
37.2583368867
 20
23.1745231409
 30
0.0
 11
37.3055583946
 21
23.1457044506
 31
0.0
  0
LINE
  5
43C
330
1F
100
AcDbEntity
  8
0
  6
Continuous
 62
   144
370
    18
100
AcDbLine
 10
37.5376495665
 20
23.0628220692
 30
0.0
 11
37.49296935
 21
23.0916472381
 31
0.0
  0
LINE
  5
43D
330
1F
100
AcDbEntity
  8
0
  6
Continuous
 62
   144
370
    18
100
AcDbLine
 10
37.5376495665
 20
23.0628220692
 30
0.0
 11
37.5385473615
 21
23.0087563395
 31
0.0
  0
LINE
  5
43E
330
1F
100
AcDbEntity
  8
0
  6
Continuous
 62
   144
370
    18
100
AcDbLine
 10
37.4936587164
 20
23.0357325725
 30
0.0
 11
37.49296935
 21
23.0916472381
 31
0.0
  0
LINE
  5
43F
330
1F
100
AcDbEntity
  8
0
  6
Continuous
 62
   144
370
    18
100
AcDbLine
 10
37.4468156338
 20
23.1745463186
 30
0.0
 11
37.4473341626
 21
23.1185520189
 31
0.0
  0
LINE
  5
440
330
1F
100
AcDbEntity
  8
0
  6
Continuous
 62
   144
370
    18
100
AcDbLine
 10
37.4468006132
 20
23.1745231409
 30
0.0
 11
37.4922771882
 21
23.1457044506
 31
0.0
  0
LINE
  5
441
330
1F
100
AcDbEntity
  8
0
  6
Continuous
 62
   144
370
    18
100
AcDbLine
 10
37.1642848358
 20
23.1745231409
 30
0.0
 11
37.2118423801
 21
23.1457044506
 31
0.0
  0
LINE
  5
442
330
1F
100
AcDbEntity
  8
0
  6
Continuous
 62
     7
370
    25
100
AcDbLine
 10
37.1642643999
 20
23.1745703054
 30
0.0
 11
37.2106324411
 21
23.2015472624
 31
0.0
  0
LINE
  5
443
330
1F
100
AcDbEntity
  8
0
  6
Continuous
 62
     7
370
    25
100
AcDbLine
 10
37.1643333422
 20
23.1745703054
 30
0.0
 11
37.1648198826
 21
23.2286342994
 31
0.0
  0
LINE
  5
444
330
1F
100
AcDbEntity
  8
0
  6
Continuous
 62
   144
370
    18
100
AcDbLine
 10
37.1164291232
 20
23.2015629679
 30
0.0
 11
37.1171145421
 21
23.2575381358
 31
0.0
  0
LINE
  5
445
330
1F
100
AcDbEntity
  8
0
  6
Continuous
 62
   144
370
    18
100
AcDbLine
 10
37.1643333422
 20
23.1745703054
 30
0.0
 11
37.1164291232
 21
23.2015629679
 31
0.0
  0
LINE
  5
446
330
1F
100
AcDbEntity
  8
0
  6
Continuous
 62
   144
370
    18
100
AcDbLine
 10
37.632180921
 20
23.1185520189
 30
0.0
 11
37.5848905774
 21
23.0916472381
 31
0.0
  0
LINE
  5
447
330
1F
100
AcDbEntity
  8
0
  6
Continuous
 62
   144
370
    18
100
AcDbLine
 10
37.6309863361
 20
23.1745463186
 30
0.0
 11
37.632180921
 21
23.1185520189
 31
0.0
  0
LINE
  5
448
330
1F
100
AcDbEntity
  8
0
  6
Continuous
 62
   144
370
    18
100
AcDbLine
 10
37.5838589245
 20
23.1457044506
 30
0.0
 11
37.6310029249
 21
23.1745231409
 31
0.0
  0
LINE
  5
449
330
1F
100
AcDbEntity
  8
0
  6
Continuous
 62
   144
370
    18
100
AcDbLine
 10
37.0734672338
 20
23.0628220692
 30
0.0
 11
37.0262262118
 21
23.0916472381
 31
0.0
  0
LINE
  5
44A
330
1F
100
AcDbEntity
  8
0
  6
Continuous
 62
   144
370
    18
100
AcDbLine
 10
37.6291763657
 20
23.0087563395
 30
0.0
 11
37.676043705
 21
23.0357325725
 31
0.0
  0
LINE
  5
44B
330
1F
100
AcDbEntity
  8
0
  6
Continuous
 62
   144
370
    18
100
AcDbLine
 10
37.6746859183
 20
23.0916472381
 30
0.0
 11
37.6280093528
 21
23.0628220692
 31
0.0
  0
LINE
  5
44C
330
1F
100
AcDbEntity
  8
0
  6
Continuous
 62
   144
370
    18
100
AcDbLine
 10
37.0713546223
 20
23.1745703054
 30
0.0
 11
37.0236650969
 21
23.2015629679
 31
0.0
  0
LINE
  5
44D
330
1F
100
AcDbEntity
  8
0
  6
Continuous
 62
   144
370
    18
100
AcDbLine
 10
37.0713546223
 20
23.1745703054
 30
0.0
 11
37.0721846236
 21
23.2286342994
 31
0.0
  0
LINE
  5
44E
330
1F
100
AcDbEntity
  8
0
  6
Continuous
 62
   144
370
    18
100
AcDbLine
 10
37.0721846236
 20
23.2286342994
 30
0.0
 11
37.0246866999
 21
23.2575381358
 31
0.0
  0
LINE
  5
44F
330
1F
100
AcDbEntity
  8
0
  6
Continuous
 62
   144
370
    18
100
AcDbLine
 10
37.7616719759
 20
23.0916472381
 30
0.0
 11
37.7159150926
 21
23.0628220692
 31
0.0
  0
LINE
  5
450
330
1F
100
AcDbEntity
  8
0
  6
Continuous
 62
     7
370
    25
100
AcDbLine
 10
37.7633497293
 20
23.0357325725
 30
0.0
 11
37.7616719759
 21
23.0916472381
 31
0.0
  0
LINE
  5
451
330
1F
100
AcDbEntity
  8
0
  6
Continuous
 62
   144
370
    18
100
AcDbLine
 10
37.8006977702
 20
23.0628220692
 30
0.0
 11
37.8025715343
 21
23.0087563395
 31
0.0
  0
LINE
  5
452
330
1F
100
AcDbEntity
  8
0
  6
Continuous
 62
   144
370
    18
100
AcDbLine
 10
37.8006977702
 20
23.0628220692
 30
0.0
 11
37.7616719759
 21
23.0916472381
 31
0.0
  0
LINE
  5
453
330
1F
100
AcDbEntity
  8
0
  6
Continuous
 62
   144
370
    18
100
AcDbLine
 10
36.9831074473
 20
23.0628220692
 30
0.0
 11
36.9364308709
 21
23.0916472381
 31
0.0
  0
LINE
  5
454
330
1F
100
AcDbEntity
  8
0
  6
Continuous
 62
   144
370
    18
100
AcDbLine
 10
36.9819404344
 20
23.0087563395
 30
0.0
 11
36.9350730842
 21
23.0357325725
 31
0.0
  0
LINE
  5
455
330
1F
100
AcDbEntity
  8
0
  6
Continuous
 62
   144
370
    18
100
AcDbLine
 10
36.8936422248
 20
23.0087563395
 30
0.0
 11
36.8952017071
 21
23.0628220692
 31
0.0
  0
LINE
  5
456
330
1F
100
AcDbEntity
  8
0
  6
Continuous
 62
   144
370
    18
100
AcDbLine
 10
36.9789358792
 20
23.1185520189
 30
0.0
 11
36.9364308709
 21
23.0916472381
 31
0.0
  0
LINE
  5
457
330
1F
100
AcDbEntity
  8
0
  6
Continuous
 62
   144
370
    18
100
AcDbLine
 10
36.9789358792
 20
23.1185520189
 30
0.0
 11
36.9801304641
 21
23.1745463186
 31
0.0
  0
LINE
  5
458
330
1F
100
AcDbEntity
  8
0
  6
Continuous
 62
   144
370
    18
100
AcDbLine
 10
37.8481608423
 20
23.2575381358
 30
0.0
 11
37.8034340693
 21
23.2286342994
 31
0.0
  0
LINE
  5
459
330
1F
100
AcDbEntity
  8
0
  6
Continuous
 62
   144
370
    18
100
AcDbLine
 10
37.8501349799
 20
23.2015472624
 30
0.0
 11
37.84816033
 21
23.2575525648
 31
0.0
  0
LINE
  5
45A
330
1F
100
AcDbEntity
  8
0
  6
Continuous
 62
   144
370
    18
100
AcDbLine
 10
37.8052463564
 20
23.1745703054
 30
0.0
 11
37.8501349799
 21
23.2015472624
 31
0.0
  0
LINE
  5
45B
330
1F
100
AcDbEntity
  8
0
  6
Continuous
 62
   144
370
    18
100
AcDbLine
 10
36.897465547
 20
22.8970620137
 30
0.0
 11
36.8921579786
 21
22.952762735
 31
0.0
  0
LINE
  5
45C
330
1F
100
AcDbEntity
  8
0
  6
Continuous
 62
   144
370
    18
100
AcDbLine
 10
36.8519403294
 20
22.9259090176
 30
0.0
 11
36.897465547
 21
22.8970620137
 31
0.0
  0
LINE
  5
45D
330
1F
100
AcDbEntity
  8
0
  6
Continuous
 62
   144
370
    18
100
AcDbLine
 10
36.8494448134
 20
23.0916472381
 30
0.0
 11
36.8104190291
 21
23.0628220692
 31
0.0
  0
LINE
  5
45E
330
1F
100
AcDbEntity
  8
0
  6
Continuous
 62
   144
370
    18
100
AcDbLine
 10
36.8477670599
 20
23.0357325725
 30
0.0
 11
36.8494448134
 21
23.0916472381
 31
0.0
  0
LINE
  5
45F
330
1F
100
AcDbEntity
  8
0
  6
Continuous
 62
   144
370
    18
100
AcDbLine
 10
36.808545265
 20
23.0087563395
 30
0.0
 11
36.8477670599
 21
23.0357325725
 31
0.0
  0
LINE
  5
460
330
1F
100
AcDbEntity
  8
0
  6
Continuous
 62
     7
370
    25
100
AcDbLine
 10
36.8086069453
 20
23.0087563395
 30
0.0
 11
36.8104190291
 21
23.0628220692
 31
0.0
  0
LINE
  5
461
330
1F
100
AcDbEntity
  8
0
  6
Continuous
 62
   144
370
    18
100
AcDbLine
 10
36.8104190291
 20
23.0628220692
 30
0.0
 11
36.7659300556
 21
23.0916472381
 31
0.0
  0
LINE
  5
462
330
1F
100
AcDbEntity
  8
0
  6
Continuous
 62
   144
370
    18
100
AcDbLine
 10
37.8817121381
 20
23.0628220692
 30
0.0
 11
37.8838272765
 21
23.0087563395
 31
0.0
  0
LINE
  5
463
330
1F
100
AcDbEntity
  8
0
  6
Continuous
 62
   144
370
    18
100
AcDbLine
 10
37.9245945939
 20
23.0916472381
 30
0.0
 11
37.8817121381
 21
23.0628220692
 31
0.0
  0
LINE
  5
464
330
1F
100
AcDbEntity
  8
0
  6
Continuous
 62
   144
370
    18
100
AcDbLine
 10
37.9302703552
 20
23.2015629679
 30
0.0
 11
37.9280063512
 21
23.2575381358
 31
0.0
  0
LINE
  5
465
330
1F
100
AcDbEntity
  8
0
  6
Continuous
 62
   144
370
    18
100
AcDbLine
 10
37.9644066489
 20
23.1745703054
 30
0.0
 11
37.9302703552
 21
23.2015629679
 31
0.0
  0
LINE
  5
466
330
1F
100
AcDbEntity
  8
0
  6
Continuous
 62
   144
370
    18
100
AcDbLine
 10
37.9619491178
 20
23.2286342994
 30
0.0
 11
37.9644066489
 21
23.1745703054
 31
0.0
  0
LINE
  5
467
330
1F
100
AcDbEntity
  8
0
  6
Continuous
 62
   144
370
    18
100
AcDbLine
 10
36.7325831538
 20
22.8970620137
 30
0.0
 11
36.7251311602
 21
22.952762735
 31
0.0
  0
LINE
  5
468
330
1F
100
AcDbEntity
  8
0
  6
Continuous
 62
   144
370
    18
100
AcDbLine
 10
36.7325831538
 20
22.8970620137
 30
0.0
 11
36.7688825026
 21
22.9259090176
 31
0.0
  0
LINE
  5
469
330
1F
100
AcDbEntity
  8
0
  6
Continuous
 62
   144
370
    18
100
AcDbLine
 10
36.7240466283
 20
23.1745703054
 30
0.0
 11
36.7609818093
 21
23.2015472624
 31
0.0
  0
LINE
  5
46A
330
1F
100
AcDbEntity
  8
0
  6
Continuous
 62
   144
370
    18
100
AcDbLine
 10
36.7609818093
 20
23.2015472624
 30
0.0
 11
36.7629564592
 21
23.2575525648
 31
0.0
  0
LINE
  5
46B
330
1F
100
AcDbEntity
  8
0
  6
Continuous
 62
   144
370
    18
100
AcDbLine
 10
37.9607620908
 20
23.0086997667
 30
0.0
 11
38.0018430193
 21
23.0357325725
 31
0.0
  0
LINE
  5
46C
330
1F
100
AcDbEntity
  8
0
  6
Continuous
 62
   144
370
    18
100
AcDbLine
 10
38.0326892205
 20
23.0086997667
 30
0.0
 11
38.0018430193
 21
23.0357325725
 31
0.0
  0
LINE
  5
46D
330
1F
100
AcDbEntity
  8
0
  6
Continuous
 62
   144
370
    18
100
AcDbLine
 10
37.9547403699
 20
22.8970620137
 30
0.0
 11
37.9954956222
 21
22.9259090176
 31
0.0
  0
LINE
  5
46E
330
1F
100
AcDbEntity
  8
0
  6
Continuous
 62
   144
370
    18
100
AcDbLine
 10
37.96435887
 20
23.1745231409
 30
0.0
 11
37.996729063
 21
23.1457044506
 31
0.0
  0
LINE
  5
46F
330
1F
100
AcDbEntity
  8
0
  6
Continuous
 62
     7
370
    25
100
AcDbLine
 10
36.7294046607
 20
23.0628220692
 30
0.0
 11
36.6865221953
 21
23.0916472381
 31
0.0
  0
LINE
  5
470
330
1F
100
AcDbEntity
  8
0
  6
Continuous
 62
   144
370
    18
100
AcDbLine
 10
36.7219509238
 20
23.1185520189
 30
0.0
 11
36.6865221953
 21
23.0916472381
 31
0.0
  0
LINE
  5
471
330
1F
100
AcDbEntity
  8
0
  6
Continuous
 62
   144
370
    18
100
AcDbLine
 10
36.7294046607
 20
23.0628220692
 30
0.0
 11
36.7219509238
 21
23.1185520189
 31
0.0
  0
LINE
  5
472
330
1F
100
AcDbEntity
  8
0
  6
Continuous
 62
   144
370
    18
100
AcDbLine
 10
36.6842451526
 20
23.0357325725
 30
0.0
 11
36.6865221953
 21
23.0916472381
 31
0.0
  0
LINE
  5
473
330
1F
100
AcDbEntity
  8
0
  6
Continuous
 62
   144
370
    18
100
AcDbLine
 10
36.6467101494
 20
23.1745703054
 30
0.0
 11
36.6491676805
 21
23.2286342994
 31
0.0
  0
LINE
  5
474
330
1F
100
AcDbEntity
  8
0
  6
Continuous
 62
   144
370
    18
100
AcDbLine
 10
36.6467101494
 20
23.1745703054
 30
0.0
 11
36.6808458004
 21
23.2015472624
 31
0.0
  0
LINE
  5
475
330
1F
100
AcDbEntity
  8
0
  6
Continuous
 62
   144
370
    18
100
AcDbLine
 10
36.6808458004
 20
23.2015472624
 30
0.0
 11
36.6831110256
 21
23.2575525648
 31
0.0
  0
LINE
  5
476
330
1F
100
AcDbEntity
  8
0
  6
Continuous
 62
   144
370
    18
100
AcDbLine
 10
36.683110438
 20
23.2575381358
 30
0.0
 11
36.6491676805
 21
23.2286342994
 31
0.0
  0
LINE
  5
477
330
1F
100
AcDbEntity
  8
0
  6
Continuous
 62
   144
370
    18
100
AcDbLine
 10
38.0961509979
 20
23.0628220692
 30
0.0
 11
38.0687081103
 21
23.0916472381
 31
0.0
  0
LINE
  5
478
330
1F
100
AcDbEntity
  8
0
  6
Continuous
 62
   144
370
    18
100
AcDbLine
 10
38.0961509979
 20
23.0628220692
 30
0.0
 11
38.0991170973
 21
23.0087563395
 31
0.0
  0
LINE
  5
479
330
1F
100
AcDbEntity
  8
0
  6
Continuous
 62
   144
370
    18
100
AcDbLine
 10
38.0991170973
 20
23.0087563395
 30
0.0
 11
38.0715152555
 21
23.0357325725
 31
0.0
  0
LINE
  5
47A
330
1F
100
AcDbEntity
  8
0
  6
Continuous
 62
   144
370
    18
100
AcDbLine
 10
36.5783917146
 20
23.0087563395
 30
0.0
 11
36.581113754
 21
23.0628220692
 31
0.0
  0
LINE
  5
47B
330
1F
100
AcDbEntity
  8
0
  6
Continuous
 62
   144
370
    18
100
AcDbLine
 10
36.5783917146
 20
23.0087563395
 30
0.0
 11
36.6092737699
 21
23.0357325725
 31
0.0
  0
LINE
  5
47C
330
1F
100
AcDbEntity
  8
0
  6
Continuous
 62
   144
370
    18
100
AcDbLine
 10
38.1034395116
 20
23.1745703054
 30
0.0
 11
38.1398981286
 21
23.2015472624
 31
0.0
  0
LINE
  5
47D
330
1F
100
AcDbEntity
  8
0
  6
Continuous
 62
   144
370
    18
100
AcDbLine
 10
38.1398981286
 20
23.2015472624
 30
0.0
 11
38.1368727895
 21
23.2575525648
 31
0.0
  0
LINE
  5
47E
330
1F
100
AcDbEntity
  8
0
  6
Continuous
 62
   144
370
    18
100
AcDbLine
 10
38.1672879304
 20
23.1185520189
 30
0.0
 11
38.1323169755
 21
23.0916472381
 31
0.0
  0
LINE
  5
47F
330
1F
100
AcDbEntity
  8
0
  6
Continuous
 62
   144
370
    18
100
AcDbLine
 10
38.1292635217
 20
23.1457044506
 30
0.0
 11
38.1641498598
 21
23.1745231409
 31
0.0
  0
LINE
  5
480
330
1F
100
AcDbEntity
  8
0
  6
Continuous
 62
   144
370
    18
100
AcDbLine
 10
36.5396015337
 20
23.0357325725
 30
0.0
 11
36.5424086789
 21
23.0916472381
 31
0.0
  0
LINE
  5
481
330
1F
100
AcDbEntity
  8
0
  6
Continuous
 62
   144
370
    18
100
AcDbLine
 10
36.5465840695
 20
22.9259090176
 30
0.0
 11
36.5757403487
 21
22.952762735
 31
0.0
  0
LINE
  5
482
330
1F
100
AcDbEntity
  8
0
  6
Continuous
 62
   144
370
    18
100
AcDbLine
 10
36.4787998137
 20
23.0916472381
 30
0.0
 11
36.454834731
 21
23.0628220692
 31
0.0
  0
LINE
  5
483
330
1F
100
AcDbEntity
  8
0
  6
Continuous
 62
   144
370
    18
100
AcDbLine
 10
36.4438288658
 20
23.1185520189
 30
0.0
 11
36.4787998137
 21
23.0916472381
 31
0.0
  0
LINE
  5
484
330
1F
100
AcDbEntity
  8
0
  6
Continuous
 62
   144
370
    18
100
AcDbLine
 10
36.5076772854
 20
23.1745703054
 30
0.0
 11
36.4712195068
 21
23.2015629679
 31
0.0
  0
LINE
  5
485
330
1F
100
AcDbEntity
  8
0
  6
Continuous
 62
   144
370
    18
100
AcDbLine
 10
36.5076772854
 20
23.1745703054
 30
0.0
 11
36.5105967306
 21
23.2286342994
 31
0.0
  0
LINE
  5
486
330
1F
100
AcDbEntity
  8
0
  6
Continuous
 62
   144
370
    18
100
AcDbLine
 10
38.2655253288
 20
23.1745703054
 30
0.0
 11
38.2487917522
 21
23.2015629679
 31
0.0
  0
LINE
  5
487
330
1F
100
AcDbEntity
  8
0
  6
Continuous
 62
   144
370
    18
100
AcDbLine
 10
38.2487917522
 20
23.2015629679
 30
0.0
 11
38.2453734023
 21
23.2575381358
 31
0.0
  0
LINE
  5
488
330
1F
100
AcDbEntity
  8
0
  6
Continuous
 62
   144
370
    18
100
AcDbLine
 10
36.4296059502
 20
22.9801227569
 30
0.0
 11
36.4516877667
 21
23.0087094035
 31
0.0
  0
LINE
  5
489
330
1F
100
AcDbEntity
  8
0
  6
Continuous
 62
   144
370
    18
100
AcDbLine
 10
36.4263200865
 20
22.9259090176
 30
0.0
 11
36.4485246795
 21
22.952762735
 31
0.0
  0
LINE
  5
48A
330
1F
100
AcDbEntity
  8
0
  6
Continuous
 62
     7
370
    25
100
AcDbLine
 10
36.3894781605
 20
23.1185520189
 30
0.0
 11
36.3928286202
 21
23.1745463186
 31
0.0
  0
LINE
  5
48B
330
1F
100
AcDbEntity
  8
0
  6
Continuous
 62
   144
370
    18
100
AcDbLine
 10
36.3928158913
 20
23.1745231409
 30
0.0
 11
36.4247482212
 21
23.1457044506
 31
0.0
  0
LINE
  5
48C
330
1F
100
AcDbEntity
  8
0
  6
Continuous
 62
   144
370
    18
100
AcDbLine
 10
36.3708946942
 20
23.0916472381
 30
0.0
 11
36.3743466722
 21
23.1457044506
 31
0.0
  0
LINE
  5
48D
330
1F
100
AcDbEntity
  8
0
  6
Continuous
 62
   144
370
    18
100
AcDbLine
 10
36.3894781605
 20
23.1185520189
 30
0.0
 11
36.3708946942
 21
23.0916472381
 31
0.0
  0
LINE
  5
48E
330
1F
100
AcDbEntity
  8
0
  6
Continuous
 62
   144
370
    18
100
AcDbLine
 10
38.2654936734
 20
23.1745463186
 30
0.0
 11
38.2690174156
 21
23.1185520189
 31
0.0
  0
LINE
  5
48F
330
1F
100
AcDbEntity
  8
0
  6
Continuous
 62
   144
370
    18
100
AcDbLine
 10
36.3508680753
 20
23.0087094035
 30
0.0
 11
36.3794823692
 21
22.9801227569
 31
0.0
  0
LINE
  5
490
330
1F
100
AcDbEntity
  8
0
  6
Continuous
 62
   144
370
    18
100
AcDbLine
 10
36.3794823692
 20
22.9801227569
 30
0.0
 11
36.3978310073
 21
23.0087094035
 31
0.0
  0
LINE
  5
491
330
1F
100
AcDbEntity
  8
0
  6
Continuous
 62
   144
370
    18
100
AcDbLine
 10
38.3282421621
 20
23.0628220692
 30
0.0
 11
38.3197279309
 21
23.0916472381
 31
0.0
  0
LINE
  5
492
330
1F
100
AcDbEntity
  8
0
  6
Continuous
 62
   144
370
    18
100
AcDbLine
 10
36.3111690245
 20
23.0087563395
 30
0.0
 11
36.3148697038
 21
23.0628220692
 31
0.0
  0
LINE
  5
493
330
1F
100
AcDbEntity
  8
0
  6
Continuous
 62
   144
370
    18
100
AcDbLine
 10
36.3111690245
 20
23.0087563395
 30
0.0
 11
36.3238217093
 21
23.0357325725
 31
0.0
  0
LINE
  5
494
330
1F
100
AcDbEntity
  8
0
  6
Continuous
 62
   144
370
    18
100
AcDbLine
 10
36.336406786
 20
22.9801227569
 30
0.0
 11
36.3327713145
 21
22.9259090176
 31
0.0
  0
LINE
  5
495
330
1F
100
AcDbEntity
  8
0
  6
Continuous
 62
   144
370
    18
100
AcDbLine
 10
36.3111878159
 20
23.0087094035
 30
0.0
 11
36.336406786
 21
22.9801227569
 31
0.0
  0
LINE
  5
496
330
1F
100
AcDbEntity
  8
0
  6
Continuous
 62
   144
370
    18
100
AcDbLine
 10
36.3075214931
 20
22.952762735
 30
0.0
 11
36.3327713145
 21
22.9259090176
 31
0.0
  0
LINE
  5
497
330
1F
100
AcDbEntity
  8
0
  6
Continuous
 62
   144
370
    18
100
AcDbLine
 10
38.3621289566
 20
23.1745703054
 30
0.0
 11
38.3781648812
 21
23.2015472624
 31
0.0
  0
LINE
  5
498
330
1F
100
AcDbEntity
  8
0
  6
Continuous
 62
   144
370
    18
100
AcDbLine
 10
38.3781648812
 20
23.2015472624
 30
0.0
 11
38.3742755802
 21
23.2575525648
 31
0.0
  0
LINE
  5
499
330
1F
100
AcDbEntity
  8
0
  6
Continuous
 62
   144
370
    18
100
AcDbLine
 10
38.3824522248
 20
23.1185520189
 30
0.0
 11
38.3684187386
 21
23.0916472381
 31
0.0
  0
LINE
  5
49A
330
1F
100
AcDbEntity
  8
0
  6
Continuous
 62
   144
370
    18
100
AcDbLine
 10
36.4516471386
 20
23.0087563395
 30
0.0
 11
36.4548347241
 21
23.0628220692
 31
0.0
  0
LINE
  5
49B
330
1F
100
AcDbEntity
  8
0
  6
Continuous
 62
   144
370
    18
100
AcDbLine
 10
36.4516471386
 20
23.0087563395
 30
0.0
 11
36.4757586917
 21
23.0357325725
 31
0.0
  0
LINE
  5
49C
330
1F
100
AcDbEntity
  8
0
  6
Continuous
 62
   144
370
    18
100
AcDbLine
 10
37.8025326178
 20
23.0087325186
 30
0.0
 11
37.804370345
 21
22.952762735
 31
0.0
  0
LINE
  5
49D
330
1F
100
AcDbEntity
  8
0
  6
Continuous
 62
   144
370
    18
100
AcDbLine
 10
37.8402286372
 20
22.9801227569
 30
0.0
 11
37.8025209816
 21
23.0087094035
 31
0.0
  0
LINE
  5
49E
330
1F
100
AcDbEntity
  8
0
  6
Continuous
 62
   144
370
    18
100
AcDbLine
 10
36.8058466367
 20
23.1745134292
 30
0.0
 11
36.7609818093
 21
23.2015472624
 31
0.0
  0
LINE
  5
49F
330
1F
100
AcDbEntity
  8
0
  6
Continuous
 62
   144
370
    18
100
AcDbLine
 10
37.1171145421
 20
23.2575381358
 30
0.0
 11
37.1648198713
 21
23.2286342994
 31
0.0
  0
LINE
  5
4A0
330
1F
100
AcDbEntity
  8
0
  6
Continuous
 62
   144
370
    18
100
AcDbLine
 10
37.1164289313
 20
23.2015472624
 30
0.0
 11
37.11711472
 21
23.2575525648
 31
0.0
  0
LINE
  5
4A1
330
1F
100
AcDbEntity
  8
0
  6
Continuous
 62
   144
370
    18
100
AcDbLine
 10
37.1643333308
 20
23.1745703054
 30
0.0
 11
37.1164289313
 21
23.2015472624
 31
0.0
  0
LINE
  5
4A2
330
1F
100
AcDbEntity
  8
0
  6
Continuous
 62
   144
370
    18
100
AcDbLine
 10
37.3527993902
 20
23.1745703054
 30
0.0
 11
37.3055583946
 21
23.2015472624
 31
0.0
  0
LINE
  5
4A3
330
1F
100
AcDbEntity
  8
0
  6
Continuous
 62
   144
370
    18
100
AcDbLine
 10
37.6304010492
 20
22.9527627333
 30
0.0
 11
37.6262304571
 21
22.8970620151
 31
0.0
  0
LINE
  5
4A4
330
1F
100
AcDbEntity
  8
0
  6
Continuous
 62
   144
370
    18
100
AcDbLine
 10
36.9838104495
 20
22.8484179678
 30
0.0
 11
36.9848863322
 21
22.8970620137
 31
0.0
  0
LINE
  5
4A5
330
1F
100
AcDbEntity
  8
0
  6
Continuous
 62
   144
370
    18
100
AcDbLine
 10
36.8131505948
 20
22.8970620137
 30
0.0
 11
36.8067464442
 21
22.952762735
 31
0.0
  0
LINE
  5
4A6
330
1F
100
AcDbEntity
  8
0
  6
Continuous
 62
   144
370
    18
100
AcDbLine
 10
36.7688825026
 20
22.9259090176
 30
0.0
 11
36.8067464442
 21
22.952762735
 31
0.0
  0
LINE
  5
4A7
330
1F
100
AcDbEntity
  8
0
  6
Continuous
 62
   144
370
    18
100
AcDbLine
 10
37.8043703552
 20
22.952762735
 30
0.0
 11
37.7979662044
 21
22.8970620137
 31
0.0
  0
LINE
  5
4A8
330
1F
100
AcDbEntity
  8
0
  6
Continuous
 62
   144
370
    18
100
AcDbLine
 10
37.7591764598
 20
22.9259090176
 30
0.0
 11
37.8043703552
 21
22.952762735
 31
0.0
  0
LINE
  5
4A9
330
1F
100
AcDbEntity
  8
0
  6
Continuous
 62
   144
370
    18
100
AcDbLine
 10
37.4472065838
 20
23.2575525648
 30
0.0
 11
37.4462969179
 21
23.2286342994
 31
0.0
  0
LINE
  5
4AA
330
1F
100
AcDbEntity
  8
0
  6
Continuous
 62
   144
370
    18
100
AcDbLine
 10
36.9813254689
 20
23.2286342994
 30
0.0
 11
36.9792297835
 21
23.2575525648
 31
0.0
  0
LINE
  5
4AB
330
1F
100
AcDbEntity
  8
0
  6
Continuous
 62
   144
370
    18
100
AcDbLine
 10
37.2583868701
 20
23.1745703054
 30
0.0
 11
37.2106325373
 21
23.2015629679
 31
0.0
  0
LINE
  5
4AC
330
1F
100
AcDbEntity
  8
0
  6
Continuous
 62
   144
370
    18
100
AcDbLine
 10
37.5406521445
 20
23.1185520189
 30
0.0
 11
37.5376495665
 21
23.0628220692
 31
0.0
  0
LINE
  5
4AD
330
1F
100
AcDbEntity
  8
0
  6
Continuous
 62
   144
370
    18
100
AcDbLine
 10
37.7212239029
 20
23.1185520189
 30
0.0
 11
37.7159150926
 21
23.0628220692
 31
0.0
  0
LINE
  5
4AE
330
1F
100
AcDbEntity
  8
0
  6
Continuous
 62
   144
370
    18
100
AcDbLine
 10
37.8071034192
 20
23.1185520189
 30
0.0
 11
37.8006977702
 21
23.0628220692
 31
0.0
  0
LINE
  5
4AF
330
1F
100
AcDbEntity
  8
0
  6
Continuous
 62
   144
370
    18
100
AcDbLine
 10
37.8451867336
 20
23.0916472381
 30
0.0
 11
37.8006977702
 21
23.0628220692
 31
0.0
  0
LINE
  5
4B0
330
1F
100
AcDbEntity
  8
0
  6
Continuous
 62
   144
370
    18
100
AcDbLine
 10
37.9703206167
 20
23.1784692137
 30
0.0
 11
38.0056525577
 21
23.2015472624
 31
0.0
  0
LINE
  5
4B1
330
1F
100
AcDbEntity
  8
0
  6
Continuous
 62
   144
370
    18
100
AcDbLine
 10
38.0056525577
 20
23.2015472624
 30
0.0
 11
38.0031139968
 21
23.2575525648
 31
0.0
  0
LINE
  5
4B2
330
1F
100
AcDbEntity
  8
0
  6
Continuous
 62
   144
370
    18
100
AcDbLine
 10
36.6563764193
 20
22.8970620137
 30
0.0
 11
36.6479332972
 21
22.952762735
 31
0.0
  0
LINE
  5
4B3
330
1F
100
AcDbEntity
  8
0
  6
Continuous
 62
   144
370
    18
100
AcDbLine
 10
36.615621167
 20
22.9259090176
 30
0.0
 11
36.6479332972
 21
22.952762735
 31
0.0
  0
LINE
  5
4B4
330
1F
100
AcDbEntity
  8
0
  6
Continuous
 62
     7
370
    25
100
AcDbLine
 10
37.1650379376
 20
23.0087563395
 30
0.0
 11
37.165593363
 21
23.0628220692
 31
0.0
  0
LINE
  5
4B5
330
1F
100
AcDbEntity
  8
0
  6
Continuous
 62
   144
370
    18
100
AcDbLine
 10
36.8131505848
 20
22.8970620137
 30
0.0
 11
36.806746434
 21
22.952762735
 31
0.0
  0
LINE
  5
4B6
330
1F
100
AcDbEntity
  8
0
  6
Continuous
 62
   144
370
    18
100
AcDbLine
 10
37.5397621669
 20
23.1745703054
 30
0.0
 11
37.5874516923
 21
23.2015629679
 31
0.0
  0
LINE
  5
4B7
330
1F
100
AcDbEntity
  8
0
  6
Continuous
 62
     7
370
    25
100
AcDbLine
 10
36.760006408
 20
22.8648468122
 30
0.0
 11
36.7669049827
 21
22.8699403789
 31
0.0
  0
LINE
  5
4B8
330
1F
100
AcDbEntity
  8
0
  6
Continuous
 62
   144
370
    18
100
AcDbLine
 10
37.7136512527
 20
22.8970620137
 30
0.0
 11
37.7150273005
 21
22.8484192898
 31
0.0
  0
LINE
  5
4B9
330
1F
100
AcDbEntity
  8
0
  6
Continuous
 62
   144
370
    18
100
AcDbLine
 10
37.8442118066
 20
22.8699403789
 30
0.0
 11
37.8422342866
 21
22.9259090176
 31
0.0
  0
LINE
  5
4BA
330
1F
100
AcDbEntity
  8
0
  6
Continuous
 62
   144
370
    18
100
AcDbLine
 10
37.8422342866
 20
22.9259090176
 30
0.0
 11
37.8785336354
 21
22.8970620137
 31
0.0
  0
LINE
  5
4BB
330
1F
100
AcDbEntity
  8
0
  6
Continuous
 62
   144
370
    18
100
AcDbLine
 10
36.7306511489
 20
22.8484192931
 30
0.0
 11
36.7325831633
 21
22.8970620137
 31
0.0
  0
LINE
  5
4BC
330
1F
100
AcDbEntity
  8
0
  6
Continuous
 62
   144
370
    18
100
AcDbLine
 10
38.1308233006
 20
22.8699403789
 30
0.0
 11
38.1277935643
 21
22.9259090176
 31
0.0
  0
LINE
  5
4BD
330
1F
100
AcDbEntity
  8
0
  6
Continuous
 62
   144
370
    18
100
AcDbLine
 10
38.1277935643
 20
22.9259090176
 30
0.0
 11
38.1515888257
 21
22.8970620137
 31
0.0
  0
LINE
  5
4BE
330
1F
100
AcDbEntity
  8
0
  6
Continuous
 62
   144
370
    18
100
AcDbLine
 10
37.2585262467
 20
23.2286342994
 30
0.0
 11
37.2582222536
 21
23.2575525648
 31
0.0
  0
LINE
  5
4BF
330
1F
100
AcDbEntity
  8
0
  6
Continuous
 62
   144
370
    18
100
AcDbLine
 10
37.4001402333
 20
23.2575381358
 30
0.0
 11
37.3525905539
 21
23.2286342994
 31
0.0
  0
LINE
  5
4C0
330
1F
100
AcDbEntity
  8
0
  6
Continuous
 62
   144
370
    18
100
AcDbLine
 10
37.3527299306
 20
23.1745703054
 30
0.0
 11
37.4004843482
 21
23.2015472624
 31
0.0
  0
LINE
  5
4C1
330
1F
100
AcDbEntity
  8
0
  6
Continuous
 62
   144
370
    18
100
AcDbLine
 10
37.258784733
 20
23.0628220692
 30
0.0
 11
37.2581796192
 21
23.1185520189
 31
0.0
  0
LINE
  5
4C2
330
1F
100
AcDbEntity
  8
0
  6
Continuous
 62
   144
370
    18
100
AcDbLine
 10
37.5397621781
 20
23.1745703054
 30
0.0
 11
37.5874519782
 21
23.2015472624
 31
0.0
  0
LINE
  5
4C3
330
1F
100
AcDbEntity
  8
0
  6
Continuous
 62
   144
370
    18
100
AcDbLine
 10
37.0277545108
 20
22.9259090176
 30
0.0
 11
37.0717457498
 21
22.952762735
 31
0.0
  0
LINE
  5
4C4
330
1F
100
AcDbEntity
  8
0
  6
Continuous
 62
   144
370
    18
100
AcDbLine
 10
37.0747476254
 20
22.8970620137
 30
0.0
 11
37.0717457498
 21
22.952762735
 31
0.0
  0
LINE
  5
4C5
330
1F
100
AcDbEntity
  8
0
  6
Continuous
 62
   144
370
    18
100
AcDbLine
 10
37.0287927114
 20
22.9801227569
 30
0.0
 11
37.0726214353
 21
23.0087094035
 31
0.0
  0
LINE
  5
4C6
330
1F
100
AcDbEntity
  8
0
  6
Continuous
 62
   144
370
    18
100
AcDbLine
 10
36.9330460711
 20
23.2015472624
 30
0.0
 11
36.9343968112
 21
23.2575525648
 31
0.0
  0
LINE
  5
4C7
330
1F
100
AcDbEntity
  8
0
  6
Continuous
 62
   144
370
    18
100
AcDbLine
 10
36.9343964608
 20
23.2575381358
 30
0.0
 11
36.8929339444
 21
23.2286342994
 31
0.0
  0
LINE
  5
4C8
330
1F
100
AcDbEntity
  8
0
  6
Continuous
 62
   144
370
    18
100
AcDbLine
 10
37.8025326279
 20
23.0087325186
 30
0.0
 11
37.8043703552
 21
22.952762735
 31
0.0
  0
LINE
  5
4C9
330
1F
100
AcDbEntity
  8
0
  6
Continuous
 62
   144
370
    18
100
AcDbLine
 10
36.889892897
 20
23.1185520189
 30
0.0
 11
36.8914131465
 21
23.1745463186
 31
0.0
  0
LINE
  5
4CA
330
1F
100
AcDbEntity
  8
0
  6
Continuous
 62
   144
370
    18
100
AcDbLine
 10
36.8511293701
 20
23.1457044506
 30
0.0
 11
36.8914258331
 21
23.1745231409
 31
0.0
  0
LINE
  5
4CB
330
1F
100
AcDbEntity
  8
0
  6
Continuous
 62
   144
370
    18
100
AcDbLine
 10
36.8076827301
 20
23.2286342994
 30
0.0
 11
36.7629559469
 21
23.2575381358
 31
0.0
  0
LINE
  5
4CC
330
1F
100
AcDbEntity
  8
0
  6
Continuous
 62
   144
370
    18
100
AcDbLine
 10
36.805870443
 20
23.1745703054
 30
0.0
 11
36.7609823617
 21
23.2015629679
 31
0.0
  0
LINE
  5
4CD
330
1F
100
AcDbEntity
  8
0
  6
Continuous
 62
   144
370
    18
100
AcDbLine
 10
36.7240841483
 20
23.1745134292
 30
0.0
 11
36.6808458004
 21
23.2015472624
 31
0.0
  0
LINE
  5
4CE
330
1F
100
AcDbEntity
  8
0
  6
Continuous
 62
   144
370
    18
100
AcDbLine
 10
36.5354115831
 20
23.2015629679
 30
0.0
 11
36.5382026542
 21
23.2575381358
 31
0.0
  0
LINE
  5
4CF
330
1F
100
AcDbEntity
  8
0
  6
Continuous
 62
   144
370
    18
100
AcDbLine
 10
36.5744391718
 20
23.1745703054
 30
0.0
 11
36.5354115831
 21
23.2015629679
 31
0.0
  0
LINE
  5
4D0
330
1F
100
AcDbEntity
  8
0
  6
Continuous
 62
   144
370
    18
100
AcDbLine
 10
38.2836971261
 20
23.0916472381
 30
0.0
 11
38.2567122783
 21
23.0628220692
 31
0.0
  0
LINE
  5
4D1
330
1F
100
AcDbEntity
  8
0
  6
Continuous
 62
   144
370
    18
100
AcDbLine
 10
36.3148697038
 20
23.0628220692
 30
0.0
 11
36.2913888583
 21
23.0916472381
 31
0.0
  0
LINE
  5
4D2
330
1F
100
AcDbEntity
  8
0
  6
Continuous
 62
   144
370
    18
100
AcDbLine
 10
38.3726380372
 20
23.0087325186
 30
0.0
 11
38.3740132646
 21
22.9892258043
 31
0.0
  0
ARC
  5
4D3
330
1F
100
AcDbEntity
  8
0
  6
Continuous
 62
   144
370
    18
100
AcDbCircle
 10
3.7024205993
 20
22.4479584028
 30
0.0
 40
0.0590551181164578
100
AcDbArc
 50
90.0
 51
270.0
  0
LINE
  5
4D4
330
1F
100
AcDbEntity
  8
0
  6
Continuous
 62
   144
370
    18
100
AcDbLine
 10
3.7052045563
 20
22.5070135209
 30
0.0
 11
3.7024205993
 21
22.5070135209
 31
0.0
  0
LINE
  5
4D5
330
1F
100
AcDbEntity
  8
0
  6
Continuous
 62
   144
370
    18
100
AcDbLine
 10
3.7052045563
 20
22.3889032847
 30
0.0
 11
3.7024205993
 21
22.3889032847
 31
0.0
  0
LINE
  5
4D6
330
1F
100
AcDbEntity
  8
0
  6
Continuous
 62
   144
370
    18
100
AcDbLine
 10
4.6932600209
 20
21.7622452168
 30
0.0
 11
4.6932600209
 21
21.893515109
 31
0.0
  0
LINE
  5
4D7
330
1F
100
AcDbEntity
  8
0
  6
Continuous
 62
   144
370
    18
100
AcDbLine
 10
37.3527639893
 20
23.1745134292
 30
0.0
 11
37.3055583946
 21
23.2015472624
 31
0.0
  0
LINE
  5
4D8
330
1F
100
AcDbEntity
  8
0
  6
Continuous
 62
   144
370
    18
100
AcDbLine
 10
37.3055583946
 20
22.9259090176
 30
0.0
 11
37.2590427608
 21
22.8970620137
 31
0.0
  0
LINE
  5
4D9
330
1F
100
AcDbEntity
  8
0
  6
Continuous
 62
   144
370
    18
100
AcDbLine
 10
37.2584377884
 20
22.952762735
 30
0.0
 11
37.2590427608
 21
22.8970620137
 31
0.0
  0
LINE
  5
4DA
330
1F
100
AcDbEntity
  8
0
  6
Continuous
 62
   144
370
    18
100
AcDbLine
 10
36.2384717277
 20
23.0087094035
 30
0.0
 11
36.2524635943
 21
22.9801227569
 31
0.0
  0
LINE
  5
4DB
330
1F
100
AcDbEntity
  8
0
  6
Continuous
 62
   144
370
    18
100
AcDbLine
 10
36.2524635943
 20
22.9801227569
 30
0.0
 11
36.2547817832
 21
23.0087094035
 31
0.0
  0
LINE
  5
4DC
330
1F
100
AcDbEntity
  8
0
  6
Continuous
 62
   144
370
    18
100
AcDbLine
 10
36.2547810017
 20
23.0086997667
 30
0.0
 11
36.2387884595
 21
23.0357325725
 31
0.0
  0
LINE
  5
4DD
330
1F
100
AcDbEntity
  8
0
  6
Continuous
 62
   144
370
    18
100
AcDbLine
 10
36.2384764445
 20
23.0086997667
 30
0.0
 11
36.2387884595
 21
23.0357325725
 31
0.0
  0
LINE
  5
4DE
330
1F
100
AcDbEntity
  8
0
  6
Continuous
 62
   144
370
    18
100
AcDbLine
 10
36.8952016966
 20
23.0628220692
 30
0.0
 11
36.9364308709
 21
23.0916472381
 31
0.0
  0
LINE
  5
4DF
330
1F
100
AcDbEntity
  8
0
  6
Continuous
 62
   144
370
    18
100
AcDbLine
 10
36.8936422143
 20
23.0087563395
 30
0.0
 11
36.8952016966
 21
23.0628220692
 31
0.0
  0
LINE
  5
4E0
330
1F
100
AcDbEntity
  8
0
  6
Continuous
 62
   144
370
    18
100
AcDbLine
 10
36.8936422143
 20
23.0087563395
 30
0.0
 11
36.9350730842
 21
23.0357325725
 31
0.0
  0
LINE
  5
4E1
330
1F
100
AcDbEntity
  8
0
  6
Continuous
 62
   144
370
    18
100
AcDbLine
 10
36.9350730842
 20
23.0357325725
 30
0.0
 11
36.9364308709
 21
23.0916472381
 31
0.0
  0
LINE
  5
4E2
330
1F
100
AcDbEntity
  8
0
  6
Continuous
 62
   144
370
    18
100
AcDbLine
 10
36.5494204862
 20
22.9801227569
 30
0.0
 11
36.5465840695
 21
22.9259090176
 31
0.0
  0
LINE
  5
4E3
330
1F
100
AcDbEntity
  8
0
  6
Continuous
 62
   144
370
    18
100
AcDbLine
 10
36.8898928863
 20
23.1185520189
 30
0.0
 11
36.8914131359
 21
23.1745463186
 31
0.0
  0
LINE
  5
4E4
330
1F
100
AcDbEntity
  8
0
  6
Continuous
 62
   144
370
    18
100
AcDbLine
 10
36.8898928863
 20
23.1185520189
 30
0.0
 11
36.9364308709
 21
23.0916472381
 31
0.0
  0
LINE
  5
4E5
330
1F
100
AcDbEntity
  8
0
  6
Continuous
 62
     7
370
    25
100
AcDbLine
 10
36.9364308709
 20
23.0916472381
 30
0.0
 11
36.9377941635
 21
23.1457044506
 31
0.0
  0
LINE
  5
4E6
330
1F
100
AcDbEntity
  8
0
  6
Continuous
 62
   144
370
    18
100
AcDbLine
 10
36.980144023
 20
23.1745231409
 30
0.0
 11
36.9377941635
 21
23.1457044506
 31
0.0
  0
LINE
  5
4E7
330
1F
100
AcDbEntity
  8
0
  6
Continuous
 62
   144
370
    18
100
AcDbLine
 10
36.9789358682
 20
23.1185520189
 30
0.0
 11
36.9801304531
 21
23.1745463186
 31
0.0
  0
LINE
  5
4E8
330
1F
100
AcDbEntity
  8
0
  6
Continuous
 62
   144
370
    18
100
AcDbLine
 10
36.9789358682
 20
23.1185520189
 30
0.0
 11
36.9364308709
 21
23.0916472381
 31
0.0
  0
LINE
  5
4E9
330
1F
100
AcDbEntity
  8
0
  6
Continuous
 62
   144
370
    18
100
AcDbLine
 10
38.3733099287
 20
22.9464740032
 30
0.0
 11
38.3626035532
 21
22.9259090176
 31
0.0
  0
LINE
  5
4EA
330
1F
100
AcDbEntity
  8
0
  6
Continuous
 62
   144
370
    18
100
AcDbLine
 10
38.3737057484
 20
22.941103964
 30
0.0
 11
38.3628332283
 21
22.8970620151
 31
0.0
  0
LINE
  5
4EB
330
1F
100
AcDbEntity
  8
0
  6
Continuous
 62
   144
370
    18
100
AcDbLine
 10
38.3141791456
 20
22.9259090176
 30
0.0
 11
38.3035952962
 21
22.952762735
 31
0.0
  0
LINE
  5
4EC
330
1F
100
AcDbEntity
  8
0
  6
Continuous
 62
   144
370
    18
100
AcDbLine
 10
38.3104097576
 20
22.9801227569
 30
0.0
 11
38.3141791456
 21
22.9259090176
 31
0.0
  0
LINE
  5
4ED
330
1F
100
AcDbEntity
  8
0
  6
Continuous
 62
   144
370
    18
100
AcDbLine
 10
36.8952016966
 20
23.0628220692
 30
0.0
 11
36.8898928863
 21
23.1185520189
 31
0.0
  0
LINE
  5
4EE
330
1F
100
AcDbEntity
  8
0
  6
Continuous
 62
   144
370
    18
100
AcDbLine
 10
38.374825751
 20
22.9259090176
 30
0.0
 11
38.3847975799
 21
22.952762735
 31
0.0
  0
LINE
  5
4EF
330
1F
100
AcDbEntity
  8
0
  6
Continuous
 62
   144
370
    18
100
AcDbLine
 10
38.3847975799
 20
22.952762735
 30
0.0
 11
38.3709414357
 21
22.8970620137
 31
0.0
  0
LINE
  5
4F0
330
1F
100
AcDbEntity
  8
0
  6
Continuous
 62
   144
370
    18
100
AcDbLine
 10
38.374825751
 20
22.9259090176
 30
0.0
 11
38.3709414357
 21
22.8970620137
 31
0.0
  0
LINE
  5
4F1
330
1F
100
AcDbEntity
  8
0
  6
Continuous
 62
     7
370
    25
100
AcDbLine
 10
37.0725694277
 20
23.0087563395
 30
0.0
 11
37.0734672227
 21
23.0628220692
 31
0.0
  0
LINE
  5
4F2
330
1F
100
AcDbEntity
  8
0
  6
Continuous
 62
   144
370
    18
100
AcDbLine
 10
37.0726373167
 20
23.0087563395
 30
0.0
 11
37.0251987253
 21
23.0357325725
 31
0.0
  0
LINE
  5
4F3
330
1F
100
AcDbEntity
  8
0
  6
Continuous
 62
   144
370
    18
100
AcDbLine
 10
37.0262262118
 20
23.0916472381
 30
0.0
 11
37.0734672227
 21
23.0628220692
 31
0.0
  0
LINE
  5
4F4
330
1F
100
AcDbEntity
  8
0
  6
Continuous
 62
   144
370
    18
100
AcDbLine
 10
37.1174580728
 20
23.0357325725
 30
0.0
 11
37.1181474392
 21
23.0916472381
 31
0.0
  0
LINE
  5
4F5
330
1F
100
AcDbEntity
  8
0
  6
Continuous
 62
   144
370
    18
100
AcDbLine
 10
37.0725694277
 20
23.0087563395
 30
0.0
 11
37.1174580728
 21
23.0357325725
 31
0.0
  0
LINE
  5
4F6
330
1F
100
AcDbEntity
  8
0
  6
Continuous
 62
   144
370
    18
100
AcDbLine
 10
37.0734672227
 20
23.0628220692
 30
0.0
 11
37.1181474392
 21
23.0916472381
 31
0.0
  0
LINE
  5
4F7
330
1F
100
AcDbEntity
  8
0
  6
Continuous
 62
     7
370
    25
100
AcDbLine
 10
37.2120096226
 20
22.9259090176
 30
0.0
 11
37.1645552038
 21
22.952762735
 31
0.0
  0
LINE
  5
4F8
330
1F
100
AcDbEntity
  8
0
  6
Continuous
 62
   144
370
    18
100
AcDbLine
 10
37.2120096226
 20
22.9259090176
 30
0.0
 11
37.1663655166
 21
22.8970620137
 31
0.0
  0
LINE
  5
4F9
330
1F
100
AcDbEntity
  8
0
  6
Continuous
 62
   144
370
    18
100
AcDbLine
 10
37.1663655166
 20
22.8970620137
 30
0.0
 11
37.1645552038
 21
22.952762735
 31
0.0
  0
LINE
  5
4FA
330
1F
100
AcDbEntity
  8
0
  6
Continuous
 62
     7
370
    25
100
AcDbLine
 10
37.2123592304
 20
22.9801227569
 30
0.0
 11
37.1650584395
 21
23.0087094035
 31
0.0
  0
LINE
  5
4FB
330
1F
100
AcDbEntity
  8
0
  6
Continuous
 62
   144
370
    18
100
AcDbLine
 10
37.2586268862
 20
23.0087094035
 30
0.0
 11
37.2123592304
 21
22.9801227569
 31
0.0
  0
LINE
  5
4FC
330
1F
100
AcDbEntity
  8
0
  6
Continuous
 62
   144
370
    18
100
AcDbLine
 10
37.1645552038
 20
22.952762735
 30
0.0
 11
37.165074689
 21
23.0087325186
 31
0.0
  0
LINE
  5
4FD
330
1F
100
AcDbEntity
  8
0
  6
Continuous
 62
   144
370
    18
100
AcDbLine
 10
37.2123592304
 20
22.9801227569
 30
0.0
 11
37.2120096226
 21
22.9259090176
 31
0.0
  0
LINE
  5
4FE
330
1F
100
AcDbEntity
  8
0
  6
Continuous
 62
   144
370
    18
100
AcDbLine
 10
38.1063789361
 20
23.1185520189
 30
0.0
 11
38.0687081103
 21
23.0916472381
 31
0.0
  0
LINE
  5
4FF
330
1F
100
AcDbEntity
  8
0
  6
Continuous
 62
   144
370
    18
100
AcDbLine
 10
36.892157968
 20
22.952762735
 30
0.0
 11
36.8936810214
 21
23.0087325186
 31
0.0
  0
LINE
  5
500
330
1F
100
AcDbEntity
  8
0
  6
Continuous
 62
     7
370
    25
100
AcDbLine
 10
36.7219509141
 20
23.1185520189
 30
0.0
 11
36.7240853924
 21
23.1745463186
 31
0.0
  0
LINE
  5
501
330
1F
100
AcDbEntity
  8
0
  6
Continuous
 62
   144
370
    18
100
AcDbLine
 10
36.7219509141
 20
23.1185520189
 30
0.0
 11
36.7659300556
 21
23.0916472381
 31
0.0
  0
LINE
  5
502
330
1F
100
AcDbEntity
  8
0
  6
Continuous
 62
   144
370
    18
100
AcDbLine
 10
36.767923056
 20
23.1457044506
 30
0.0
 11
36.7240693603
 21
23.1745231409
 31
0.0
  0
LINE
  5
503
330
1F
100
AcDbEntity
  8
0
  6
Continuous
 62
   144
370
    18
100
AcDbLine
 10
38.309063687
 20
23.1185520189
 30
0.0
 11
38.3197279309
 21
23.0916472381
 31
0.0
  0
LINE
  5
504
330
1F
100
AcDbEntity
  8
0
  6
Continuous
 62
   144
370
    18
100
AcDbLine
 10
38.3197279309
 20
23.0916472381
 30
0.0
 11
38.3159823153
 21
23.1457044506
 31
0.0
  0
LINE
  5
505
330
1F
100
AcDbEntity
  8
0
  6
Continuous
 62
   144
370
    18
100
AcDbLine
 10
38.344190112
 20
23.1457044506
 30
0.0
 11
38.3376839762
 21
23.1745231409
 31
0.0
  0
LINE
  5
506
330
1F
100
AcDbEntity
  8
0
  6
Continuous
 62
   144
370
    18
100
AcDbLine
 10
38.362121586
 20
23.1745134292
 30
0.0
 11
38.3575995708
 21
23.2015472624
 31
0.0
  0
LINE
  5
507
330
1F
100
AcDbEntity
  8
0
  6
Continuous
 62
   144
370
    18
100
AcDbLine
 10
38.3621276263
 20
23.1745231337
 30
0.0
 11
38.344190112
 21
23.1457044506
 31
0.0
  0
LINE
  5
508
330
1F
100
AcDbEntity
  8
0
  6
Continuous
 62
   144
370
    18
100
AcDbLine
 10
38.181510839
 20
22.9801227569
 30
0.0
 11
38.1847967027
 21
22.9259090176
 31
0.0
  0
LINE
  5
509
330
1F
100
AcDbEntity
  8
0
  6
Continuous
 62
   144
370
    18
100
AcDbLine
 10
38.1847967027
 20
22.9259090176
 30
0.0
 11
38.1625921098
 21
22.952762735
 31
0.0
  0
LINE
  5
50A
330
1F
100
AcDbEntity
  8
0
  6
Continuous
 62
   144
370
    18
100
AcDbLine
 10
36.9384504636
 20
22.9259090176
 30
0.0
 11
36.892157968
 21
22.952762735
 31
0.0
  0
LINE
  5
50B
330
1F
100
AcDbEntity
  8
0
  6
Continuous
 62
   144
370
    18
100
AcDbLine
 10
36.8974655365
 20
22.8970620137
 30
0.0
 11
36.892157968
 21
22.952762735
 31
0.0
  0
LINE
  5
50C
330
1F
100
AcDbEntity
  8
0
  6
Continuous
 62
   144
370
    18
100
AcDbLine
 10
37.0272578647
 20
23.1457044506
 30
0.0
 11
36.9801138643
 21
23.1745231409
 31
0.0
  0
LINE
  5
50D
330
1F
100
AcDbEntity
  8
0
  6
Continuous
 62
   144
370
    18
100
AcDbLine
 10
38.3765839185
 20
22.952762735
 30
0.0
 11
38.374825751
 21
22.9259090176
 31
0.0
  0
LINE
  5
50E
330
1F
100
AcDbEntity
  8
0
  6
Continuous
 62
   144
370
    18
100
AcDbLine
 10
38.3765839166
 20
22.9527627333
 30
0.0
 11
38.3628332268
 21
22.8970620151
 31
0.0
  0
LINE
  5
50F
330
1F
100
AcDbEntity
  8
0
  6
Continuous
 62
   144
370
    18
100
AcDbLine
 10
38.3643561355
 20
22.9007252425
 30
0.0
 11
38.374825751
 21
22.9259090176
 31
0.0
  0
LINE
  5
510
330
1F
100
AcDbEntity
  8
0
  6
Continuous
 62
   144
370
    18
100
AcDbLine
 10
36.8086069352
 20
23.0087563395
 30
0.0
 11
36.8104190191
 21
23.0628220692
 31
0.0
  0
LINE
  5
511
330
1F
100
AcDbEntity
  8
0
  6
Continuous
 62
   144
370
    18
100
AcDbLine
 10
36.8086069352
 20
23.0087563395
 30
0.0
 11
36.7639451042
 21
23.0357325725
 31
0.0
  0
LINE
  5
512
330
1F
100
AcDbEntity
  8
0
  6
Continuous
 62
   144
370
    18
100
AcDbLine
 10
36.7659300556
 20
23.0916472381
 30
0.0
 11
36.8104190191
 21
23.0628220692
 31
0.0
  0
LINE
  5
513
330
1F
100
AcDbEntity
  8
0
  6
Continuous
 62
   144
370
    18
100
AcDbLine
 10
38.1594364665
 20
23.0086997667
 30
0.0
 11
38.1928856627
 21
23.0357325725
 31
0.0
  0
LINE
  5
514
330
1F
100
AcDbEntity
  8
0
  6
Continuous
 62
   144
370
    18
100
AcDbLine
 10
38.181510839
 20
22.9801227569
 30
0.0
 11
38.1594290225
 21
23.0087094035
 31
0.0
  0
LINE
  5
515
330
1F
100
AcDbEntity
  8
0
  6
Continuous
 62
   144
370
    18
100
AcDbLine
 10
38.2133026847
 20
23.0087094035
 30
0.0
 11
38.181510839
 21
22.9801227569
 31
0.0
  0
LINE
  5
516
330
1F
100
AcDbEntity
  8
0
  6
Continuous
 62
   144
370
    18
100
AcDbLine
 10
37.8431937332
 20
23.1457044506
 30
0.0
 11
37.8052573581
 21
23.1745231409
 31
0.0
  0
LINE
  5
517
330
1F
100
AcDbEntity
  8
0
  6
Continuous
 62
   144
370
    18
100
AcDbLine
 10
37.8052690649
 20
23.1745463186
 30
0.0
 11
37.807103409
 21
23.1185520189
 31
0.0
  0
LINE
  5
518
330
1F
100
AcDbEntity
  8
0
  6
Continuous
 62
     7
370
    25
100
AcDbLine
 10
37.807103409
 20
23.1185520189
 30
0.0
 11
37.8451867336
 21
23.0916472381
 31
0.0
  0
LINE
  5
519
330
1F
100
AcDbEntity
  8
0
  6
Continuous
 62
   144
370
    18
100
AcDbLine
 10
37.8006977601
 20
23.0628220692
 30
0.0
 11
37.8451867336
 21
23.0916472381
 31
0.0
  0
LINE
  5
51A
330
1F
100
AcDbEntity
  8
0
  6
Continuous
 62
   144
370
    18
100
AcDbLine
 10
37.807103409
 20
23.1185520189
 30
0.0
 11
37.8006977601
 21
23.0628220692
 31
0.0
  0
LINE
  5
51B
330
1F
100
AcDbEntity
  8
0
  6
Continuous
 62
   144
370
    18
100
AcDbLine
 10
36.5424086789
 20
23.0916472381
 30
0.0
 11
36.5452272072
 21
23.1457044506
 31
0.0
  0
LINE
  5
51C
330
1F
100
AcDbEntity
  8
0
  6
Continuous
 62
   144
370
    18
100
AcDbLine
 10
36.5047378453
 20
23.1185520189
 30
0.0
 11
36.5424086789
 21
23.0916472381
 31
0.0
  0
LINE
  5
51D
330
1F
100
AcDbEntity
  8
0
  6
Continuous
 62
   144
370
    18
100
AcDbLine
 10
38.2690174103
 20
23.1185520189
 30
0.0
 11
38.2836971261
 21
23.0916472381
 31
0.0
  0
LINE
  5
51E
330
1F
100
AcDbEntity
  8
0
  6
Continuous
 62
   144
370
    18
100
AcDbLine
 10
38.2800845825
 20
23.1457044506
 30
0.0
 11
38.2654908198
 21
23.1745231409
 31
0.0
  0
LINE
  5
51F
330
1F
100
AcDbEntity
  8
0
  6
Continuous
 62
   144
370
    18
100
AcDbLine
 10
37.7599874191
 20
23.1457044506
 30
0.0
 11
37.7196909562
 21
23.1745231409
 31
0.0
  0
LINE
  5
520
330
1F
100
AcDbEntity
  8
0
  6
Continuous
 62
   144
370
    18
100
AcDbLine
 10
37.8052701424
 20
23.1745134292
 30
0.0
 11
37.7658544143
 21
23.2015472624
 31
0.0
  0
LINE
  5
521
330
1F
100
AcDbEntity
  8
0
  6
Continuous
 62
   144
370
    18
100
AcDbLine
 10
37.8052854074
 20
23.1745231409
 30
0.0
 11
37.7599874191
 21
23.1457044506
 31
0.0
  0
LINE
  5
522
330
1F
100
AcDbEntity
  8
0
  6
Continuous
 62
   144
370
    18
100
AcDbLine
 10
37.0747476143
 20
22.8970620137
 30
0.0
 11
37.0717457386
 21
22.952762735
 31
0.0
  0
LINE
  5
523
330
1F
100
AcDbEntity
  8
0
  6
Continuous
 62
   144
370
    18
100
AcDbLine
 10
37.1191728133
 20
22.9259090176
 30
0.0
 11
37.0717457386
 21
22.952762735
 31
0.0
  0
LINE
  5
524
330
1F
100
AcDbEntity
  8
0
  6
Continuous
 62
   144
370
    18
100
AcDbLine
 10
36.2426980506
 20
23.0916472381
 30
0.0
 11
36.2424184736
 21
23.0628220692
 31
0.0
  0
LINE
  5
525
330
1F
100
AcDbEntity
  8
0
  6
Continuous
 62
     7
370
    25
100
AcDbLine
 10
38.3846629713
 20
23.0357325725
 30
0.0
 11
38.3807081751
 21
23.0916472381
 31
0.0
  0
LINE
  5
526
330
1F
100
AcDbEntity
  8
0
  6
Continuous
 62
   144
370
    18
100
AcDbLine
 10
38.3726508185
 20
23.0087563395
 30
0.0
 11
38.3846629713
 21
23.0357325725
 31
0.0
  0
LINE
  5
527
330
1F
100
AcDbEntity
  8
0
  6
Continuous
 62
   144
370
    18
100
AcDbLine
 10
38.370859872
 20
23.0332544526
 30
0.0
 11
38.3726508185
 21
23.0087563395
 31
0.0
  0
LINE
  5
528
330
1F
100
AcDbEntity
  8
0
  6
Continuous
 62
   144
370
    18
100
AcDbLine
 10
38.3808404066
 20
23.0087563395
 30
0.0
 11
38.3846629713
 21
23.0357325725
 31
0.0
  0
LINE
  5
529
330
1F
100
AcDbEntity
  8
0
  6
Continuous
 62
   144
370
    18
100
AcDbLine
 10
38.3796763571
 20
23.0245339084
 30
0.0
 11
38.3808404066
 21
23.0087563395
 31
0.0
  0
LINE
  5
52A
330
1F
100
AcDbEntity
  8
0
  6
Continuous
 62
   144
370
    18
100
AcDbLine
 10
38.3234584193
 20
23.0357325725
 30
0.0
 11
38.3197279309
 21
23.0916472381
 31
0.0
  0
LINE
  5
52B
330
1F
100
AcDbEntity
  8
0
  6
Continuous
 62
   144
370
    18
100
AcDbLine
 10
37.5406521333
 20
23.1185520189
 30
0.0
 11
37.5376495554
 21
23.0628220692
 31
0.0
  0
LINE
  5
52C
330
1F
100
AcDbEntity
  8
0
  6
Continuous
 62
   144
370
    18
100
AcDbLine
 10
37.49296935
 20
23.0916472381
 30
0.0
 11
37.5376495554
 21
23.0628220692
 31
0.0
  0
LINE
  5
52D
330
1F
100
AcDbEntity
  8
0
  6
Continuous
 62
   144
370
    18
100
AcDbLine
 10
36.3894781543
 20
23.1185520189
 30
0.0
 11
36.392828614
 21
23.1745463186
 31
0.0
  0
LINE
  5
52E
330
1F
100
AcDbEntity
  8
0
  6
Continuous
 62
   144
370
    18
100
AcDbLine
 10
36.3894781543
 20
23.1185520189
 30
0.0
 11
36.4214830805
 21
23.0916472381
 31
0.0
  0
LINE
  5
52F
330
1F
100
AcDbEntity
  8
0
  6
Continuous
 62
   144
370
    18
100
AcDbLine
 10
38.1034644084
 20
23.1745231409
 30
0.0
 11
38.0658895821
 21
23.1457044506
 31
0.0
  0
LINE
  5
530
330
1F
100
AcDbEntity
  8
0
  6
Continuous
 62
   144
370
    18
100
AcDbLine
 10
38.103451746
 20
23.1745134292
 30
0.0
 11
38.0757059872
 21
23.2015472624
 31
0.0
  0
LINE
  5
531
330
1F
100
AcDbEntity
  8
0
  6
Continuous
 62
   144
370
    18
100
AcDbLine
 10
38.0366929454
 20
23.1745134292
 30
0.0
 11
38.0757059872
 21
23.2015472624
 31
0.0
  0
LINE
  5
532
330
1F
100
AcDbEntity
  8
0
  6
Continuous
 62
   144
370
    18
100
AcDbLine
 10
38.0658895821
 20
23.1457044506
 30
0.0
 11
38.036683103
 21
23.1745231409
 31
0.0
  0
LINE
  5
533
330
1F
100
AcDbEntity
  8
0
  6
Continuous
 62
   144
370
    18
100
AcDbLine
 10
37.6309863252
 20
23.1745463186
 30
0.0
 11
37.63218091
 21
23.1185520189
 31
0.0
  0
LINE
  5
534
330
1F
100
AcDbEntity
  8
0
  6
Continuous
 62
   144
370
    18
100
AcDbLine
 10
37.3526789893
 20
22.952762735
 30
0.0
 11
37.3520740171
 21
22.8970620137
 31
0.0
  0
LINE
  5
535
330
1F
100
AcDbEntity
  8
0
  6
Continuous
 62
   144
370
    18
100
AcDbLine
 10
37.3991071666
 20
22.9259090176
 30
0.0
 11
37.3526789893
 21
22.952762735
 31
0.0
  0
LINE
  5
536
330
1F
100
AcDbEntity
  8
0
  6
Continuous
 62
     7
370
    25
100
AcDbLine
 10
37.3056588649
 20
22.6140140073
 30
0.0
 11
36.3781923198
 21
22.6140140073
 31
0.0
  0
LINE
  5
537
330
1F
100
AcDbEntity
  8
0
  6
Continuous
 62
   144
370
    18
100
AcDbLine
 10
37.3056588649
 20
22.6140140073
 30
0.0
 11
37.3056588649
 21
22.5070135209
 31
0.0
  0
LINE
  5
538
330
1F
100
AcDbEntity
  8
0
  6
Continuous
 62
   144
370
    18
100
AcDbLine
 10
37.3056588649
 20
22.6251237572
 30
0.0
 11
37.3056588649
 21
22.6140140073
 31
0.0
  0
LINE
  5
539
330
1F
100
AcDbEntity
  8
0
  6
Continuous
 62
   144
370
    18
100
AcDbLine
 10
36.3899825061
 20
22.6251237572
 30
0.0
 11
37.3056588649
 21
22.6251237572
 31
0.0
  0
ARC
  5
53A
330
1F
100
AcDbEntity
  8
0
  6
Continuous
 62
   144
370
    18
100
AcDbCircle
 10
36.3899825061
 20
22.6133127335
 30
0.0
 40
0.0118110236220446
100
AcDbArc
 50
90.0
 51
176.596089327
  0
LINE
  5
53B
330
1F
100
AcDbEntity
  8
0
  6
Continuous
 62
   144
370
    18
100
AcDbLine
 10
36.2214312936
 20
23.3040092577
 30
0.0
 11
36.2210944903
 21
23.3040092577
 31
0.0
  0
LWPOLYLINE
  5
53C
330
1F
100
AcDbEntity
  8
0
  6
Continuous
 62
   144
370
    18
100
AcDbPolyline
 90
       11
 70
   128
 43
0.0
 10
36.2234686549
 20
23.4063031527
 10
36.2234662517
 20
23.4063560327
 10
36.2234633957
 20
23.4063714457
 10
36.2234599864
 20
23.4063542335
 10
36.2234549871
 20
23.4062884425
 10
36.2234461406
 20
23.4061045917
 10
36.2234138136
 20
23.4051151484
 10
36.2233095769
 20
23.400907056
 10
36.2229499434
 20
23.3838244812
 10
36.2216379429
 20
23.315208531
 10
36.2214303463
 20
23.3040092577
  0
LINE
  5
53D
330
1F
100
AcDbEntity
  8
0
  6
Continuous
 62
   144
370
    18
100
AcDbLine
 10
38.38823556
 20
23.4063714625
 30
0.0
 11
36.2234639144
 21
23.4063714625
 31
0.0
  0
LINE
  5
53E
330
1F
100
AcDbEntity
  8
0
  6
Continuous
 62
   144
370
    18
100
AcDbLine
 10
38.39076517
 20
23.2614502026
 30
0.0
 11
36.2203516193
 21
23.2614502026
 31
0.0
  0
LINE
  5
53F
330
1F
100
AcDbEntity
  8
0
  6
Continuous
 62
   144
370
    18
100
AcDbLine
 10
38.3524445793
 20
23.4418045333
 30
0.0
 11
36.2592812901
 21
23.4418045333
 31
0.0
  0
LINE
  5
540
330
1F
100
AcDbEntity
  8
0
  6
Continuous
 62
   144
370
    18
100
AcDbLine
 10
36.2592822374
 20
23.4418045333
 30
0.0
 11
36.2234580123
 21
23.4063714625
 31
0.0
  0
ARC
  5
541
330
1F
100
AcDbEntity
  8
0
  6
Continuous
 62
   144
370
    18
100
AcDbCircle
 10
3.7052045563
 20
22.4479584028
 30
0.0
 40
0.0590551181164578
100
AcDbArc
 50
90.0
 51
270.0000000001
  0
LINE
  5
542
330
1F
100
AcDbEntity
  8
0
  6
Continuous
 62
     7
370
    25
100
AcDbLine
 10
3.7052045563
 20
22.5070135209
 30
0.0
 11
35.9558138077
 21
22.5070135209
 31
0.0
  0
ARC
  5
543
330
1F
100
AcDbEntity
  8
0
  6
Continuous
 62
   144
370
    18
100
AcDbCircle
 10
35.9558138077
 20
22.4479584028
 30
0.0
 40
0.0590551181164578
100
AcDbArc
 50
269.9999999998
 51
90.0
  0
LINE
  5
544
330
1F
100
AcDbEntity
  8
0
  6
Continuous
 62
     7
370
    25
100
AcDbLine
 10
35.9558138077
 20
22.3889032847
 30
0.0
 11
3.7052045563
 21
22.3889032847
 31
0.0
  0
LINE
  5
545
330
1F
100
AcDbEntity
  8
0
  6
Continuous
 62
   144
370
    18
100
AcDbLine
 10
4.6960439075
 20
21.7617505635
 30
0.0
 11
4.6960439075
 21
21.8940097624
 31
0.0
  0
ARC
  5
546
330
1F
100
AcDbEntity
  8
0
  6
Continuous
 62
   144
370
    18
100
AcDbCircle
 10
35.961381581
 20
22.4479584028
 30
0.0
 40
0.0590551181164578
100
AcDbArc
 50
270.0000000002
 51
90.0
  0
LINE
  5
547
330
1F
100
AcDbEntity
  8
0
  6
Continuous
 62
     7
370
    25
100
AcDbLine
 10
35.961381581
 20
22.5070135209
 30
0.0
 11
39.5843088758
 21
22.5070135209
 31
0.0
  0
ARC
  5
548
330
1F
100
AcDbEntity
  8
0
  6
Continuous
 62
   144
370
    18
100
AcDbCircle
 10
39.5843088758
 20
22.4479584028
 30
0.0
 40
0.0590551181103795
100
AcDbArc
 50
19.4712206278
 51
90.0
  0
LINE
  5
549
330
1F
100
AcDbEntity
  8
0
  6
Continuous
 62
     7
370
    25
100
AcDbLine
 10
39.6399865751
 20
22.4676434422
 30
0.0
 11
39.6372026901
 21
22.4676434422
 31
0.0
  0
ARC
  5
54A
330
1F
100
AcDbEntity
  8
0
  6
Continuous
 62
   144
370
    18
100
AcDbCircle
 10
39.5815249908
 20
22.4479584028
 30
0.0
 40
0.0590551181124543
100
AcDbArc
 50
270.0
 51
19.4712206335
  0
LINE
  5
54B
330
1F
100
AcDbEntity
  8
0
  6
Continuous
 62
     7
370
    25
100
AcDbLine
 10
39.5815249908
 20
22.3889032847
 30
0.0
 11
35.961381581
 21
22.3889032847
 31
0.0
  0
ARC
  5
54C
330
1F
100
AcDbEntity
  8
0
  6
Continuous
 62
   144
370
    18
100
AcDbCircle
 10
39.5843088758
 20
22.4479584028
 30
0.0
 40
0.0590551181166425
100
AcDbArc
 50
270.0
 51
19.4712206278
  0
LINE
  5
54D
330
1F
100
AcDbEntity
  8
0
  6
Continuous
 62
   144
370
    18
100
AcDbLine
 10
36.0170593466
 20
22.4676434422
 30
0.0
 11
36.0114915734
 21
22.4676434422
 31
0.0
  0
LINE
  5
54E
330
1F
100
AcDbEntity
  8
0
  6
Continuous
 62
   144
370
    18
100
AcDbLine
 10
35.961381581
 20
22.5070135209
 30
0.0
 11
35.9558138077
 21
22.5070135209
 31
0.0
  0
LINE
  5
54F
330
1F
100
AcDbEntity
  8
0
  6
Continuous
 62
   144
370
    18
100
AcDbLine
 10
35.961381581
 20
22.3889032847
 30
0.0
 11
35.9558138077
 21
22.3889032847
 31
0.0
  0
LINE
  5
550
330
1F
100
AcDbEntity
  8
0
  6
Continuous
 62
   144
370
    18
100
AcDbLine
 10
39.5815249908
 20
22.3889032847
 30
0.0
 11
39.5843088758
 21
22.3889032847
 31
0.0
  0
LINE
  5
551
330
1F
100
AcDbEntity
  8
0
  6
Continuous
 62
   144
370
    18
100
AcDbLine
 10
36.0114915734
 20
22.4282733635
 30
0.0
 11
36.0170593466
 21
22.4282733635
 31
0.0
  0
LINE
  5
552
330
1F
100
AcDbEntity
  8
0
  6
Continuous
 62
   144
370
    18
100
AcDbLine
 10
36.0148689962
 20
22.4479586391
 30
0.0
 11
36.0204367694
 21
22.4479586391
 31
0.0
  0
LINE
  5
553
330
1F
100
AcDbEntity
  8
0
  6
Continuous
 62
     7
370
    25
100
AcDbLine
 10
4.4701371348
 20
16.5227623167
 30
0.0
 11
4.4701371348
 21
22.3889032847
 31
0.0
  0
LINE
  5
554
330
1F
100
AcDbEntity
  8
0
  6
Continuous
 62
     7
370
    25
100
AcDbLine
 10
4.4701371348
 20
16.5227623167
 30
0.0
 11
4.4701371348
 21
16.483392238
 31
0.0
  0
LINE
  5
555
330
1F
100
AcDbEntity
  8
0
  6
Continuous
 62
     7
370
    25
100
AcDbLine
 10
38.7772237489
 20
22.3889032847
 30
0.0
 11
38.7772237489
 21
16.5227623167
 31
0.0
  0
LINE
  5
556
330
1F
100
AcDbEntity
  8
0
  6
Continuous
 62
     7
370
    25
100
AcDbLine
 10
38.7772237489
 20
16.483392238
 30
0.0
 11
38.7772237489
 21
16.5227623167
 31
0.0
  0
LINE
  5
557
330
1F
100
AcDbEntity
  8
0
  6
Continuous
 62
     7
370
    25
100
AcDbLine
 10
35.1287905552
 20
17.6644940854
 30
0.0
 11
35.1287905552
 21
20.3219744004
 31
0.0
  0
LINE
  5
558
330
1F
100
AcDbEntity
  8
0
  6
Continuous
 62
     7
370
    25
100
AcDbLine
 10
35.1287905552
 20
17.6644940854
 30
0.0
 11
34.9483756616
 21
17.6644940854
 31
0.0
  0
LINE
  5
559
330
1F
100
AcDbEntity
  8
0
  6
Continuous
 62
     7
370
    25
100
AcDbLine
 10
34.9483756616
 20
20.3219744004
 30
0.0
 11
34.9483756616
 21
17.6644940854
 31
0.0
  0
LINE
  5
55A
330
1F
100
AcDbEntity
  8
0
  6
Continuous
 62
     7
370
    25
100
AcDbLine
 10
35.1287905552
 20
20.3219744004
 30
0.0
 11
34.9483756616
 21
20.3219744004
 31
0.0
  0
ARC
  5
55B
330
1F
100
AcDbEntity
  8
0
  6
Continuous
 62
     7
370
    25
100
AcDbCircle
 10
35.0385831084
 20
17.6644940854
 30
0.0
 40
0.0902074468131318
100
AcDbArc
 50
180.0
 51
0.0
  0
ARC
  5
55C
330
1F
100
AcDbEntity
  8
0
  6
Continuous
 62
     7
370
    25
100
AcDbCircle
 10
37.2767344136
 20
17.6644940854
 30
0.0
 40
0.0902074468129115
100
AcDbArc
 50
180.0
 51
0.0
  0
LINE
  5
55D
330
1F
100
AcDbEntity
  8
0
  6
Continuous
 62
     7
370
    25
100
AcDbLine
 10
37.3669418604
 20
17.6644940854
 30
0.0
 11
37.1865269668
 21
17.6644940854
 31
0.0
  0
ARC
  5
55E
330
1F
100
AcDbEntity
  8
0
  6
Continuous
 62
     7
370
    25
100
AcDbCircle
 10
37.2767344136
 20
20.3219744004
 30
0.0
 40
0.0902074468129115
100
AcDbArc
 50
0.0
 51
180.0
  0
LINE
  5
55F
330
1F
100
AcDbEntity
  8
0
  6
Continuous
 62
     7
370
    25
100
AcDbLine
 10
37.3669418604
 20
20.3219744004
 30
0.0
 11
37.1865269668
 21
20.3219744004
 31
0.0
  0
ARC
  5
560
330
1F
100
AcDbEntity
  8
0
  6
Continuous
 62
     7
370
    25
100
AcDbCircle
 10
35.0385831084
 20
20.3219744004
 30
0.0
 40
0.0902074468131318
100
AcDbArc
 50
0.0
 51
180.0
  0
LINE
  5
561
330
1F
100
AcDbEntity
  8
0
  6
Continuous
 62
     7
370
    25
100
AcDbLine
 10
37.3669418604
 20
17.6644940854
 30
0.0
 11
37.3669418604
 21
20.3219744004
 31
0.0
  0
LINE
  5
562
330
1F
100
AcDbEntity
  8
0
  6
Continuous
 62
     7
370
    25
100
AcDbLine
 10
37.1865269668
 20
20.3219744004
 30
0.0
 11
37.1865269668
 21
17.6644940854
 31
0.0
  0
ARC
  5
563
330
1F
100
AcDbEntity
  8
0
  6
Continuous
 62
     7
370
    25
100
AcDbCircle
 10
11.4755909824
 20
20.2629192823
 30
0.0
 40
0.0902074468131282
100
AcDbArc
 50
180.0
 51
0.0
  0
LINE
  5
564
330
1F
100
AcDbEntity
  8
0
  6
Continuous
 62
     7
370
    25
100
AcDbLine
 10
11.5657984292
 20
20.2629192823
 30
0.0
 11
11.3853835356
 21
20.2629192823
 31
0.0
  0
ARC
  5
565
330
1F
100
AcDbEntity
  8
0
  6
Continuous
 62
     7
370
    25
100
AcDbCircle
 10
5.5700791714
 20
20.2629192823
 30
0.0
 40
0.0902074468131291
100
AcDbArc
 50
180.0
 51
0.0
  0
LINE
  5
566
330
1F
100
AcDbEntity
  8
0
  6
Continuous
 62
     7
370
    25
100
AcDbLine
 10
5.6602866182
 20
20.2629192823
 30
0.0
 11
5.4798717245
 21
20.2629192823
 31
0.0
  0
LINE
  5
567
330
1F
100
AcDbEntity
  8
0
  6
Continuous
 62
     7
370
    25
100
AcDbLine
 10
11.5657984292
 20
20.2629192823
 30
0.0
 11
11.5657984292
 21
21.8574074712
 31
0.0
  0
LINE
  5
568
330
1F
100
AcDbEntity
  8
0
  6
Continuous
 62
     7
370
    25
100
AcDbLine
 10
11.3853835356
 20
21.8574074712
 30
0.0
 11
11.3853835356
 21
20.2629192823
 31
0.0
  0
LINE
  5
569
330
1F
100
AcDbEntity
  8
0
  6
Continuous
 62
   144
370
    18
100
AcDbLine
 10
11.5657984292
 20
21.8574074712
 30
0.0
 11
11.3853835356
 21
21.8574074712
 31
0.0
  0
LINE
  5
56A
330
1F
100
AcDbEntity
  8
0
  6
Continuous
 62
     7
370
    25
100
AcDbLine
 10
5.6602866182
 20
20.2629192823
 30
0.0
 11
5.6602866182
 21
21.8574074712
 31
0.0
  0
LINE
  5
56B
330
1F
100
AcDbEntity
  8
0
  6
Continuous
 62
     7
370
    25
100
AcDbLine
 10
5.4798717245
 20
21.8574074712
 30
0.0
 11
5.4798717245
 21
20.2629192823
 31
0.0
  0
LINE
  5
56C
330
1F
100
AcDbEntity
  8
0
  6
Continuous
 62
   144
370
    18
100
AcDbLine
 10
5.6602866182
 20
21.8574074712
 30
0.0
 11
5.4798717245
 21
21.8574074712
 31
0.0
  0
LINE
  5
56D
330
1F
100
AcDbEntity
  8
0
  6
Continuous
 62
     7
370
    25
100
AcDbLine
 10
4.4701371348
 20
16.5227623167
 30
0.0
 11
38.7772237489
 21
16.5227623167
 31
0.0
  0
LINE
  5
56E
330
1F
100
AcDbEntity
  8
0
  6
Continuous
 62
     7
370
    25
100
AcDbLine
 10
38.7772237489
 20
16.483392238
 30
0.0
 11
4.4701371348
 21
16.483392238
 31
0.0
  0
CIRCLE
  5
56F
330
1F
100
AcDbEntity
  8
0
  6
Continuous
 62
     7
370
    25
100
AcDbCircle
 10
20.2555529509
 20
18.7275582587
 30
0.0
 40
0.8357449630455882
  0
CIRCLE
  5
570
330
1F
100
AcDbEntity
  8
0
  6
Continuous
 62
     7
370
    25
100
AcDbCircle
 10
36.157658761
 20
20.1628306699
 30
0.0
 40
0.2559058092231368
  0
CIRCLE
  5
571
330
1F
100
AcDbEntity
  8
0
  6
Continuous
 62
     7
370
    25
100
AcDbCircle
 10
38.5410026641
 20
17.418431344
 30
0.0
 40
0.0669291338582667
  0
CIRCLE
  5
572
330
1F
100
AcDbEntity
  8
0
  6
Continuous
 62
     7
370
    25
100
AcDbCircle
 10
4.7063582196
 20
21.8278801629
 30
0.0
 40
0.0669291338582667
  0
CIRCLE
  5
573
330
1F
100
AcDbEntity
  8
0
  6
Continuous
 62
     7
370
    25
100
AcDbCircle
 10
4.7063582196
 20
17.418431344
 30
0.0
 40
0.0669291338582667
  0
CIRCLE
  5
574
330
1F
100
AcDbEntity
  8
0
  6
Continuous
 62
     7
370
    25
100
AcDbCircle
 10
4.7063582196
 20
19.6231557535
 30
0.0
 40
0.0669291338582667
  0
LINE
  5
575
330
1F
100
AcDbEntity
  8
0
  6
Continuous
 62
     7
370
    25
100
AcDbLine
 10
17.8847969938
 20
19.1331247877
 30
0.0
 11
5.8566411292
 21
19.1331249723
 31
0.0
  0
ARC
  5
576
330
1F
100
AcDbEntity
  8
0
  6
Continuous
 62
     7
370
    25
100
AcDbCircle
 10
17.8866960047
 20
19.4427996435
 30
0.0
 40
0.3096806784066419
100
AcDbArc
 50
269.6486510106
 51
0.351347231
  0
ARC
  5
577
330
1F
100
AcDbEntity
  8
0
  6
Continuous
 62
     7
370
    25
100
AcDbCircle
 10
17.8866960051
 20
19.4688652568
 30
0.0
 40
0.309680678406596
100
AcDbArc
 50
359.6486510106
 51
90.351347231
  0
LINE
  5
578
330
1F
100
AcDbEntity
  8
0
  6
Continuous
 62
   144
370
    18
100
AcDbLine
 10
5.8566411391
 20
19.7785402972
 30
0.0
 11
17.8847970037
 21
19.7785401127
 31
0.0
  0
ARC
  5
579
330
1F
100
AcDbEntity
  8
0
  6
Continuous
 62
     7
370
    25
100
AcDbCircle
 10
5.8547421281
 20
19.4688654414
 30
0.0
 40
0.3096806784065535
100
AcDbArc
 50
89.6486510106
 51
180.351347231
  0
ARC
  5
57A
330
1F
100
AcDbEntity
  8
0
  6
Continuous
 62
     7
370
    25
100
AcDbCircle
 10
5.8547421277
 20
19.4427998281
 30
0.0
 40
0.3096806784065483
100
AcDbArc
 50
179.6486510106
 51
270.351347231
  0
LINE
  5
57B
330
1F
100
AcDbEntity
  8
0
  6
Continuous
 62
     7
370
    25
100
AcDbLine
 10
33.4831314998
 20
19.1331250723
 30
0.0
 11
23.1774900228
 21
19.1331252305
 31
0.0
  0
ARC
  5
57C
330
1F
100
AcDbEntity
  8
0
  6
Continuous
 62
     7
370
    25
100
AcDbCircle
 10
33.4850305107
 20
19.4427999282
 30
0.0
 40
0.3096806784065041
100
AcDbArc
 50
269.6486510106
 51
0.351347231
  0
ARC
  5
57D
330
1F
100
AcDbEntity
  8
0
  6
Continuous
 62
     7
370
    25
100
AcDbCircle
 10
33.4850305111
 20
19.4688655414
 30
0.0
 40
0.309680678406543
100
AcDbArc
 50
359.6486510106
 51
90.351347231
  0
LINE
  5
57E
330
1F
100
AcDbEntity
  8
0
  6
Continuous
 62
     7
370
    25
100
AcDbLine
 10
23.1774900327
 20
19.7785405555
 30
0.0
 11
33.4831315097
 21
19.7785403973
 31
0.0
  0
ARC
  5
57F
330
1F
100
AcDbEntity
  8
0
  6
Continuous
 62
     7
370
    25
100
AcDbCircle
 10
23.1755910218
 20
19.4688656996
 30
0.0
 40
0.3096806784066066
100
AcDbArc
 50
89.6486510106
 51
180.351347231
  0
ARC
  5
580
330
1F
100
AcDbEntity
  8
0
  6
Continuous
 62
     7
370
    25
100
AcDbCircle
 10
23.1755910214
 20
19.4428000864
 30
0.0
 40
0.309680678406603
100
AcDbArc
 50
179.6486510106
 51
270.351347231
  0
ARC
  5
581
330
1F
100
AcDbEntity
  8
0
  6
Continuous
 62
   144
370
    18
100
AcDbCircle
 10
11.4755909824
 20
21.8574074712
 30
0.0
 40
0.0902074468131282
100
AcDbArc
 50
0.0
 51
180.0
  0
ARC
  5
582
330
1F
100
AcDbEntity
  8
0
  6
Continuous
 62
   144
370
    18
100
AcDbCircle
 10
5.5700791714
 20
21.8574074712
 30
0.0
 40
0.0902074468131291
100
AcDbArc
 50
0.0
 51
180.0
  0
LINE
  5
583
330
1F
100
AcDbEntity
  8
0
  6
Continuous
 62
   144
370
    18
100
AcDbLine
 10
22.8659161656
 20
19.4446990973
 30
0.0
 11
22.8659161659
 21
19.4669666982
 31
0.0
  0
LINE
  5
584
330
1F
100
AcDbEntity
  8
0
  6
Continuous
 62
   144
370
    18
100
AcDbLine
 10
33.7947053669
 20
19.4669665305
 30
0.0
 11
33.7947053666
 21
19.4446989296
 31
0.0
  0
LINE
  5
585
330
1F
100
AcDbEntity
  8
0
  6
Continuous
 62
   144
370
    18
100
AcDbLine
 10
5.5450672719
 20
19.4446988391
 30
0.0
 11
5.5450672723
 21
19.46696644
 31
0.0
  0
LINE
  5
586
330
1F
100
AcDbEntity
  8
0
  6
Continuous
 62
   144
370
    18
100
AcDbLine
 10
18.1963708609
 20
19.4669662458
 30
0.0
 11
18.1963708606
 21
19.4446986449
 31
0.0
  0
CIRCLE
  5
587
330
1F
100
AcDbEntity
  8
0
  6
Continuous
 62
   144
370
    18
100
AcDbCircle
 10
38.5410026641
 20
21.8278801629
 30
0.0
 40
0.0669291338582667
  0
CIRCLE
  5
588
330
1F
100
AcDbEntity
  8
0
  6
Continuous
 62
   144
370
    18
100
AcDbCircle
 10
38.5410026641
 20
19.6231557535
 30
0.0
 40
0.0669291338582667
  0
LINE
  5
589
330
1F
100
AcDbEntity
  8
0
  6
Continuous
 62
   144
370
    18
100
AcDbLine
 10
36.7506288854
 20
19.6043323931
 30
0.0
 11
36.7506288799
 21
17.9945572927
 31
0.0
  0
ARC
  5
58A
330
1F
100
AcDbEntity
  8
0
  6
Continuous
 62
   144
370
    18
100
AcDbCircle
 10
36.6673189368
 20
17.9945090713
 30
0.0
 40
0.0833099570878823
100
AcDbArc
 50
269.9668357996
 51
0.0331639092
  0
LINE
  5
58B
330
1F
100
AcDbEntity
  8
0
  6
Continuous
 62
   144
370
    18
100
AcDbLine
 10
36.667270715
 20
17.9111991282
 30
0.0
 11
36.3526873974
 21
17.9111991282
 31
0.0
  0
LINE
  5
58C
330
1F
100
AcDbEntity
  8
0
  6
Continuous
 62
   144
370
    18
100
AcDbLine
 10
36.352240951
 20
17.911199133
 30
0.0
 11
36.3325589098
 21
17.9111991333
 31
0.0
  0
LINE
  5
58D
330
1F
100
AcDbEntity
  8
0
  6
Continuous
 62
   144
370
    18
100
AcDbLine
 10
35.9827586122
 20
17.9111991285
 30
0.0
 11
35.6480468011
 21
17.9111991336
 31
0.0
  0
ARC
  5
58E
330
1F
100
AcDbEntity
  8
0
  6
Continuous
 62
   144
370
    18
100
AcDbCircle
 10
35.6479985797
 20
17.9945090768
 30
0.0
 40
0.0833099570826394
100
AcDbArc
 50
179.9668401707
 51
270.0331639102
  0
LINE
  5
58F
330
1F
100
AcDbEntity
  8
0
  6
Continuous
 62
   144
370
    18
100
AcDbLine
 10
35.5646886366
 20
17.9945572922
 30
0.0
 11
35.564688642
 21
19.6043323935
 31
0.0
  0
ARC
  5
590
330
1F
100
AcDbEntity
  8
0
  6
Continuous
 62
   144
370
    18
100
AcDbCircle
 10
35.6479985852
 20
19.6043806149
 30
0.0
 40
0.0833099570833995
100
AcDbArc
 50
89.9668395359
 51
180.0331639101
  0
LINE
  5
591
330
1F
100
AcDbEntity
  8
0
  6
Continuous
 62
   144
370
    18
100
AcDbLine
 10
35.6480468016
 20
19.6876905581
 30
0.0
 11
35.7858600704
 21
19.6876905526
 31
0.0
  0
ARC
  5
592
330
1F
100
AcDbEntity
  8
0
  6
Continuous
 62
   144
370
    18
100
AcDbCircle
 10
35.7858540991
 20
19.7224306019
 30
0.0
 40
0.0347400497814182
100
AcDbArc
 50
270.009848291
 51
359.9901591586
  0
LINE
  5
593
330
1F
100
AcDbEntity
  8
0
  6
Continuous
 62
   144
370
    18
100
AcDbLine
 10
35.8205941484
 20
19.7224246351
 30
0.0
 11
35.8205941531
 21
19.7618066951
 31
0.0
  0
ARC
  5
594
330
1F
100
AcDbEntity
  8
0
  6
Continuous
 62
   144
370
    18
100
AcDbCircle
 10
35.8642436839
 20
19.7621512633
 30
0.0
 40
0.0436508907856537
100
AcDbArc
 50
89.5477458909
 51
180.4522819494
  0
LINE
  5
595
330
1F
100
AcDbEntity
  8
0
  6
Continuous
 62
   144
370
    18
100
AcDbLine
 10
35.8645882309
 20
19.8058007943
 30
0.0
 11
36.4492174183
 21
19.8058007896
 31
0.0
  0
ARC
  5
596
330
1F
100
AcDbEntity
  8
0
  6
Continuous
 62
   144
370
    18
100
AcDbCircle
 10
36.4495619866
 20
19.7621512588
 30
0.0
 40
0.0436508907856432
100
AcDbArc
 50
359.5477458908
 51
90.4522819494
  0
LINE
  5
597
330
1F
100
AcDbEntity
  8
0
  6
Continuous
 62
   144
370
    18
100
AcDbLine
 10
36.4932115175
 20
19.7618067118
 30
0.0
 11
36.4932115121
 21
19.722424636
 31
0.0
  0
ARC
  5
598
330
1F
100
AcDbEntity
  8
0
  6
Continuous
 62
   144
370
    18
100
AcDbCircle
 10
36.5279515614
 20
19.7224306073
 30
0.0
 40
0.0347400497816689
100
AcDbArc
 50
180.0098482913
 51
269.9901591583
  0
LINE
  5
599
330
1F
100
AcDbEntity
  8
0
  6
Continuous
 62
   144
370
    18
100
AcDbLine
 10
36.5279455946
 20
19.6876905581
 30
0.0
 11
36.6672707208
 21
19.6876905526
 31
0.0
  0
ARC
  5
59A
330
1F
100
AcDbEntity
  8
0
  6
Continuous
 62
   144
370
    18
100
AcDbCircle
 10
36.6673189422
 20
19.6043806095
 30
0.0
 40
0.0833099570834208
100
AcDbArc
 50
359.966839536
 51
90.0331639101
  0
ARC
  5
59B
330
1F
100
AcDbEntity
  8
0
  6
Continuous
 62
     7
370
    25
100
AcDbCircle
 10
5.8546910896
 20
19.4689164799
 30
0.0
 40
0.2755352296292918
100
AcDbArc
 50
89.5944964813
 51
180.4055017603
  0
LINE
  5
59C
330
1F
100
AcDbEntity
  8
0
  6
Continuous
 62
   144
370
    18
100
AcDbLine
 10
5.8566411386
 20
19.7444448089
 30
0.0
 11
5.8566411391
 21
19.7785402972
 31
0.0
  0
LINE
  5
59D
330
1F
100
AcDbEntity
  8
0
  6
Continuous
 62
   144
370
    18
100
AcDbLine
 10
5.5791627606
 20
19.4669664394
 30
0.0
 11
5.5450672723
 21
19.46696644
 31
0.0
  0
LINE
  5
59E
330
1F
100
AcDbEntity
  8
0
  6
Continuous
 62
   144
370
    18
100
AcDbLine
 10
17.8847970032
 20
19.7444446243
 30
0.0
 11
5.8566411386
 21
19.7444448089
 31
0.0
  0
LINE
  5
59F
330
1F
100
AcDbEntity
  8
0
  6
Continuous
 62
   144
370
    18
100
AcDbLine
 10
17.8847970032
 20
19.7444446243
 30
0.0
 11
17.8847970037
 21
19.7785401127
 31
0.0
  0
LINE
  5
5A0
330
1F
100
AcDbEntity
  8
0
  6
Continuous
 62
   144
370
    18
100
AcDbLine
 10
5.8566411292
 20
19.1331249723
 30
0.0
 11
5.8566411297
 21
19.1672204606
 31
0.0
  0
LINE
  5
5A1
330
1F
100
AcDbEntity
  8
0
  6
Continuous
 62
     7
370
    25
100
AcDbLine
 10
5.8566411297
 20
19.1672204606
 30
0.0
 11
17.8847969943
 21
19.167220276
 31
0.0
  0
LINE
  5
5A2
330
1F
100
AcDbEntity
  8
0
  6
Continuous
 62
     7
370
    25
100
AcDbLine
 10
17.8847969938
 20
19.1331247877
 30
0.0
 11
17.8847969943
 21
19.167220276
 31
0.0
  0
ARC
  5
5A3
330
1F
100
AcDbEntity
  8
0
  6
Continuous
 62
     7
370
    25
100
AcDbCircle
 10
5.8546910892
 20
19.4427487896
 30
0.0
 40
0.2755352296293232
100
AcDbArc
 50
179.5944964813
 51
270.405501761
  0
LINE
  5
5A4
330
1F
100
AcDbEntity
  8
0
  6
Continuous
 62
   144
370
    18
100
AcDbLine
 10
5.5450672719
 20
19.4446988391
 30
0.0
 11
5.5791627602
 21
19.4446988386
 31
0.0
  0
ARC
  5
5A5
330
1F
100
AcDbEntity
  8
0
  6
Continuous
 62
     7
370
    25
100
AcDbCircle
 10
17.8866939061
 20
19.4688631577
 30
0.0
 40
0.2755879949641518
100
AcDbArc
 50
359.6056218854
 51
90.3943763562
  0
LINE
  5
5A6
330
1F
100
AcDbEntity
  8
0
  6
Continuous
 62
   144
370
    18
100
AcDbLine
 10
18.1622753726
 20
19.4669662464
 30
0.0
 11
18.1963708609
 21
19.4669662458
 31
0.0
  0
ARC
  5
5A7
330
1F
100
AcDbEntity
  8
0
  6
Continuous
 62
     7
370
    25
100
AcDbCircle
 10
17.8866939057
 20
19.4428017426
 30
0.0
 40
0.275587994964173
100
AcDbArc
 50
269.6056218854
 51
0.3943763562
  0
LINE
  5
5A8
330
1F
100
AcDbEntity
  8
0
  6
Continuous
 62
   144
370
    18
100
AcDbLine
 10
18.1963708606
 20
19.4446986449
 30
0.0
 11
18.1622753723
 21
19.4446986455
 31
0.0
  0
LINE
  5
5A9
330
1F
100
AcDbEntity
  8
0
  6
Continuous
 62
     7
370
    25
100
AcDbLine
 10
23.1774900228
 20
19.1331252305
 30
0.0
 11
23.1774900233
 21
19.1672207188
 31
0.0
  0
LINE
  5
5AA
330
1F
100
AcDbEntity
  8
0
  6
Continuous
 62
     7
370
    25
100
AcDbLine
 10
23.1774900233
 20
19.1672207188
 30
0.0
 11
33.4831315003
 21
19.1672205607
 31
0.0
  0
LINE
  5
5AB
330
1F
100
AcDbEntity
  8
0
  6
Continuous
 62
     7
370
    25
100
AcDbLine
 10
33.4831314998
 20
19.1331250723
 30
0.0
 11
33.4831315003
 21
19.1672205607
 31
0.0
  0
ARC
  5
5AC
330
1F
100
AcDbEntity
  8
0
  6
Continuous
 62
     7
370
    25
100
AcDbCircle
 10
23.1755931208
 20
19.4688636006
 30
0.0
 40
0.2755879949641695
100
AcDbArc
 50
89.6056218854
 51
180.3943763562
  0
LINE
  5
5AD
330
1F
100
AcDbEntity
  8
0
  6
Continuous
 62
     7
370
    25
100
AcDbLine
 10
23.1774900322
 20
19.7444450671
 30
0.0
 11
23.1774900327
 21
19.7785405555
 31
0.0
  0
LINE
  5
5AE
330
1F
100
AcDbEntity
  8
0
  6
Continuous
 62
   144
370
    18
100
AcDbLine
 10
22.9000116542
 20
19.4669666977
 30
0.0
 11
22.8659161659
 21
19.4669666982
 31
0.0
  0
LINE
  5
5AF
330
1F
100
AcDbEntity
  8
0
  6
Continuous
 62
     7
370
    25
100
AcDbLine
 10
33.4831315091
 20
19.744444909
 30
0.0
 11
23.1774900322
 21
19.7444450671
 31
0.0
  0
LINE
  5
5B0
330
1F
100
AcDbEntity
  8
0
  6
Continuous
 62
     7
370
    25
100
AcDbLine
 10
33.4831315091
 20
19.744444909
 30
0.0
 11
33.4831315097
 21
19.7785403973
 31
0.0
  0
ARC
  5
5B1
330
1F
100
AcDbEntity
  8
0
  6
Continuous
 62
     7
370
    25
100
AcDbCircle
 10
23.1755931204
 20
19.4428021854
 30
0.0
 40
0.2755879949641445
100
AcDbArc
 50
179.6056218854
 51
270.3943763562
  0
LINE
  5
5B2
330
1F
100
AcDbEntity
  8
0
  6
Continuous
 62
   144
370
    18
100
AcDbLine
 10
22.8659161656
 20
19.4446990973
 30
0.0
 11
22.9000116539
 21
19.4446990968
 31
0.0
  0
CIRCLE
  5
5B3
330
1F
100
AcDbEntity
  8
0
  6
Continuous
 62
     7
370
    25
100
AcDbCircle
 10
20.2555529509
 20
18.7275582587
 30
0.0
 40
0.5851953161684627
  0
ARC
  5
5B4
330
1F
100
AcDbEntity
  8
0
  6
Continuous
 62
     7
370
    25
100
AcDbCircle
 10
33.4850815496
 20
19.4689165799
 30
0.0
 40
0.2755352296292884
100
AcDbArc
 50
359.5944964813
 51
90.4055017603
  0
LINE
  5
5B5
330
1F
100
AcDbEntity
  8
0
  6
Continuous
 62
   144
370
    18
100
AcDbLine
 10
33.7606098786
 20
19.466966531
 30
0.0
 11
33.7947053669
 21
19.4669665305
 31
0.0
  0
LINE
  5
5B6
330
1F
100
AcDbEntity
  8
0
  6
Continuous
 62
   144
370
    18
100
AcDbLine
 10
33.7947053666
 20
19.4446989296
 30
0.0
 11
33.7606098782
 21
19.4446989301
 31
0.0
  0
ARC
  5
5B7
330
1F
100
AcDbEntity
  8
0
  6
Continuous
 62
   144
370
    18
100
AcDbCircle
 10
33.4850815492
 20
19.4427488897
 30
0.0
 40
0.2755352296293831
100
AcDbArc
 50
269.5944964813
 51
0.405501761
  0
CIRCLE
  5
5B8
330
1F
100
AcDbEntity
  8
0
  6
Continuous
 62
     7
370
    25
100
AcDbCircle
 10
36.157658761
 20
20.1628306699
 30
0.0
 40
0.2373450271399733
  0
ELLIPSE
  5
5B9
330
1F
100
AcDbEntity
  8
0
  6
Continuous
 62
     7
370
    25
100
AcDbEllipse
 10
5.8741152392
 20
19.462172939
 30
0.0
 11
-0.1905316431330188
 21
-0.1905316372857619
 31
1.776356839400250E-15
210
4.661579737374653E-15
220
4.661579594314667E-15
230
1.0
 40
0.9351131265
 41
5.531305892884608
 42
7.035064721474597
  0
LINE
  5
5BA
330
1F
100
AcDbEntity
  8
0
  6
Continuous
 62
     7
370
    25
100
AcDbLine
 10
5.8566411297
 20
19.1672204606
 30
0.0
 11
5.8566411302
 21
19.2013159489
 31
0.0
  0
LINE
  5
5BB
330
1F
100
AcDbEntity
  8
0
  6
Continuous
 62
   144
370
    18
100
AcDbLine
 10
5.6132582486
 20
19.444698838
 30
0.0
 11
5.5791627602
 21
19.4446988386
 31
0.0
  0
ELLIPSE
  5
5BC
330
1F
100
AcDbEntity
  8
0
  6
Continuous
 62
     7
370
    25
100
AcDbEllipse
 10
5.874115239
 20
19.4494923299
 30
0.0
 11
-0.1905316372857602
 21
0.1905316431330171
 31
0.0
210
0.0
220
0.0
230
1.0
 40
0.9351131265
 41
5.531305892884646
 42
7.035064721474578
  0
LINE
  5
5BD
330
1F
100
AcDbEntity
  8
0
  6
Continuous
 62
     7
370
    25
100
AcDbLine
 10
5.856641138
 20
19.7103493205
 30
0.0
 11
5.8566411386
 21
19.7444448089
 31
0.0
  0
LINE
  5
5BE
330
1F
100
AcDbEntity
  8
0
  6
Continuous
 62
   144
370
    18
100
AcDbLine
 10
5.6132582489
 20
19.4669664389
 30
0.0
 11
5.5791627606
 21
19.4669664394
 31
0.0
  0
ELLIPSE
  5
5BF
330
1F
100
AcDbEntity
  8
0
  6
Continuous
 62
     7
370
    25
100
AcDbEllipse
 10
17.8673228939
 20
19.462172755
 30
0.0
 11
0.1905316372857619
 21
-0.1905316431330171
 31
0.0
210
0.0
220
0.0
230
1.0
 40
0.9351131265
 41
5.531305892884603
 42
7.035064721474561
  0
LINE
  5
5C0
330
1F
100
AcDbEntity
  8
0
  6
Continuous
 62
     7
370
    25
100
AcDbLine
 10
17.8847969943
 20
19.167220276
 30
0.0
 11
17.8847969948
 21
19.2013157644
 31
0.0
  0
LINE
  5
5C1
330
1F
100
AcDbEntity
  8
0
  6
Continuous
 62
   144
370
    18
100
AcDbLine
 10
18.1622753723
 20
19.4446986455
 30
0.0
 11
18.1281798839
 21
19.444698646
 31
0.0
  0
ELLIPSE
  5
5C2
330
1F
100
AcDbEntity
  8
0
  6
Continuous
 62
     7
370
    25
100
AcDbEllipse
 10
17.8673228937
 20
19.4494921459
 30
0.0
 11
0.1905316431330207
 21
0.190531637285762
 31
-1.776356839400251E-15
210
4.661579737374653E-15
220
4.661579594314623E-15
230
1.0
 40
0.9351131265
 41
5.531305892884627
 42
7.035064721474585
  0
LINE
  5
5C3
330
1F
100
AcDbEntity
  8
0
  6
Continuous
 62
     7
370
    25
100
AcDbLine
 10
17.8847970026
 20
19.710349136
 30
0.0
 11
17.8847970032
 21
19.7444446243
 31
0.0
  0
LINE
  5
5C4
330
1F
100
AcDbEntity
  8
0
  6
Continuous
 62
   144
370
    18
100
AcDbLine
 10
18.1622753726
 20
19.4669662464
 30
0.0
 11
18.1281798843
 21
19.4669662469
 31
0.0
  0
ELLIPSE
  5
5C5
330
1F
100
AcDbEntity
  8
0
  6
Continuous
 62
     7
370
    25
100
AcDbEllipse
 10
23.1949641326
 20
19.4494925882
 30
0.0
 11
-0.1905316372857584
 21
0.1905316431330171
 31
0.0
210
0.0
220
0.0
230
1.0
 40
0.9351131265
 41
5.531305892884588
 42
7.035064721474569
  0
LINE
  5
5C6
330
1F
100
AcDbEntity
  8
0
  6
Continuous
 62
     7
370
    25
100
AcDbLine
 10
23.1774900317
 20
19.7103495788
 30
0.0
 11
23.1774900322
 21
19.7444450671
 31
0.0
  0
LINE
  5
5C7
330
1F
100
AcDbEntity
  8
0
  6
Continuous
 62
   144
370
    18
100
AcDbLine
 10
22.9341071426
 20
19.4669666972
 30
0.0
 11
22.9000116542
 21
19.4669666977
 31
0.0
  0
ELLIPSE
  5
5C8
330
1F
100
AcDbEntity
  8
0
  6
Continuous
 62
     7
370
    25
100
AcDbEllipse
 10
23.1949641328
 20
19.4621731972
 30
0.0
 11
-0.1905316431330206
 21
-0.1905316372857584
 31
1.776356839400250E-15
210
4.661579737374741E-15
220
4.661579594314623E-15
230
1.0
 40
0.9351131265
 41
5.531305892884633
 42
7.03506472147457
  0
LINE
  5
5C9
330
1F
100
AcDbEntity
  8
0
  6
Continuous
 62
     7
370
    25
100
AcDbLine
 10
23.1774900233
 20
19.1672207188
 30
0.0
 11
23.1774900239
 21
19.2013162072
 31
0.0
  0
LINE
  5
5CA
330
1F
100
AcDbEntity
  8
0
  6
Continuous
 62
   144
370
    18
100
AcDbLine
 10
22.9341071422
 20
19.4446990963
 30
0.0
 11
22.9000116539
 21
19.4446990968
 31
0.0
  0
ELLIPSE
  5
5CB
330
1F
100
AcDbEntity
  8
0
  6
Continuous
 62
   144
370
    18
100
AcDbEllipse
 10
33.4656573996
 20
19.4494924306
 30
0.0
 11
0.1905316431330135
 21
0.1905316372857619
 31
-1.776356839400250E-15
210
4.661579737374654E-15
220
4.661579594314797E-15
230
1.0
 40
0.9351131265
 41
5.531305892884589
 42
7.035064721474587
  0
LINE
  5
5CC
330
1F
100
AcDbEntity
  8
0
  6
Continuous
 62
     7
370
    25
100
AcDbLine
 10
33.4831315086
 20
19.7103494206
 30
0.0
 11
33.4831315091
 21
19.744444909
 31
0.0
  0
LINE
  5
5CD
330
1F
100
AcDbEntity
  8
0
  6
Continuous
 62
   144
370
    18
100
AcDbLine
 10
33.7606098786
 20
19.466966531
 30
0.0
 11
33.7265143902
 21
19.4669665315
 31
0.0
  0
LINE
  5
5CE
330
1F
100
AcDbEntity
  8
0
  6
Continuous
 62
     7
370
    25
100
AcDbLine
 10
17.8847969948
 20
19.2013157644
 30
0.0
 11
5.8566411302
 21
19.2013159489
 31
0.0
  0
LINE
  5
5CF
330
1F
100
AcDbEntity
  8
0
  6
Continuous
 62
     7
370
    25
100
AcDbLine
 10
5.856641138
 20
19.7103493205
 30
0.0
 11
17.8847970026
 21
19.710349136
 31
0.0
  0
LINE
  5
5D0
330
1F
100
AcDbEntity
  8
0
  6
Continuous
 62
     7
370
    25
100
AcDbLine
 10
33.4831315008
 20
19.201316049
 30
0.0
 11
23.1774900239
 21
19.2013162072
 31
0.0
  0
LINE
  5
5D1
330
1F
100
AcDbEntity
  8
0
  6
Continuous
 62
   144
370
    18
100
AcDbLine
 10
33.4831315003
 20
19.1672205607
 30
0.0
 11
33.4831315008
 21
19.201316049
 31
0.0
  0
LINE
  5
5D2
330
1F
100
AcDbEntity
  8
0
  6
Continuous
 62
     7
370
    25
100
AcDbLine
 10
23.1774900317
 20
19.7103495788
 30
0.0
 11
33.4831315086
 21
19.7103494206
 31
0.0
  0
LINE
  5
5D3
330
1F
100
AcDbEntity
  8
0
  6
Continuous
 62
   144
370
    18
100
AcDbLine
 10
38.8165938277
 20
16.483392238
 30
0.0
 11
38.7772237489
 21
16.483392238
 31
0.0
  0
LINE
  5
5D4
330
1F
100
AcDbEntity
  8
0
  6
Continuous
 62
   144
370
    18
100
AcDbLine
 10
4.430767056
 20
16.483392238
 30
0.0
 11
4.4701371348
 21
16.483392238
 31
0.0
  0
LINE
  5
5D5
330
1F
100
AcDbEntity
  8
0
  6
Continuous
 62
     7
370
    25
100
AcDbLine
 10
38.8165938277
 20
16.5227623167
 30
0.0
 11
38.7772237489
 21
16.5227623167
 31
0.0
  0
LINE
  5
5D6
330
1F
100
AcDbEntity
  8
0
  6
Continuous
 62
     7
370
    25
100
AcDbLine
 10
4.4701371348
 20
16.5227623167
 30
0.0
 11
4.430767056
 21
16.5227623167
 31
0.0
  0
LINE
  5
5D7
330
1F
100
AcDbEntity
  8
0
  6
Continuous
 62
   144
370
    18
100
AcDbLine
 10
5.6132582486
 20
19.444698838
 30
0.0
 11
5.6132582489
 21
19.4669664389
 31
0.0
  0
LINE
  5
5D8
330
1F
100
AcDbEntity
  8
0
  6
Continuous
 62
   144
370
    18
100
AcDbLine
 10
18.1281798843
 20
19.4669662469
 30
0.0
 11
18.1281798839
 21
19.444698646
 31
0.0
  0
LINE
  5
5D9
330
1F
100
AcDbEntity
  8
0
  6
Continuous
 62
   144
370
    18
100
AcDbLine
 10
22.9341071422
 20
19.4446990963
 30
0.0
 11
22.9341071426
 21
19.4669666972
 31
0.0
  0
ELLIPSE
  5
5DA
330
1F
100
AcDbEntity
  8
0
  6
Continuous
 62
   144
370
    18
100
AcDbEllipse
 10
33.4656573998
 20
19.4621730396
 30
0.0
 11
0.1905316372857584
 21
-0.1905316431330206
 31
0.0
210
0.0
220
0.0
230
1.0
 40
0.9351131265
 41
5.531305892884641
 42
7.03506472147456
  0
LINE
  5
5DB
330
1F
100
AcDbEntity
  8
0
  6
Continuous
 62
   144
370
    18
100
AcDbLine
 10
33.7265143902
 20
19.4669665315
 30
0.0
 11
33.7265143899
 21
19.4446989307
 31
0.0
  0
LINE
  5
5DC
330
1F
100
AcDbEntity
  8
0
  6
Continuous
 62
     7
370
    25
100
AcDbLine
 10
4.3913969773
 20
16.8770924973
 30
0.0
 11
4.3913969773
 21
22.3889032847
 31
0.0
  0
LINE
  5
5DD
330
1F
100
AcDbEntity
  8
0
  6
Continuous
 62
   144
370
    18
100
AcDbLine
 10
4.3913969773
 20
16.8770924973
 30
0.0
 11
4.430767056
 21
16.8770924973
 31
0.0
  0
LINE
  5
5DE
330
1F
100
AcDbEntity
  8
0
  6
Continuous
 62
   144
370
    18
100
AcDbLine
 10
4.430767056
 20
16.8770924973
 30
0.0
 11
4.4701371348
 21
16.8770924973
 31
0.0
  0
LINE
  5
5DF
330
1F
100
AcDbEntity
  8
0
  6
Continuous
 62
   144
370
    18
100
AcDbLine
 10
38.7772237489
 20
16.8770924973
 30
0.0
 11
38.8165938277
 21
16.8770924973
 31
0.0
  0
LINE
  5
5E0
330
1F
100
AcDbEntity
  8
0
  6
Continuous
 62
     7
370
    25
100
AcDbLine
 10
38.8559639064
 20
22.3889032847
 30
0.0
 11
38.8559639064
 21
16.8770924973
 31
0.0
  0
LINE
  5
5E1
330
1F
100
AcDbEntity
  8
0
  6
Continuous
 62
   144
370
    18
100
AcDbLine
 10
38.8165938277
 20
16.8770924973
 30
0.0
 11
38.8559639064
 21
16.8770924973
 31
0.0
  0
LINE
  5
5E2
330
1F
100
AcDbEntity
  8
0
  6
Continuous
 62
     7
370
    25
100
AcDbLine
 10
4.430767056
 20
16.5227623167
 30
0.0
 11
4.430767056
 21
16.8770924973
 31
0.0
  0
LINE
  5
5E3
330
1F
100
AcDbEntity
  8
0
  6
Continuous
 62
     7
370
    25
100
AcDbLine
 10
4.3913969773
 20
16.5227623167
 30
0.0
 11
4.3913969773
 21
16.8770924973
 31
0.0
  0
LINE
  5
5E4
330
1F
100
AcDbEntity
  8
0
  6
Continuous
 62
     7
370
    25
100
AcDbLine
 10
38.8559639064
 20
16.5227623167
 30
0.0
 11
38.8559639064
 21
16.8770924973
 31
0.0
  0
CIRCLE
  5
5E5
330
1F
100
AcDbEntity
  8
0
  6
Continuous
 62
     7
370
    25
100
AcDbCircle
 10
20.2555529509
 20
18.7275582587
 30
0.0
 40
0.3529317359868998
  0
CIRCLE
  5
5E6
330
1F
100
AcDbEntity
  8
0
  6
Continuous
 62
   144
370
    18
100
AcDbCircle
 10
36.157658761
 20
20.1628306699
 30
0.0
 40
0.1985730683599627
  0
ARC
  5
5E7
330
1F
100
AcDbEntity
  8
0
  6
Continuous
 62
   144
370
    18
100
AcDbCircle
 10
4.430767056
 20
16.5227623167
 30
0.0
 40
0.0393700787401574
100
AcDbArc
 50
180.0
 51
270.0
  0
ARC
  5
5E8
330
1F
100
AcDbEntity
  8
0
  6
Continuous
 62
     7
370
    25
100
AcDbCircle
 10
38.8165938277
 20
16.5227623167
 30
0.0
 40
0.0393700787401592
100
AcDbArc
 50
270.0
 51
0.0
  0
LINE
  5
5E9
330
1F
100
AcDbEntity
  8
0
  6
Continuous
 62
   144
370
    18
100
AcDbLine
 10
38.8165938277
 20
16.5227623167
 30
0.0
 11
38.8165938277
 21
16.8770924973
 31
0.0
  0
CIRCLE
  5
5EA
330
1F
100
AcDbEntity
  8
0
  6
Continuous
 62
   144
370
    18
100
AcDbCircle
 10
36.157658761
 20
20.1628306699
 30
0.0
 40
0.0984251968503926
  0
CIRCLE
  5
5EB
330
1F
100
AcDbEntity
  8
0
  6
Continuous
 62
     7
370
    25
100
AcDbCircle
 10
20.2555529509
 20
18.7275582587
 30
0.0
 40
0.1062992125984259
  0
CIRCLE
  5
5EC
330
1F
100
AcDbEntity
  8
0
  6
Continuous
 62
     7
370
    25
100
AcDbCircle
 10
20.2555529509
 20
18.7275582587
 30
0.0
 40
0.0669291338582667
  0
CIRCLE
  5
5ED
330
1F
100
AcDbEntity
  8
0
  6
Continuous
 62
     7
370
    25
100
AcDbCircle
 10
20.2555529509
 20
18.7275582587
 30
0.0
 40
0.2137374877218328
  0
ARC
  5
5EE
330
1F
100
AcDbEntity
  8
0
  6
Continuous
 62
     7
370
    25
100
AcDbCircle
 10
5.0016622839
 20
16.5227617887
 30
0.0
 40
0.118110236220474
100
AcDbArc
 50
270.0
 51
340.5290208835
  0
ARC
  5
5EF
330
1F
100
AcDbEntity
  8
0
  6
Continuous
 62
     7
370
    25
100
AcDbCircle
 10
4.9622922051
 20
16.5227617887
 30
0.0
 40
0.1181102362204916
100
AcDbArc
 50
199.4709489274
 51
270.0
  0
LINE
  5
5F0
330
1F
100
AcDbEntity
  8
0
  6
Continuous
 62
   144
370
    18
100
AcDbLine
 10
5.0016622839
 20
16.4046515524
 30
0.0
 11
4.9622922051
 21
16.4046515524
 31
0.0
  0
ARC
  5
5F1
330
1F
100
AcDbEntity
  8
0
  6
Continuous
 62
     7
370
    25
100
AcDbCircle
 10
38.2850977647
 20
16.5227617887
 30
0.0
 40
0.118110236220474
100
AcDbArc
 50
270.0
 51
340.5290208835
  0
ARC
  5
5F2
330
1F
100
AcDbEntity
  8
0
  6
Continuous
 62
     7
370
    25
100
AcDbCircle
 10
38.2457276859
 20
16.5227617887
 30
0.0
 40
0.118110236220474
100
AcDbArc
 50
199.4709489274
 51
270.0
  0
LINE
  5
5F3
330
1F
100
AcDbEntity
  8
0
  6
Continuous
 62
   144
370
    18
100
AcDbLine
 10
38.2850977647
 20
16.4046515524
 30
0.0
 11
38.2457276859
 21
16.4046515524
 31
0.0
  0
LINE
  5
5F4
330
1F
100
AcDbEntity
  8
0
  6
Continuous
 62
     7
370
    25
100
AcDbLine
 10
35.5646886404
 20
19.1331249923
 30
0.0
 11
35.5686194359
 21
19.1331249923
 31
0.0
  0
LINE
  5
5F5
330
1F
100
AcDbEntity
  8
0
  6
Continuous
 62
     7
370
    25
100
AcDbLine
 10
36.7466980861
 20
19.1331249923
 30
0.0
 11
36.7506288838
 21
19.1331249923
 31
0.0
  0
LINE
  5
5F6
330
1F
100
AcDbEntity
  8
0
  6
Continuous
 62
   144
370
    18
100
AcDbLine
 10
36.4954916857
 20
19.7103493406
 30
0.0
 11
36.4904748559
 21
19.7103493406
 31
0.0
  0
LINE
  5
5F7
330
1F
100
AcDbEntity
  8
0
  6
Continuous
 62
   144
370
    18
100
AcDbLine
 10
35.82333081
 20
19.7103493406
 30
0.0
 11
35.8183139804
 21
19.7103493406
 31
0.0
  0
LINE
  5
5F8
330
1F
100
AcDbEntity
  8
0
  6
Continuous
 62
   144
370
    18
100
AcDbLine
 10
36.4893005633
 20
19.7785403173
 30
0.0
 11
36.4492174351
 21
19.7785403173
 31
0.0
  0
LINE
  5
5F9
330
1F
100
AcDbEntity
  8
0
  6
Continuous
 62
   144
370
    18
100
AcDbLine
 10
5.5791627559
 20
19.4669664553
 30
0.0
 11
5.6132582442
 21
19.4669664553
 31
0.0
  0
LINE
  5
5FA
330
1F
100
AcDbEntity
  8
0
  6
Continuous
 62
   144
370
    18
100
AcDbLine
 10
5.6132582442
 20
19.4446988544
 30
0.0
 11
5.5791627559
 21
19.4446988544
 31
0.0
  0
LINE
  5
5FB
330
1F
100
AcDbEntity
  8
0
  6
Continuous
 62
   144
370
    18
100
AcDbLine
 10
5.5791627559
 20
19.4669664553
 30
0.0
 11
5.5450672676
 21
19.4669664553
 31
0.0
  0
LINE
  5
5FC
330
1F
100
AcDbEntity
  8
0
  6
Continuous
 62
   144
370
    18
100
AcDbLine
 10
5.5450672676
 20
19.4446988544
 30
0.0
 11
5.5791627559
 21
19.4446988544
 31
0.0
  0
ARC
  5
5FD
330
1F
100
AcDbEntity
  8
0
  6
Continuous
 62
     7
370
    25
100
AcDbCircle
 10
38.6873670283
 20
29.0907722258
 30
0.0
 40
6.561985446741854
100
AcDbArc
 50
269.1782785399
 51
270.8217214601
  0
ARC
  5
5FE
330
1F
100
AcDbEntity
  8
0
  6
Continuous
 62
   144
370
    18
100
AcDbCircle
 10
38.7775390252
 20
22.5183266255
 30
0.0
 40
0.0118098738047117
100
AcDbArc
 50
3.001427322
 51
70.5366298131
  0
ARC
  5
5FF
330
1F
100
AcDbEntity
  8
0
  6
Continuous
 62
   144
370
    18
100
AcDbCircle
 10
45.7600802575
 20
22.4203963293
 30
0.0
 40
7.167650159614052
100
AcDbArc
 50
179.1281351755
 51
179.2122103184
  0
ARC
  5
600
330
1F
100
AcDbEntity
  8
0
  6
Continuous
 62
   144
370
    18
100
AcDbCircle
 10
38.6912201529
 20
26.8404582953
 30
0.0
 40
4.322626890027389
100
AcDbArc
 50
268.6994210444
 51
271.3005789555
  0
ARC
  5
601
330
1F
100
AcDbEntity
  8
0
  6
Continuous
 62
     7
370
    25
100
AcDbCircle
 10
35.9279820444
 20
29.2348613307
 30
0.0
 40
6.70606005179747
100
AcDbArc
 50
269.1959337729
 51
270.8040662271
  0
ARC
  5
602
330
1F
100
AcDbEntity
  8
0
  6
Continuous
 62
   144
370
    18
100
AcDbCircle
 10
28.8552688125
 20
22.4203963293
 30
0.0
 40
7.167650162336138
100
AcDbArc
 50
0.7877896818
 51
0.8718648247
  0
ARC
  5
603
330
1F
100
AcDbEntity
  8
0
  6
Continuous
 62
   144
370
    18
100
AcDbCircle
 10
35.8378100475
 20
22.5183266255
 30
0.0
 40
0.0118098738047119
100
AcDbArc
 50
109.463370187
 51
176.998572678
  0
ARC
  5
604
330
1F
100
AcDbEntity
  8
0
  6
Continuous
 62
   144
370
    18
100
AcDbCircle
 10
35.9241289198
 20
26.9133391028
 30
0.0
 40
4.395489233201998
100
AcDbArc
 50
268.7209838562
 51
271.2790161438
  0
LINE
  5
605
330
1F
100
AcDbEntity
  8
0
  6
Continuous
 62
   144
370
    18
100
AcDbLine
 10
38.5857453947
 20
22.5189973816
 30
0.0
 11
38.5857453947
 21
22.5294661388
 31
0.0
  0
LINE
  5
606
330
1F
100
AcDbEntity
  8
0
  6
Continuous
 62
   144
370
    18
100
AcDbLine
 10
36.029603678
 20
22.5189973816
 30
0.0
 11
36.029603678
 21
22.5294661388
 31
0.0
  0
LINE
  5
607
330
1F
100
AcDbEntity
  8
0
  6
Continuous
 62
   144
370
    18
100
AcDbLine
 10
36.029603678
 20
22.5189973816
 30
0.0
 11
36.0222414655
 21
22.5189450003
 31
0.0
  0
LINE
  5
608
330
1F
100
AcDbEntity
  8
0
  6
Continuous
 62
   144
370
    18
100
AcDbLine
 10
36.0222414655
 20
22.5189450003
 30
0.0
 11
36.0222414655
 21
22.5070135209
 31
0.0
  0
LINE
  5
609
330
1F
100
AcDbEntity
  8
0
  6
Continuous
 62
   144
370
    18
100
AcDbLine
 10
38.5931076072
 20
22.5189450003
 30
0.0
 11
38.5931076072
 21
22.5070135209
 31
0.0
  0
LINE
  5
60A
330
1F
100
AcDbEntity
  8
0
  6
Continuous
 62
   144
370
    18
100
AcDbLine
 10
38.5931076072
 20
22.5189450003
 30
0.0
 11
38.5857453947
 21
22.5189973816
 31
0.0
  0
LINE
  5
60B
330
1F
100
AcDbEntity
  8
0
  6
Continuous
 62
     7
370
    25
100
AcDbLine
 10
35.8337419837
 20
22.5294661388
 30
0.0
 11
35.9804259829
 21
22.583339928
 31
0.0
  0
ARC
  5
60C
330
1F
100
AcDbEntity
  8
0
  6
Continuous
 62
     7
370
    25
100
AcDbCircle
 10
36.0788299808
 20
19.899836133
 30
0.0
 40
2.685307424574434
100
AcDbArc
 50
87.8999065922
 51
92.1000934078
  0
LINE
  5
60D
330
1F
100
AcDbEntity
  8
0
  6
Continuous
 62
     7
370
    25
100
AcDbLine
 10
36.1772339787
 20
22.583339928
 30
0.0
 11
36.029603678
 21
22.5294661388
 31
0.0
  0
LWPOLYLINE
  5
60E
330
1F
100
AcDbEntity
  8
0
  6
Continuous
 62
   144
370
    18
100
AcDbPolyline
 90
        3
 70
   128
 43
0.0
 10
35.8337419837
 20
22.5294661388
 10
35.8337420286
 20
22.5294661553
 10
35.8338749485
 20
22.5294616206
  0
LWPOLYLINE
  5
60F
330
1F
100
AcDbEntity
  8
0
  6
Continuous
 62
   144
370
    18
100
AcDbPolyline
 90
        3
 70
   128
 43
0.0
 10
36.0220891403
 20
22.5294616206
 10
36.0296013163
 20
22.5294661553
 10
36.029603678
 20
22.5294661388
  0
LINE
  5
610
330
1F
100
AcDbEntity
  8
0
  6
Continuous
 62
     7
370
    25
100
AcDbLine
 10
38.4381150939
 20
22.583339928
 30
0.0
 11
38.5857453947
 21
22.5294661388
 31
0.0
  0
ARC
  5
611
330
1F
100
AcDbEntity
  8
0
  6
Continuous
 62
     7
370
    25
100
AcDbCircle
 10
38.5365190918
 20
19.5786411869
 30
0.0
 40
3.006309676531878
100
AcDbArc
 50
88.1242314808
 51
91.8757685192
  0
LINE
  5
612
330
1F
100
AcDbEntity
  8
0
  6
Continuous
 62
     7
370
    25
100
AcDbLine
 10
38.781607089
 20
22.5294661388
 30
0.0
 11
38.6349230897
 21
22.583339928
 31
0.0
  0
LWPOLYLINE
  5
613
330
1F
100
AcDbEntity
  8
0
  6
Continuous
 62
   144
370
    18
100
AcDbPolyline
 90
        3
 70
   128
 43
0.0
 10
38.5857453947
 20
22.5294661388
 10
38.5857477564
 20
22.5294661553
 10
38.5932599324
 20
22.5294616206
  0
LWPOLYLINE
  5
614
330
1F
100
AcDbEntity
  8
0
  6
Continuous
 62
   144
370
    18
100
AcDbPolyline
 90
        3
 70
   128
 43
0.0
 10
38.7814741241
 20
22.5294616206
 10
38.781607044
 20
22.5294661553
 10
38.781607089
 20
22.5294661388
  0
LINE
  5
615
330
1F
100
AcDbEntity
  8
0
  6
Continuous
 62
     7
370
    25
100
AcDbLine
 10
35.9939992251
 20
22.5857536784
 30
0.0
 11
36.1772339787
 21
22.5857536784
 31
0.0
  0
LINE
  5
616
330
1F
100
AcDbEntity
  8
0
  6
Continuous
 62
     7
370
    25
100
AcDbLine
 10
36.1772339787
 20
22.583339928
 30
0.0
 11
36.1772339787
 21
22.5857536784
 31
0.0
  0
LINE
  5
617
330
1F
100
AcDbEntity
  8
0
  6
Continuous
 62
   144
370
    18
100
AcDbLine
 10
35.9804259829
 20
22.583339928
 30
0.0
 11
35.9939992251
 21
22.5857536784
 31
0.0
  0
LINE
  5
618
330
1F
100
AcDbEntity
  8
0
  6
Continuous
 62
     7
370
    25
100
AcDbLine
 10
38.4381150939
 20
22.583339928
 30
0.0
 11
38.4381150939
 21
22.5857536784
 31
0.0
  0
LINE
  5
619
330
1F
100
AcDbEntity
  8
0
  6
Continuous
 62
     7
370
    25
100
AcDbLine
 10
38.4381150939
 20
22.5857536784
 30
0.0
 11
38.6213498476
 21
22.5857536784
 31
0.0
  0
LINE
  5
61A
330
1F
100
AcDbEntity
  8
0
  6
Continuous
 62
   144
370
    18
100
AcDbLine
 10
38.6213498476
 20
22.5857536784
 30
0.0
 11
38.6349230897
 21
22.583339928
 31
0.0
  0
LINE
  5
61B
330
1F
100
AcDbEntity
  8
0
  6
Continuous
 62
     7
370
    25
100
AcDbLine
 10
36.1772339787
 20
22.5857536784
 30
0.0
 11
36.3765114112
 21
22.5857536784
 31
0.0
  0
LINE
  5
61C
330
1F
100
AcDbEntity
  8
0
  6
Continuous
 62
     7
370
    25
100
AcDbLine
 10
38.2346094683
 20
22.5857536784
 30
0.0
 11
38.4381150939
 21
22.5857536784
 31
0.0
  0
LINE
  5
61D
330
1F
100
AcDbEntity
  8
0
  6
Continuous
 62
   144
370
    18
100
AcDbLine
 10
38.7893326986
 20
22.5189450003
 30
0.0
 11
38.7899580009
 21
22.5070135209
 31
0.0
  0
LINE
  5
61E
330
1F
100
AcDbEntity
  8
0
  6
Continuous
 62
   144
370
    18
100
AcDbLine
 10
35.8260163979
 20
22.5189454544
 30
0.0
 11
35.8253910718
 21
22.5070135209
 31
0.0
  0
LINE
  5
61F
330
1F
100
AcDbEntity
  8
0
  6
Continuous
 62
     7
370
    25
100
AcDbLine
 10
34.4935604565
 20
22.6937622017
 30
0.0
 11
34.7999286458
 21
22.5916394719
 31
0.0
  0
LWPOLYLINE
  5
620
330
1F
100
AcDbEntity
  8
0
  6
Continuous
 62
   144
370
    18
100
AcDbPolyline
 90
        3
 70
   128
 43
0.0
 10
34.7998859105
 20
22.5916532333
 10
34.7106198213
 20
22.6116132284
 10
34.6187564397
 20
22.6080820742
  0
LINE
  5
621
330
1F
100
AcDbEntity
  8
0
  6
Continuous
 62
   144
370
    18
100
AcDbLine
 10
34.6187564397
 20
22.6080820742
 30
0.0
 11
34.4562107203
 21
22.6622639806
 31
0.0
  0
LWPOLYLINE
  5
622
330
1F
100
AcDbEntity
  8
0
  6
Continuous
 62
   144
370
    18
100
AcDbPolyline
 90
        5
 70
   128
 43
0.0
 10
34.4562107203
 20
22.6622639807
 10
34.4667468698
 20
22.6772852229
 10
34.4767897873
 20
22.6878324131
 10
34.4858693307
 20
22.6934118026
 10
34.4935604565
 20
22.6937622017
  0
LINE
  5
623
330
1F
100
AcDbEntity
  8
0
  6
Continuous
 62
     7
370
    25
100
AcDbLine
 10
25.1867566585
 20
22.5070135209
 30
0.0
 11
25.1827936555
 21
22.5636871037
 31
0.0
  0
ARC
  5
624
330
1F
100
AcDbEntity
  8
0
  6
Continuous
 62
   144
370
    18
100
AcDbCircle
 10
25.2469113322
 20
22.2840837257
 30
0.0
 40
0.2868608119785318
100
AcDbArc
 50
91.0399535161
 51
102.9155665685
  0
LINE
  5
625
330
1F
100
AcDbEntity
  8
0
  6
Continuous
 62
     7
370
    25
100
AcDbLine
 10
25.2417049183
 20
22.5708972866
 30
0.0
 11
34.6187564397
 21
22.5708972866
 31
0.0
  0
LWPOLYLINE
  5
626
330
1F
100
AcDbEntity
  8
0
  6
Continuous
 62
   144
370
    18
100
AcDbPolyline
 90
        3
 70
   128
 43
0.0
 10
34.6187564397
 20
22.5708972866
 10
34.7011319937
 20
22.5607059251
 10
34.7812537757
 20
22.5387056128
  0
ARC
  5
627
330
1F
100
AcDbEntity
  8
0
  6
Continuous
 62
     7
370
    25
100
AcDbCircle
 10
34.8107408684
 20
22.2561000096
 30
0.0
 40
0.2841397818565344
100
AcDbArc
 50
84.0433076269
 51
95.956692373
  0
LINE
  5
628
330
1F
100
AcDbEntity
  8
0
  6
Continuous
 62
     7
370
    25
100
AcDbLine
 10
34.8402279629
 20
22.5387055738
 30
0.0
 11
34.841888873
 21
22.5070135209
 31
0.0
  0
ARC
  5
629
330
1F
100
AcDbEntity
  8
0
  6
Continuous
 62
   144
370
    18
100
AcDbCircle
 10
35.5839444179
 20
22.2859972039
 30
0.0
 40
0.8415306324560752
100
AcDbArc
 50
158.7022558942
 51
162.5246088012
  0
LWPOLYLINE
  5
62A
330
1F
100
AcDbEntity
  8
0
  6
Continuous
 62
     7
370
    25
100
AcDbPolyline
 90
        3
 70
   128
 43
0.0
 10
34.618756477
 20
22.6080820589
 10
34.6187573146
 20
22.5909534695
 10
34.6187564397
 20
22.5708972866
  0
ARC
  5
62B
330
1F
100
AcDbEntity
  8
0
  6
Continuous
 62
   144
370
    18
100
AcDbCircle
 10
34.7812540368
 20
22.5356146454
 30
0.0
 40
0.0590548710491731
100
AcDbArc
 50
3.0002670775
 51
70.9608311726
  0
LINE
  5
62C
330
1F
100
AcDbEntity
  8
0
  6
Continuous
 62
     7
370
    25
100
AcDbLine
 10
25.2417049183
 20
22.6080820742
 30
0.0
 11
34.6187564397
 21
22.6080820742
 31
0.0
  0
LINE
  5
62D
330
1F
100
AcDbEntity
  8
0
  6
Continuous
 62
   144
370
    18
100
AcDbLine
 10
25.2417049183
 20
22.5708972866
 30
0.0
 11
25.2417049183
 21
22.6080820589
 31
0.0
  0
LINE
  5
62E
330
1F
100
AcDbEntity
  8
0
  6
Continuous
 62
   144
370
    18
100
AcDbLine
 10
25.1827936555
 20
22.5636871037
 30
0.0
 11
25.1787223353
 21
22.6219096953
 31
0.0
  0
LINE
  5
62F
330
1F
100
AcDbEntity
  8
0
  6
Continuous
 62
   144
370
    18
100
AcDbLine
 10
25.178722333
 20
22.6219096952
 30
0.0
 11
25.1793083474
 21
22.629396498
 31
0.0
  0
LINE
  5
630
330
1F
100
AcDbEntity
  8
0
  6
Continuous
 62
     7
370
    25
100
AcDbLine
 10
25.2417049183
 20
22.6080820758
 30
0.0
 11
25.2376335981
 21
22.6663046674
 31
0.0
  0
ARC
  5
631
330
1F
100
AcDbEntity
  8
0
  6
Continuous
 62
   144
370
    18
100
AcDbCircle
 10
25.2355380795
 20
22.5549808131
 30
0.0
 40
0.0534581518640386
100
AcDbArc
 50
83.3757112388
 51
170.626955883
  0
LINE
  5
632
330
1F
100
AcDbEntity
  8
0
  6
Continuous
 62
   144
370
    18
100
AcDbLine
 10
25.2376335981
 20
22.6663046658
 30
0.0
 11
34.4313108962
 21
22.6663046658
 31
0.0
  0
LWPOLYLINE
  5
633
330
1F
100
AcDbEntity
  8
0
  6
Continuous
 62
   144
370
    18
100
AcDbPolyline
 90
        3
 70
   128
 43
0.0
 10
34.4313108962
 20
22.6663046658
 10
34.4440569644
 20
22.6652661625
 10
34.4562107203
 20
22.6622639806
  0
LINE
  5
634
330
1F
100
AcDbEntity
  8
0
  6
Continuous
 62
   144
370
    18
100
AcDbLine
 10
25.1787223353
 20
22.6219096953
 30
0.0
 11
25.177409136
 21
22.6406893197
 31
0.0
  0
ARC
  5
635
330
1F
100
AcDbEntity
  8
0
  6
Continuous
 62
   144
370
    18
100
AcDbCircle
 10
25.2363203988
 20
22.6448087965
 30
0.0
 40
0.0590551181106501
100
AcDbArc
 50
89.999999999
 51
184.0000000001
  0
LINE
  5
636
330
1F
100
AcDbEntity
  8
0
  6
Continuous
 62
     7
370
    25
100
AcDbLine
 10
25.2363635166
 20
22.7026233827
 30
0.0
 11
25.2363203988
 21
22.7038639146
 31
0.0
  0
LINE
  5
637
330
1F
100
AcDbEntity
  8
0
  6
Continuous
 62
   144
370
    18
100
AcDbLine
 10
25.2363203988
 20
22.7038639146
 30
0.0
 11
34.4313108962
 21
22.7038639146
 31
0.0
  0
LINE
  5
638
330
1F
100
AcDbEntity
  8
0
  6
Continuous
 62
   144
370
    18
100
AcDbLine
 10
34.4313108962
 20
22.7038639146
 30
0.0
 11
34.4313108962
 21
22.6663046658
 31
0.0
  0
LINE
  5
639
330
1F
100
AcDbEntity
  8
0
  6
Continuous
 62
   144
370
    18
100
AcDbLine
 10
34.4935604565
 20
22.6937622017
 30
0.0
 11
34.4313108962
 21
22.7038639146
 31
0.0
  0
LINE
  5
63A
330
1F
100
AcDbEntity
  8
0
  6
Continuous
 62
     7
370
    25
100
AcDbLine
 10
25.7171729154
 20
22.7047082399
 30
0.0
 11
25.7860510376
 21
22.7038639146
 31
0.0
  0
LINE
  5
63B
330
1F
100
AcDbEntity
  8
0
  6
Continuous
 62
     7
370
    25
100
AcDbLine
 10
5.2048076437
 20
22.6622639806
 30
0.0
 11
5.0422619243
 21
22.6080820742
 31
0.0
  0
LWPOLYLINE
  5
63C
330
1F
100
AcDbEntity
  8
0
  6
Continuous
 62
     7
370
    25
100
AcDbPolyline
 90
        3
 70
   128
 43
0.0
 10
5.0422619243
 20
22.6080820742
 10
4.9503985427
 20
22.6116132284
 10
4.8611324535
 20
22.5916532333
  0
LINE
  5
63D
330
1F
100
AcDbEntity
  8
0
  6
Continuous
 62
     7
370
    25
100
AcDbLine
 10
4.8610897182
 20
22.5916394719
 30
0.0
 11
5.1674579075
 21
22.6937622017
 31
0.0
  0
LWPOLYLINE
  5
63E
330
1F
100
AcDbEntity
  8
0
  6
Continuous
 62
   144
370
    18
100
AcDbPolyline
 90
        5
 70
   128
 43
0.0
 10
5.1674579075
 20
22.6937622017
 10
5.1751490333
 20
22.6934118026
 10
5.1842285767
 20
22.6878324131
 10
5.1942714942
 20
22.6772852229
 10
5.2048076437
 20
22.6622639807
  0
LINE
  5
63F
330
1F
100
AcDbEntity
  8
0
  6
Continuous
 62
   144
370
    18
100
AcDbLine
 10
14.4782247085
 20
22.5636871037
 30
0.0
 11
14.4742617056
 21
22.5070135209
 31
0.0
  0
ARC
  5
640
330
1F
100
AcDbEntity
  8
0
  6
Continuous
 62
   144
370
    18
100
AcDbCircle
 10
14.4141070318
 20
22.2840837257
 30
0.0
 40
0.2868608119780538
100
AcDbArc
 50
77.0844334315
 51
88.9600464839
  0
LWPOLYLINE
  5
641
330
1F
100
AcDbEntity
  8
0
  6
Continuous
 62
   144
370
    18
100
AcDbPolyline
 90
        3
 70
   128
 43
0.0
 10
4.8797645883
 20
22.5387056128
 10
4.9598863704
 20
22.5607059251
 10
5.0422619243
 20
22.5708972866
  0
LINE
  5
642
330
1F
100
AcDbEntity
  8
0
  6
Continuous
 62
     7
370
    25
100
AcDbLine
 10
5.0422619243
 20
22.5708972866
 30
0.0
 11
14.4193134457
 21
22.5708972866
 31
0.0
  0
LINE
  5
643
330
1F
100
AcDbEntity
  8
0
  6
Continuous
 62
   144
370
    18
100
AcDbLine
 10
4.8191294911
 20
22.5070135209
 30
0.0
 11
4.8207904012
 21
22.5387055738
 31
0.0
  0
ARC
  5
644
330
1F
100
AcDbEntity
  8
0
  6
Continuous
 62
     7
370
    25
100
AcDbCircle
 10
4.8502774956
 20
22.2561000096
 30
0.0
 40
0.2841397818565443
100
AcDbArc
 50
84.0433076271
 51
95.9566923731
  0
ARC
  5
645
330
1F
100
AcDbEntity
  8
0
  6
Continuous
 62
     7
370
    25
100
AcDbCircle
 10
4.0770739461
 20
22.2859972039
 30
0.0
 40
0.841530632459054
100
AcDbArc
 50
17.4753911988
 51
21.2977441058
  0
LWPOLYLINE
  5
646
330
1F
100
AcDbEntity
  8
0
  6
Continuous
 62
     7
370
    25
100
AcDbPolyline
 90
        3
 70
   128
 43
0.0
 10
5.0422619243
 20
22.5708972866
 10
5.0422610494
 20
22.5909534695
 10
5.042261887
 20
22.6080820589
  0
ARC
  5
647
330
1F
100
AcDbEntity
  8
0
  6
Continuous
 62
     7
370
    25
100
AcDbCircle
 10
4.8797643272
 20
22.5356146454
 30
0.0
 40
0.0590548710491923
100
AcDbArc
 50
109.0391688274
 51
176.9997329225
  0
LINE
  5
648
330
1F
100
AcDbEntity
  8
0
  6
Continuous
 62
     7
370
    25
100
AcDbLine
 10
5.0422619243
 20
22.6080820742
 30
0.0
 11
14.4193134457
 21
22.6080820742
 31
0.0
  0
LINE
  5
649
330
1F
100
AcDbEntity
  8
0
  6
Continuous
 62
   144
370
    18
100
AcDbLine
 10
14.4193134457
 20
22.6080820589
 30
0.0
 11
14.4193134457
 21
22.5708972866
 31
0.0
  0
LINE
  5
64A
330
1F
100
AcDbEntity
  8
0
  6
Continuous
 62
   144
370
    18
100
AcDbLine
 10
14.4817100166
 20
22.629396498
 30
0.0
 11
14.4822960311
 21
22.6219096952
 31
0.0
  0
LINE
  5
64B
330
1F
100
AcDbEntity
  8
0
  6
Continuous
 62
     7
370
    25
100
AcDbLine
 10
14.4822960287
 20
22.6219096953
 30
0.0
 11
14.4782247085
 21
22.5636871037
 31
0.0
  0
LINE
  5
64C
330
1F
100
AcDbEntity
  8
0
  6
Continuous
 62
     7
370
    25
100
AcDbLine
 10
14.4233847659
 20
22.6663046674
 30
0.0
 11
14.4193134457
 21
22.6080820758
 31
0.0
  0
ARC
  5
64D
330
1F
100
AcDbEntity
  8
0
  6
Continuous
 62
   144
370
    18
100
AcDbCircle
 10
14.4254802845
 20
22.5549808131
 30
0.0
 40
0.0534581518640277
100
AcDbArc
 50
9.373044117
 51
96.6242887612
  0
LINE
  5
64E
330
1F
100
AcDbEntity
  8
0
  6
Continuous
 62
     7
370
    25
100
AcDbLine
 10
5.2297074678
 20
22.6663046658
 30
0.0
 11
14.4233847659
 21
22.6663046658
 31
0.0
  0
LWPOLYLINE
  5
64F
330
1F
100
AcDbEntity
  8
0
  6
Continuous
 62
   144
370
    18
100
AcDbPolyline
 90
        3
 70
   128
 43
0.0
 10
5.2048076437
 20
22.6622639806
 10
5.2169613996
 20
22.6652661625
 10
5.2297074678
 20
22.6663046658
  0
LINE
  5
650
330
1F
100
AcDbEntity
  8
0
  6
Continuous
 62
     7
370
    25
100
AcDbLine
 10
14.483609228
 20
22.6406893197
 30
0.0
 11
14.4822960287
 21
22.6219096953
 31
0.0
  0
ARC
  5
651
330
1F
100
AcDbEntity
  8
0
  6
Continuous
 62
   144
370
    18
100
AcDbCircle
 10
14.4246979652
 20
22.6448087965
 30
0.0
 40
0.0590551181106415
100
AcDbArc
 50
355.9999999999
 51
90.000000001
  0
LINE
  5
652
330
1F
100
AcDbEntity
  8
0
  6
Continuous
 62
     7
370
    25
100
AcDbLine
 10
14.4246979652
 20
22.7038639146
 30
0.0
 11
14.4246548474
 21
22.7026233827
 31
0.0
  0
LINE
  5
653
330
1F
100
AcDbEntity
  8
0
  6
Continuous
 62
     7
370
    25
100
AcDbLine
 10
5.2297074678
 20
22.7038639146
 30
0.0
 11
14.4246979652
 21
22.7038639146
 31
0.0
  0
LINE
  5
654
330
1F
100
AcDbEntity
  8
0
  6
Continuous
 62
   144
370
    18
100
AcDbLine
 10
5.2297074678
 20
22.6663046658
 30
0.0
 11
5.2297074678
 21
22.7038639146
 31
0.0
  0
LINE
  5
655
330
1F
100
AcDbEntity
  8
0
  6
Continuous
 62
   144
370
    18
100
AcDbLine
 10
5.2297074678
 20
22.7038639146
 30
0.0
 11
5.1674579075
 21
22.6937622017
 31
0.0
  0
LINE
  5
656
330
1F
100
AcDbEntity
  8
0
  6
Continuous
 62
     7
370
    25
100
AcDbLine
 10
13.8749673264
 20
22.7038639146
 30
0.0
 11
13.9438454486
 21
22.7047082399
 31
0.0
  0
LINE
  5
657
330
1F
100
AcDbEntity
  8
0
  6
Continuous
 62
     7
370
    25
100
AcDbLine
 10
37.3056588649
 20
22.5070135209
 30
0.0
 11
37.3056588649
 21
22.6140140073
 31
0.0
  0
LINE
  5
658
330
1F
100
AcDbEntity
  8
0
  6
Continuous
 62
   144
370
    18
100
AcDbLine
 10
37.3056588649
 20
22.6140140073
 30
0.0
 11
36.3783891702
 21
22.6140140073
 31
0.0
  0
LINE
  5
659
330
1F
100
AcDbEntity
  8
0
  6
Continuous
 62
   144
370
    18
100
AcDbLine
 10
37.3056588649
 20
22.6251237572
 30
0.0
 11
38.2211383733
 21
22.6251237572
 31
0.0
  0
LINE
  5
65A
330
1F
100
AcDbEntity
  8
0
  6
Continuous
 62
     7
370
    25
100
AcDbLine
 10
25.0245077228
 20
22.5930387609
 30
0.0
 11
25.0245077228
 21
22.5486437904
 31
0.0
  0
LINE
  5
65B
330
1F
100
AcDbEntity
  8
0
  6
Continuous
 62
     7
370
    25
100
AcDbLine
 10
25.0245077228
 20
22.5486437904
 30
0.0
 11
14.6365106412
 21
22.5486437904
 31
0.0
  0
LINE
  5
65C
330
1F
100
AcDbEntity
  8
0
  6
Continuous
 62
   144
370
    18
100
AcDbLine
 10
14.6365106412
 20
22.5486437904
 30
0.0
 11
14.6365106412
 21
22.5930387609
 31
0.0
  0
LINE
  5
65D
330
1F
100
AcDbEntity
  8
0
  6
Continuous
 62
     7
370
    25
100
AcDbLine
 10
14.6365106412
 20
22.5930387609
 30
0.0
 11
25.0245077228
 21
22.5930387609
 31
0.0
  0
ARC
  5
65E
330
1F
100
AcDbEntity
  8
0
  6
Continuous
 62
     7
370
    25
100
AcDbCircle
 10
25.0539633544
 20
22.7609713331
 30
0.0
 40
0.2143609564105131
100
AcDbArc
 50
262.1019193568
 51
277.8980806545
  0
LWPOLYLINE
  5
65F
330
1F
100
AcDbEntity
  8
0
  6
Continuous
 62
   144
370
    18
100
AcDbPolyline
 90
        8
 70
   128
 43
0.0
 10
25.0245077228
 20
22.5930387609
 10
25.0363396851
 20
22.5917820799
 10
25.0480005727
 20
22.5888246603
 10
25.0671917718
 20
22.5789608062
 10
25.0744986593
 20
22.5722637334
 10
25.0797666522
 20
22.5647720094
 10
25.082781651
 20
22.5567890853
 10
25.0834189856
 20
22.5486437904
  0
LINE
  5
660
330
1F
100
AcDbEntity
  8
0
  6
Continuous
 62
     7
370
    25
100
AcDbLine
 10
25.0834189856
 20
22.5486437904
 30
0.0
 11
25.0805079136
 21
22.5070135209
 31
0.0
  0
LINE
  5
661
330
1F
100
AcDbEntity
  8
0
  6
Continuous
 62
     7
370
    25
100
AcDbLine
 10
14.5805104504
 20
22.5070135209
 30
0.0
 11
14.5775993784
 21
22.5486437904
 31
0.0
  0
ARC
  5
662
330
1F
100
AcDbEntity
  8
0
  6
Continuous
 62
   144
370
    18
100
AcDbCircle
 10
14.607055008
 20
22.7609713446
 30
0.0
 40
0.2143609683016749
100
AcDbArc
 50
262.1019193673
 51
277.8980806439
  0
LINE
  5
663
330
1F
100
AcDbEntity
  8
0
  6
Continuous
 62
     7
370
    25
100
AcDbLine
 10
14.63138739
 20
22.6663046658
 30
0.0
 11
25.029630974
 21
22.6663046658
 31
0.0
  0
LINE
  5
664
330
1F
100
AcDbEntity
  8
0
  6
Continuous
 62
   144
370
    18
100
AcDbLine
 10
25.029630974
 20
22.6663046658
 30
0.0
 11
25.0245077228
 21
22.5930387609
 31
0.0
  0
LINE
  5
665
330
1F
100
AcDbEntity
  8
0
  6
Continuous
 62
   144
370
    18
100
AcDbLine
 10
14.6365106412
 20
22.5930387609
 30
0.0
 11
14.63138739
 21
22.6663046658
 31
0.0
  0
LINE
  5
666
330
1F
100
AcDbEntity
  8
0
  6
Continuous
 62
     7
370
    25
100
AcDbLine
 10
25.0885422368
 20
22.6219096953
 30
0.0
 11
25.089855436
 21
22.6406893197
 31
0.0
  0
LINE
  5
667
330
1F
100
AcDbEntity
  8
0
  6
Continuous
 62
   144
370
    18
100
AcDbLine
 10
25.0834189856
 20
22.5486437904
 30
0.0
 11
25.0885422368
 21
22.6219096953
 31
0.0
  0
LINE
  5
668
330
1F
100
AcDbEntity
  8
0
  6
Continuous
 62
     7
370
    25
100
AcDbLine
 10
14.5724761272
 20
22.6219096953
 30
0.0
 11
14.571162928
 21
22.6406893197
 31
0.0
  0
LINE
  5
669
330
1F
100
AcDbEntity
  8
0
  6
Continuous
 62
   144
370
    18
100
AcDbLine
 10
14.5775993784
 20
22.5486437904
 30
0.0
 11
14.5724761272
 21
22.6219096953
 31
0.0
  0
LWPOLYLINE
  5
66A
330
1F
100
AcDbEntity
  8
0
  6
Continuous
 62
     7
370
    25
100
AcDbPolyline
 90
        5
 70
   128
 43
0.0
 10
25.0309441732
 20
22.7038639146
 10
25.0308586368
 20
22.7014254965
 10
25.030601691
 20
22.6940682321
 10
25.0301870142
 20
22.6822078723
 10
25.029630974
 20
22.6663046658
  0
ARC
  5
66B
330
1F
100
AcDbEntity
  8
0
  6
Continuous
 62
   144
370
    18
100
AcDbCircle
 10
25.0309441732
 20
22.6448087965
 30
0.0
 40
0.0590551181103116
100
AcDbArc
 50
356.0
 51
90.0
  0
LWPOLYLINE
  5
66C
330
1F
100
AcDbEntity
  8
0
  6
Continuous
 62
   144
370
    18
100
AcDbPolyline
 90
        7
 70
   128
 43
0.0
 10
25.029630974
 20
22.6663046748
 10
25.051988487
 20
22.6624624134
 10
25.0628245797
 20
22.658078753
 10
25.0723980625
 20
22.6521635349
 10
25.0800213575
 20
22.6450727592
 10
25.0852663516
 20
22.6373146929
 10
25.0885422368
 20
22.6219096953
  0
ARC
  5
66D
330
1F
100
AcDbEntity
  8
0
  6
Continuous
 62
     7
370
    25
100
AcDbCircle
 10
14.6300741908
 20
22.6448087965
 30
0.0
 40
0.0590551181103152
100
AcDbArc
 50
90.0
 51
184.0
  0
LWPOLYLINE
  5
66E
330
1F
100
AcDbEntity
  8
0
  6
Continuous
 62
     7
370
    25
100
AcDbPolyline
 90
        5
 70
   128
 43
0.0
 10
14.63138739
 20
22.6663046658
 10
14.6308313498
 20
22.6822078723
 10
14.630416673
 20
22.6940682321
 10
14.6301597272
 20
22.701425306
 10
14.6300741908
 20
22.7038639146
  0
LWPOLYLINE
  5
66F
330
1F
100
AcDbEntity
  8
0
  6
Continuous
 62
   144
370
    18
100
AcDbPolyline
 90
        7
 70
   128
 43
0.0
 10
14.5724761272
 20
22.6219096953
 10
14.5757520124
 20
22.6373146929
 10
14.5809970065
 20
22.6450727592
 10
14.5886203015
 20
22.6521635349
 10
14.5981937843
 20
22.658078753
 10
14.609029877
 20
22.6624624134
 10
14.63138739
 20
22.6663046748
  0
LINE
  5
670
330
1F
100
AcDbEntity
  8
0
  6
Continuous
 62
     7
370
    25
100
AcDbLine
 10
14.6300741908
 20
22.7038639146
 30
0.0
 11
25.0309441732
 21
22.7038639146
 31
0.0
  0
ARC
  5
671
330
1F
100
AcDbEntity
  8
0
  6
Continuous
 62
   144
370
    18
100
AcDbCircle
 10
25.0085081963
 20
22.2192029986
 30
0.0
 40
0.4303105678388303
100
AcDbArc
 50
79.699328454
 51
87.0112982925
  0
ARC
  5
672
330
1F
100
AcDbEntity
  8
0
  6
Continuous
 62
   144
370
    18
100
AcDbCircle
 10
14.6525101677
 20
22.2192029986
 30
0.0
 40
0.4303105678397274
100
AcDbArc
 50
92.9887017075
 51
100.300671546
  0
LINE
  5
673
330
1F
100
AcDbEntity
  8
0
  6
Continuous
 62
   144
370
    18
100
AcDbLine
 10
14.6300741908
 20
22.6489282733
 30
0.0
 11
14.6300741908
 21
22.6668710954
 31
0.0
  0
LINE
  5
674
330
1F
100
AcDbEntity
  8
0
  6
Continuous
 62
   144
370
    18
100
AcDbLine
 10
25.0309441732
 20
22.6660797377
 30
0.0
 11
25.0309441732
 21
22.6489282733
 31
0.0
  0
ARC
  5
675
330
1F
100
AcDbEntity
  8
0
  6
Continuous
 62
     7
370
    25
100
AcDbCircle
 10
25.0309441732
 20
22.6448087965
 30
0.0
 40
0.0590551181106463
100
AcDbArc
 50
359.5229257053
 51
20.5959113429
  0
LWPOLYLINE
  5
676
330
1F
100
AcDbEntity
  8
0
  6
Continuous
 62
   144
370
    18
100
AcDbPolyline
 90
        3
 70
   128
 43
0.0
 10
14.571162928
 20
22.6406893197
 10
14.5715584882
 20
22.6527724342
 10
14.5740570719
 20
22.6635061056
  0
LINE
  5
677
330
1F
100
AcDbEntity
  8
0
  6
Continuous
 62
     7
370
    25
100
AcDbLine
 10
36.2384568943
 20
23.0087563395
 30
0.0
 11
36.2424184721
 21
23.0628220692
 31
0.0
  0
LINE
  5
678
330
1F
100
AcDbEntity
  8
0
  6
Continuous
 62
   144
370
    18
100
AcDbLine
 10
36.240932028
 20
23.0663897218
 30
0.0
 11
36.2426980506
 21
23.0916472381
 31
0.0
  0
LINE
  5
679
330
1F
100
AcDbEntity
  8
0
  6
Continuous
 62
   144
370
    18
100
AcDbLine
 10
38.3782315603
 20
22.9350807196
 30
0.0
 11
38.374825751
 21
22.9259090176
 31
0.0
  0
LINE
  5
67A
330
1F
100
AcDbEntity
  8
0
  6
Continuous
 62
   144
370
    18
100
AcDbLine
 10
38.3708297163
 20
22.9801227569
 30
0.0
 11
38.374825751
 21
22.9259090176
 31
0.0
  0
LINE
  5
67B
330
1F
100
AcDbEntity
  8
0
  6
Continuous
 62
   144
370
    18
100
AcDbLine
 10
38.3708297163
 20
22.9801227569
 30
0.0
 11
38.3726409551
 21
23.0087094014
 31
0.0
  0
LINE
  5
67C
330
1F
100
AcDbEntity
  8
0
  6
Continuous
 62
   144
370
    18
100
AcDbLine
 10
38.3726380357
 20
23.0087325186
 30
0.0
 11
38.3765839171
 21
22.952762735
 31
0.0
  0
LINE
  5
67D
330
1F
100
AcDbEntity
  8
0
  6
Continuous
 62
   144
370
    18
100
AcDbLine
 10
36.362325037
 20
23.2015629679
 30
0.0
 11
36.365743387
 21
23.2575381358
 31
0.0
  0
LINE
  5
67E
330
1F
100
AcDbEntity
  8
0
  6
Continuous
 62
   144
370
    18
100
AcDbLine
 10
36.3455914604
 20
23.1745703054
 30
0.0
 11
36.362325037
 21
23.2015629679
 31
0.0
  0
LINE
  5
67F
330
1F
100
AcDbEntity
  8
0
  6
Continuous
 62
   144
370
    18
100
AcDbLine
 10
36.3455914604
 20
23.1745703054
 30
0.0
 11
36.3491481293
 21
23.2286342994
 31
0.0
  0
LINE
  5
680
330
1F
100
AcDbEntity
  8
0
  6
Continuous
 62
   144
370
    18
100
AcDbLine
 10
36.3491481293
 20
23.2286342994
 30
0.0
 11
36.365743387
 21
23.2575381358
 31
0.0
  0
LINE
  5
681
330
1F
100
AcDbEntity
  8
0
  6
Continuous
 62
   144
370
    18
100
AcDbLine
 10
36.4469454173
 20
23.1745703054
 30
0.0
 11
36.4712195068
 21
23.2015629679
 31
0.0
  0
LINE
  5
682
330
1F
100
AcDbEntity
  8
0
  6
Continuous
 62
   144
370
    18
100
AcDbLine
 10
36.5076772776
 20
23.1745703054
 30
0.0
 11
36.4712186606
 21
23.2015472624
 31
0.0
  0
LINE
  5
683
330
1F
100
AcDbEntity
  8
0
  6
Continuous
 62
   144
370
    18
100
AcDbLine
 10
36.4742432149
 20
23.2575381358
 30
0.0
 11
36.5105967228
 21
23.2286342994
 31
0.0
  0
LINE
  5
684
330
1F
100
AcDbEntity
  8
0
  6
Continuous
 62
   144
370
    18
100
AcDbLine
 10
36.7262206406
 20
23.2286342994
 30
0.0
 11
36.7629559469
 21
23.2575381358
 31
0.0
  0
LINE
  5
685
330
1F
100
AcDbEntity
  8
0
  6
Continuous
 62
   144
370
    18
100
AcDbLine
 10
36.7240466186
 20
23.1745703054
 30
0.0
 11
36.7262206406
 21
23.2286342994
 31
0.0
  0
LINE
  5
686
330
1F
100
AcDbEntity
  8
0
  6
Continuous
 62
   144
370
    18
100
AcDbLine
 10
36.7240466186
 20
23.1745703054
 30
0.0
 11
36.7609823617
 21
23.2015629679
 31
0.0
  0
LINE
  5
687
330
1F
100
AcDbEntity
  8
0
  6
Continuous
 62
   144
370
    18
100
AcDbLine
 10
36.7609823617
 20
23.2015629679
 30
0.0
 11
36.7629559469
 21
23.2575381358
 31
0.0
  0
LINE
  5
688
330
1F
100
AcDbEntity
  8
0
  6
Continuous
 62
   144
370
    18
100
AcDbLine
 10
36.6467653079
 20
23.1745703054
 30
0.0
 11
36.6054642315
 21
23.2015472624
 31
0.0
  0
LINE
  5
689
330
1F
100
AcDbEntity
  8
0
  6
Continuous
 62
   144
370
    18
100
AcDbLine
 10
36.6467653079
 20
23.1745703054
 30
0.0
 11
36.6491676714
 21
23.2286342994
 31
0.0
  0
LINE
  5
68A
330
1F
100
AcDbEntity
  8
0
  6
Continuous
 62
   144
370
    18
100
AcDbLine
 10
36.3456235691
 20
23.1745703054
 30
0.0
 11
36.3184503949
 21
23.2015472624
 31
0.0
  0
LINE
  5
68B
330
1F
100
AcDbEntity
  8
0
  6
Continuous
 62
   144
370
    18
100
AcDbLine
 10
36.5743878951
 20
23.1745703054
 30
0.0
 11
36.6054649416
 21
23.2015629679
 31
0.0
  0
LINE
  5
68C
330
1F
100
AcDbEntity
  8
0
  6
Continuous
 62
   144
370
    18
100
AcDbLine
 10
36.6054649416
 20
23.2015629679
 30
0.0
 11
36.6080021339
 21
23.2575381358
 31
0.0
  0
LINE
  5
68D
330
1F
100
AcDbEntity
  8
0
  6
Continuous
 62
     7
370
    25
100
AcDbLine
 10
37.023664811
 20
23.2015472624
 30
0.0
 11
37.024686965
 21
23.2575525648
 31
0.0
  0
LINE
  5
68E
330
1F
100
AcDbEntity
  8
0
  6
Continuous
 62
     7
370
    25
100
AcDbLine
 10
37.0712867222
 20
23.1745703054
 30
0.0
 11
37.0721846124
 21
23.2286342994
 31
0.0
  0
LINE
  5
68F
330
1F
100
AcDbEntity
  8
0
  6
Continuous
 62
   144
370
    18
100
AcDbLine
 10
37.0713546111
 20
23.1745703054
 30
0.0
 11
37.023664811
 21
23.2015472624
 31
0.0
  0
LINE
  5
690
330
1F
100
AcDbEntity
  8
0
  6
Continuous
 62
   144
370
    18
100
AcDbLine
 10
37.0712867222
 20
23.1745703054
 30
0.0
 11
37.1164291232
 21
23.2015629679
 31
0.0
  0
LINE
  5
691
330
1F
100
AcDbEntity
  8
0
  6
Continuous
 62
   144
370
    18
100
AcDbLine
 10
37.0721846124
 20
23.2286342994
 30
0.0
 11
37.1171145421
 21
23.2575381358
 31
0.0
  0
LINE
  5
692
330
1F
100
AcDbEntity
  8
0
  6
Continuous
 62
   144
370
    18
100
AcDbLine
 10
36.8913742831
 20
23.1745703054
 30
0.0
 11
36.9330464489
 21
23.2015629679
 31
0.0
  0
LINE
  5
693
330
1F
100
AcDbEntity
  8
0
  6
Continuous
 62
   144
370
    18
100
AcDbLine
 10
36.8929339338
 20
23.2286342994
 30
0.0
 11
36.9343964608
 21
23.2575381358
 31
0.0
  0
LINE
  5
694
330
1F
100
AcDbEntity
  8
0
  6
Continuous
 62
   144
370
    18
100
AcDbLine
 10
37.5389321656
 20
23.2286342994
 30
0.0
 11
37.5398300558
 21
23.1745703054
 31
0.0
  0
LINE
  5
695
330
1F
100
AcDbEntity
  8
0
  6
Continuous
 62
   144
370
    18
100
AcDbLine
 10
36.2205508812
 20
23.2015629679
 30
0.0
 11
36.2244830315
 21
23.2575381358
 31
0.0
  0
LINE
  5
696
330
1F
100
AcDbEntity
  8
0
  6
Continuous
 62
   144
370
    18
100
AcDbLine
 10
36.2255230259
 20
23.1903909348
 30
0.0
 11
36.2283449756
 21
23.2286342994
 31
0.0
  0
LINE
  5
697
330
1F
100
AcDbEntity
  8
0
  6
Continuous
 62
   144
370
    18
100
AcDbLine
 10
36.7629559469
 20
23.2575381358
 30
0.0
 11
36.80768272
 21
23.2286342994
 31
0.0
  0
LINE
  5
698
330
1F
100
AcDbEntity
  8
0
  6
Continuous
 62
   144
370
    18
100
AcDbLine
 10
36.2304086141
 20
23.0916472381
 30
0.0
 11
36.234379447
 21
23.1457044506
 31
0.0
  0
LINE
  5
699
330
1F
100
AcDbEntity
  8
0
  6
Continuous
 62
   144
370
    18
100
AcDbLine
 10
36.2286645644
 20
23.1185520189
 30
0.0
 11
36.2312152088
 21
23.1548138693
 31
0.0
  0
LINE
  5
69A
330
1F
100
AcDbEntity
  8
0
  6
Continuous
 62
   144
370
    18
100
AcDbLine
 10
36.2286645644
 20
23.1185520189
 30
0.0
 11
36.2304086141
 21
23.0916472381
 31
0.0
  0
LINE
  5
69B
330
1F
100
AcDbEntity
  8
0
  6
Continuous
 62
   144
370
    18
100
AcDbLine
 10
36.2611490577
 20
22.7432109896
 30
0.0
 11
38.3499677315
 21
22.7432109896
 31
0.0
  0
ARC
  5
69C
330
1F
100
AcDbEntity
  8
0
  6
Continuous
 62
   144
370
    18
100
AcDbCircle
 10
38.2211383733
 20
22.6133127335
 30
0.0
 40
0.0118110236220446
100
AcDbArc
 50
3.403910673
 51
90.0
  0
LINE
  5
69D
330
1F
100
AcDbEntity
  8
0
  6
Continuous
 62
   144
370
    18
100
AcDbLine
 10
38.2392928889
 20
22.5070135209
 30
0.0
 11
38.2329285597
 21
22.6140140073
 31
0.0
  0
ELLIPSE
  5
69E
330
1F
100
AcDbEntity
  8
0
  6
Continuous
 62
     7
370
    25
100
AcDbEllipse
 10
36.0024466501
 20
17.9542878469
 30
0.0
 11
0.03620152936694154
 21
-0.03620152936694865
 31
0.0
210
0.0
220
0.0
230
1.0
 40
0.9996954599
 41
2.356346783440126
 42
3.909455466397071
  0
LINE
  5
69F
330
1F
100
AcDbEntity
  8
0
  6
Continuous
 62
     7
370
    25
100
AcDbLine
 10
36.0024310587
 20
18.0054767456
 30
0.0
 11
36.0024310587
 21
17.9936675208
 31
0.0
  0
ELLIPSE
  5
6A0
330
1F
100
AcDbEntity
  8
0
  6
Continuous
 62
   144
370
    18
100
AcDbEllipse
 10
36.0024466501
 20
17.9542878469
 30
0.0
 11
-0.0278524178850148
 21
0.02785241788501835
 31
0.0
210
0.0
220
0.0
230
1.0
 40
0.9995128526
 41
5.497939437029837
 42
7.051048119985888
  0
LINE
  5
6A1
330
1F
100
AcDbEntity
  8
0
  6
Continuous
 62
   144
370
    18
100
AcDbLine
 10
35.9512654851
 20
17.9551932107
 30
0.0
 11
35.9630728632
 21
17.9549879406
 31
0.0
  0
LINE
  5
6A2
330
1F
100
AcDbEntity
  8
0
  6
Continuous
 62
     7
370
    25
100
AcDbLine
 10
36.0024310587
 20
18.0054767456
 30
0.0
 11
36.3128864633
 21
18.0054767456
 31
0.0
  0
LINE
  5
6A3
330
1F
100
AcDbEntity
  8
0
  6
Continuous
 62
   144
370
    18
100
AcDbLine
 10
36.3128864633
 20
17.9936675208
 30
0.0
 11
36.0024310587
 21
17.9936675208
 31
0.0
  0
LINE
  5
6A4
330
1F
100
AcDbEntity
  8
0
  6
Continuous
 62
   144
370
    18
100
AcDbLine
 10
36.3128864633
 20
18.0054767456
 30
0.0
 11
36.3128864633
 21
17.9936675208
 31
0.0
  0
LINE
  5
6A5
330
1F
100
AcDbEntity
  8
0
  6
Continuous
 62
     7
370
    25
100
AcDbLine
 10
36.6672707204
 20
17.9158291282
 30
0.0
 11
36.6672707204
 21
17.9551932107
 31
0.0
  0
LINE
  5
6A6
330
1F
100
AcDbEntity
  8
0
  6
Continuous
 62
     7
370
    25
100
AcDbLine
 10
36.6672707204
 20
17.9158291282
 30
0.0
 11
36.424238524
 21
17.9158291282
 31
0.0
  0
LINE
  5
6A7
330
1F
100
AcDbEntity
  8
0
  6
Continuous
 62
     7
370
    25
100
AcDbLine
 10
36.424238524
 20
17.9158289987
 30
0.0
 11
36.3847182188
 21
17.9158289987
 31
0.0
  0
LINE
  5
6A8
330
1F
100
AcDbEntity
  8
0
  6
Continuous
 62
     7
370
    25
100
AcDbLine
 10
36.3640520368
 20
17.9551932107
 30
0.0
 11
36.6672707204
 21
17.9551932107
 31
0.0
  0
LINE
  5
6A9
330
1F
100
AcDbEntity
  8
0
  6
Continuous
 62
   144
370
    18
100
AcDbLine
 10
36.3640520368
 20
17.9551932107
 30
0.0
 11
36.3640599055
 21
17.9545088742
 31
0.0
  0
ELLIPSE
  5
6AA
330
1F
100
AcDbEntity
  8
0
  6
Continuous
 62
   144
370
    18
100
AcDbEllipse
 10
36.36495314
 20
17.9551932107
 30
0.0
 11
0.0
 21
0.03937007874015563
 31
0.0
210
0.0
220
0.0
230
1.0
 40
0.0226915844
 41
1.588179347968006
 42
3.124328256998708
  0
LINE
  5
6AB
330
1F
100
AcDbEntity
  8
0
  6
Continuous
 62
   144
370
    18
100
AcDbLine
 10
36.3847182188
 20
17.9158289991
 30
0.0
 11
36.3649377173
 21
17.9158289991
 31
0.0
  0
LINE
  5
6AC
330
1F
100
AcDbEntity
  8
0
  6
Continuous
 62
     7
370
    25
100
AcDbLine
 10
36.7459988854
 20
19.6043323931
 30
0.0
 11
36.7066348029
 21
19.6043323931
 31
0.0
  0
ELLIPSE
  5
6AD
330
1F
100
AcDbEntity
  8
0
  6
Continuous
 62
   144
370
    18
100
AcDbEllipse
 10
36.667258727
 20
19.6043203997
 30
0.0
 11
0.02784733028227038
 21
0.02784733028227038
 31
0.0
210
0.0
220
0.0
230
1.0
 40
0.9996954599
 41
5.497939437030142
 42
7.068431177329677
  0
LINE
  5
6AE
330
1F
100
AcDbEntity
  8
0
  6
Continuous
 62
     7
370
    25
100
AcDbLine
 10
36.6672707204
 20
19.6830605581
 30
0.0
 11
36.6672707204
 21
19.6436964756
 31
0.0
  0
ARC
  5
6AF
330
1F
100
AcDbEntity
  8
0
  6
Continuous
 62
   144
370
    18
100
AcDbCircle
 10
36.667258727
 20
19.6043203997
 30
0.0
 40
0.0787401593071826
100
AcDbArc
 50
0.0087270892
 51
89.9912729108
  0
LINE
  5
6B0
330
1F
100
AcDbEntity
  8
0
  6
Continuous
 62
     7
370
    25
100
AcDbLine
 10
35.8645882309
 20
19.8011707943
 30
0.0
 11
35.8645882309
 21
19.7618067118
 31
0.0
  0
LINE
  5
6B1
330
1F
100
AcDbEntity
  8
0
  6
Continuous
 62
   144
370
    18
100
AcDbLine
 10
35.8645882309
 20
19.7618067118
 30
0.0
 11
35.8252241484
 21
19.7618067118
 31
0.0
  0
ARC
  5
6B2
330
1F
100
AcDbEntity
  8
0
  6
Continuous
 62
   144
370
    18
100
AcDbCircle
 10
35.8646022768
 20
19.7617926659
 30
0.0
 40
0.0393781309038642
100
AcDbArc
 50
90.0204370166
 51
179.9795629835
  0
LINE
  5
6B3
330
1F
100
AcDbEntity
  8
0
  6
Continuous
 62
   144
370
    18
100
AcDbLine
 10
36.4492174351
 20
19.7618067118
 30
0.0
 11
35.8645882309
 21
19.7618067118
 31
0.0
  0
LINE
  5
6B4
330
1F
100
AcDbEntity
  8
0
  6
Continuous
 62
   144
370
    18
100
AcDbLine
 10
35.8645882309
 20
19.8011707943
 30
0.0
 11
36.4492174351
 21
19.8011707943
 31
0.0
  0
LINE
  5
6B5
330
1F
100
AcDbEntity
  8
0
  6
Continuous
 62
   144
370
    18
100
AcDbLine
 10
36.4492174351
 20
19.7618067118
 30
0.0
 11
36.4492174351
 21
19.8011707943
 31
0.0
  0
LINE
  5
6B6
330
1F
100
AcDbEntity
  8
0
  6
Continuous
 62
   144
370
    18
100
AcDbLine
 10
36.6672707204
 20
19.6436964756
 30
0.0
 11
36.5279456
 21
19.6436964756
 31
0.0
  0
LINE
  5
6B7
330
1F
100
AcDbEntity
  8
0
  6
Continuous
 62
     7
370
    25
100
AcDbLine
 10
36.5279456
 20
19.6830605581
 30
0.0
 11
36.5279456
 21
19.6436964756
 31
0.0
  0
LINE
  5
6B8
330
1F
100
AcDbEntity
  8
0
  6
Continuous
 62
   144
370
    18
100
AcDbLine
 10
36.5279456
 20
19.6830605581
 30
0.0
 11
36.6672707204
 21
19.6830605581
 31
0.0
  0
ELLIPSE
  5
6B9
330
1F
100
AcDbEntity
  8
0
  6
Continuous
 62
   144
370
    18
100
AcDbEllipse
 10
36.667258727
 20
17.9945692866
 30
0.0
 11
0.02784733028227038
 21
-0.02784733028226682
 31
0.0
210
0.0
220
0.0
230
1.0
 40
0.9996954599
 41
5.497939437029721
 42
7.068431177328885
  0
LINE
  5
6BA
330
1F
100
AcDbEntity
  8
0
  6
Continuous
 62
     7
370
    25
100
AcDbLine
 10
36.7459988854
 20
17.9945572932
 30
0.0
 11
36.7066348029
 21
17.9945572932
 31
0.0
  0
ARC
  5
6BB
330
1F
100
AcDbEntity
  8
0
  6
Continuous
 62
   144
370
    18
100
AcDbCircle
 10
36.667258727
 20
17.9945692866
 30
0.0
 40
0.0787401593071115
100
AcDbArc
 50
270.0087270892
 51
359.9912729108
  0
LINE
  5
6BC
330
1F
100
AcDbEntity
  8
0
  6
Continuous
 62
   144
370
    18
100
AcDbLine
 10
35.7858600659
 20
19.6436964756
 30
0.0
 11
35.6480468016
 21
19.6436964756
 31
0.0
  0
LINE
  5
6BD
330
1F
100
AcDbEntity
  8
0
  6
Continuous
 62
     7
370
    25
100
AcDbLine
 10
35.7858600659
 20
19.6436964756
 30
0.0
 11
35.7858600659
 21
19.6830605581
 31
0.0
  0
LINE
  5
6BE
330
1F
100
AcDbEntity
  8
0
  6
Continuous
 62
   144
370
    18
100
AcDbLine
 10
35.6480468016
 20
19.6830605581
 30
0.0
 11
35.7858600659
 21
19.6830605581
 31
0.0
  0
LINE
  5
6BF
330
1F
100
AcDbEntity
  8
0
  6
Continuous
 62
   144
370
    18
100
AcDbLine
 10
35.6480468016
 20
19.6436964756
 30
0.0
 11
35.6480468016
 21
19.6830605581
 31
0.0
  0
LINE
  5
6C0
330
1F
100
AcDbEntity
  8
0
  6
Continuous
 62
     7
370
    25
100
AcDbLine
 10
35.6480468016
 20
17.9551932107
 30
0.0
 11
35.9512654851
 21
17.9551932107
 31
0.0
  0
ELLIPSE
  5
6C1
330
1F
100
AcDbEntity
  8
0
  6
Continuous
 62
   144
370
    18
100
AcDbEllipse
 10
35.950364382
 20
17.9551932107
 30
0.0
 11
0.0
 21
0.03937007874015563
 31
0.0
210
0.0
220
0.0
230
1.0
 40
0.0226915844
 41
3.158857050173668
 42
4.69500595921158
  0
LINE
  5
6C2
330
1F
100
AcDbEntity
  8
0
  6
Continuous
 62
   144
370
    18
100
AcDbLine
 10
35.9512576165
 20
17.9545088742
 30
0.0
 11
35.9512654851
 21
17.9551932107
 31
0.0
  0
LINE
  5
6C3
330
1F
100
AcDbEntity
  8
0
  6
Continuous
 62
   144
370
    18
100
AcDbLine
 10
35.6480468016
 20
17.9158291282
 30
0.0
 11
35.6480468016
 21
17.9551932107
 31
0.0
  0
LINE
  5
6C4
330
1F
100
AcDbEntity
  8
0
  6
Continuous
 62
   144
370
    18
100
AcDbLine
 10
35.9304652732
 20
17.9158291282
 30
0.0
 11
35.6480468016
 21
17.9158291282
 31
0.0
  0
LINE
  5
6C5
330
1F
100
AcDbEntity
  8
0
  6
Continuous
 62
   144
370
    18
100
AcDbLine
 10
35.9304652732
 20
17.9158289991
 30
0.0
 11
35.9503798047
 21
17.9158289991
 31
0.0
  0
LINE
  5
6C6
330
1F
100
AcDbEntity
  8
0
  6
Continuous
 62
   144
370
    18
100
AcDbLine
 10
36.7066348029
 20
17.9945572932
 30
0.0
 11
36.7066348029
 21
19.6043323931
 31
0.0
  0
LINE
  5
6C7
330
1F
100
AcDbEntity
  8
0
  6
Continuous
 62
     7
370
    25
100
AcDbLine
 10
36.7459988854
 20
19.6043323931
 30
0.0
 11
36.7459988854
 21
17.9945572932
 31
0.0
  0
ELLIPSE
  5
6C8
330
1F
100
AcDbEntity
  8
0
  6
Continuous
 62
   144
370
    18
100
AcDbEllipse
 10
36.5279695869
 20
19.7224486274
 30
0.0
 11
0.05569466056453366
 21
0.05569466056453366
 31
0.0
210
0.0
220
0.0
230
1.0
 40
0.9996954599
 41
2.356346783440459
 42
3.926838523739637
  0
LINE
  5
6C9
330
1F
100
AcDbEntity
  8
0
  6
Continuous
 62
   144
370
    18
100
AcDbLine
 10
36.4885815175
 20
19.7224246405
 30
0.0
 11
36.4492174351
 21
19.7224246405
 31
0.0
  0
ELLIPSE
  5
6CA
330
1F
100
AcDbEntity
  8
0
  6
Continuous
 62
   144
370
    18
100
AcDbEllipse
 10
36.5279695869
 20
19.7224486274
 30
0.0
 11
0.02786428895807802
 21
0.02786428895808513
 31
0.0
210
0.0
220
0.0
230
1.0
 40
0.9990870284
 41
2.356346783438785
 42
3.926838523739477
  0
ELLIPSE
  5
6CB
330
1F
100
AcDbEntity
  8
0
  6
Continuous
 62
   144
370
    18
100
AcDbEllipse
 10
35.7858360791
 20
19.7224486274
 30
0.0
 11
-0.05569466056453366
 21
0.05569466056453366
 31
0.0
210
0.0
220
0.0
230
1.0
 40
0.9996954599
 41
2.356346783440085
 42
3.926838523740147
  0
LINE
  5
6CC
330
1F
100
AcDbEntity
  8
0
  6
Continuous
 62
   144
370
    18
100
AcDbLine
 10
35.8645882309
 20
19.7224246405
 30
0.0
 11
35.8252241484
 21
19.7224246405
 31
0.0
  0
ELLIPSE
  5
6CD
330
1F
100
AcDbEntity
  8
0
  6
Continuous
 62
   144
370
    18
100
AcDbEllipse
 10
35.7858360791
 20
19.7224486274
 30
0.0
 11
-0.02786428895807802
 21
0.02786428895808513
 31
0.0
210
0.0
220
0.0
230
1.0
 40
0.9990870284
 41
2.356346783440271
 42
3.926838523740847
  0
LINE
  5
6CE
330
1F
100
AcDbEntity
  8
0
  6
Continuous
 62
     7
370
    25
100
AcDbLine
 10
35.5693186366
 20
17.9945572932
 30
0.0
 11
35.5693186366
 21
19.6043323931
 31
0.0
  0
LINE
  5
6CF
330
1F
100
AcDbEntity
  8
0
  6
Continuous
 62
   144
370
    18
100
AcDbLine
 10
35.6086827191
 20
19.6043323931
 30
0.0
 11
35.6086827191
 21
17.9945572932
 31
0.0
  0
LINE
  5
6D0
330
1F
100
AcDbEntity
  8
0
  6
Continuous
 62
   144
370
    18
100
AcDbLine
 10
35.6086827191
 20
19.6043323931
 30
0.0
 11
35.5693186366
 21
19.6043323931
 31
0.0
  0
LINE
  5
6D1
330
1F
100
AcDbEntity
  8
0
  6
Continuous
 62
   144
370
    18
100
AcDbLine
 10
35.6086827191
 20
17.9945572932
 30
0.0
 11
35.5693186366
 21
17.9945572932
 31
0.0
  0
ELLIPSE
  5
6D2
330
1F
100
AcDbEntity
  8
0
  6
Continuous
 62
   144
370
    18
100
AcDbEllipse
 10
36.3128708718
 20
17.9542878469
 30
0.0
 11
-0.03620152936694154
 21
-0.03620152936694865
 31
0.0
210
0.0
220
0.0
230
1.0
 40
0.9996954599
 41
2.373729840782504
 42
3.926838523739498
  0
LINE
  5
6D3
330
1F
100
AcDbEntity
  8
0
  6
Continuous
 62
   144
370
    18
100
AcDbLine
 10
36.4492174351
 20
19.7224246405
 30
0.0
 11
36.4492174351
 21
19.7618067118
 31
0.0
  0
LINE
  5
6D4
330
1F
100
AcDbEntity
  8
0
  6
Continuous
 62
   144
370
    18
100
AcDbLine
 10
35.8645882309
 20
19.7618067118
 30
0.0
 11
35.8645882309
 21
19.7224246405
 31
0.0
  0
ELLIPSE
  5
6D5
330
1F
100
AcDbEntity
  8
0
  6
Continuous
 62
   144
370
    18
100
AcDbEllipse
 10
35.648058795
 20
19.6043203997
 30
0.0
 11
-0.02784733028226327
 21
0.02784733028226682
 31
0.0
210
0.0
220
0.0
230
1.0
 40
0.9996954599
 41
5.49793943702988
 42
7.068431177328981
  0
ELLIPSE
  5
6D6
330
1F
100
AcDbEntity
  8
0
  6
Continuous
 62
   144
370
    18
100
AcDbEllipse
 10
35.648058795
 20
17.9945692866
 30
0.0
 11
-0.02784733028226327
 21
-0.02784733028226682
 31
0.0
210
0.0
220
0.0
230
1.0
 40
0.9996954599
 41
5.497939437030205
 42
7.068431177329486
  0
LINE
  5
6D7
330
1F
100
AcDbEntity
  8
0
  6
Continuous
 62
   144
370
    18
100
AcDbLine
 10
36.3847182188
 20
17.9158289989
 30
0.0
 11
36.3896179277
 21
17.9148514465
 31
0.0
  0
LINE
  5
6D8
330
1F
100
AcDbEntity
  8
0
  6
Continuous
 62
   144
370
    18
100
AcDbLine
 10
36.3896179277
 20
17.9148514465
 30
0.0
 11
36.6886854292
 21
17.9148514465
 31
0.0
  0
LINE
  5
6D9
330
1F
100
AcDbEntity
  8
0
  6
Continuous
 62
   144
370
    18
100
AcDbLine
 10
36.6672826844
 20
17.9158171642
 30
0.0
 11
36.6672707204
 21
17.9158291282
 31
0.0
  0
LINE
  5
6DA
330
1F
100
AcDbEntity
  8
0
  6
Continuous
 62
   144
370
    18
100
AcDbLine
 10
35.5686194359
 20
17.9938580925
 30
0.0
 11
35.5686194359
 21
19.6050315938
 31
0.0
  0
LINE
  5
6DB
330
1F
100
AcDbEntity
  8
0
  6
Continuous
 62
   144
370
    18
100
AcDbLine
 10
35.5693066726
 20
17.9945453292
 30
0.0
 11
35.5693186366
 21
17.9945572932
 31
0.0
  0
LINE
  5
6DC
330
1F
100
AcDbEntity
  8
0
  6
Continuous
 62
   144
370
    18
100
AcDbLine
 10
35.5693186366
 20
19.6043323931
 30
0.0
 11
35.5693066726
 21
19.6043443571
 31
0.0
  0
LINE
  5
6DD
330
1F
100
AcDbEntity
  8
0
  6
Continuous
 62
   144
370
    18
100
AcDbLine
 10
36.7466980861
 20
19.6050315938
 30
0.0
 11
36.7466980861
 21
17.9938580925
 31
0.0
  0
LINE
  5
6DE
330
1F
100
AcDbEntity
  8
0
  6
Continuous
 62
   144
370
    18
100
AcDbLine
 10
36.7460108493
 20
19.6043443571
 30
0.0
 11
36.7459988854
 21
19.6043323931
 31
0.0
  0
LINE
  5
6DF
330
1F
100
AcDbEntity
  8
0
  6
Continuous
 62
   144
370
    18
100
AcDbLine
 10
36.7459988854
 20
17.9945572932
 30
0.0
 11
36.7460108493
 21
17.9945453292
 31
0.0
  0
LINE
  5
6E0
330
1F
100
AcDbEntity
  8
0
  6
Continuous
 62
   144
370
    18
100
AcDbLine
 10
36.3128768686
 20
17.9739758848
 30
0.0
 11
36.0024406534
 21
17.9739758848
 31
0.0
  0
LINE
  5
6E1
330
1F
100
AcDbEntity
  8
0
  6
Continuous
 62
   144
370
    18
100
AcDbLine
 10
36.0024406534
 20
17.9936579261
 30
0.0
 11
36.0024406534
 21
17.9739758848
 31
0.0
  0
LINE
  5
6E2
330
1F
100
AcDbEntity
  8
0
  6
Continuous
 62
   144
370
    18
100
AcDbLine
 10
36.3128768686
 20
17.9739758848
 30
0.0
 11
36.3128768686
 21
17.9936579261
 31
0.0
  0
LINE
  5
6E3
330
1F
100
AcDbEntity
  8
0
  6
Continuous
 62
   144
370
    18
100
AcDbLine
 10
36.0024406534
 20
17.9936579261
 30
0.0
 11
36.3128768686
 21
17.9936579261
 31
0.0
  0
LINE
  5
6E4
330
1F
100
AcDbEntity
  8
0
  6
Continuous
 62
   144
370
    18
100
AcDbLine
 10
36.0024406534
 20
17.7388489481
 30
0.0
 11
36.3128768686
 21
17.7388489481
 31
0.0
  0
ELLIPSE
  5
6E5
330
1F
100
AcDbEntity
  8
0
  6
Continuous
 62
   144
370
    18
100
AcDbEllipse
 10
36.3128708718
 20
17.758536986
 30
0.0
 11
0.01392366514113519
 21
-0.01392366514113519
 31
0.0
210
0.0
220
0.0
230
1.0
 40
0.9996954599
 41
5.497939437029817
 42
7.068431177329188
  0
LINE
  5
6E6
330
1F
100
AcDbEntity
  8
0
  6
Continuous
 62
   144
370
    18
100
AcDbLine
 10
36.3325589098
 20
17.7585309893
 30
0.0
 11
36.3325589098
 21
17.9542938436
 31
0.0
  0
ELLIPSE
  5
6E7
330
1F
100
AcDbEntity
  8
0
  6
Continuous
 62
   144
370
    18
100
AcDbEllipse
 10
36.3128708718
 20
17.9542878469
 30
0.0
 11
-0.01392366514112808
 21
-0.01392366514113519
 31
0.0
210
0.0
220
0.0
230
1.0
 40
0.9996954599
 41
2.356346783440424
 42
3.926838523739207
  0
ELLIPSE
  5
6E8
330
1F
100
AcDbEntity
  8
0
  6
Continuous
 62
   144
370
    18
100
AcDbEllipse
 10
36.0024466501
 20
17.9542878469
 30
0.0
 11
0.01392366514112808
 21
-0.01392366514113519
 31
0.0
210
0.0
220
0.0
230
1.0
 40
0.9996954599
 41
2.356346783440202
 42
3.926838523739367
  0
LINE
  5
6E9
330
1F
100
AcDbEntity
  8
0
  6
Continuous
 62
   144
370
    18
100
AcDbLine
 10
35.9827586122
 20
17.9542938436
 30
0.0
 11
35.9827586122
 21
17.7585309893
 31
0.0
  0
ELLIPSE
  5
6EA
330
1F
100
AcDbEntity
  8
0
  6
Continuous
 62
   144
370
    18
100
AcDbEllipse
 10
36.0024466501
 20
17.758536986
 30
0.0
 11
-0.01392366514114229
 21
-0.01392366514113519
 31
0.0
210
0.0
220
0.0
230
1.0
 40
0.9996954599
 41
5.497939437029934
 42
7.068431177329942
  0
LINE
  5
6EB
330
1F
100
AcDbEntity
  8
0
  6
Continuous
 62
   144
370
    18
100
AcDbLine
 10
36.3128768686
 20
17.7191669068
 30
0.0
 11
36.0024406534
 21
17.7191669068
 31
0.0
  0
LINE
  5
6EC
330
1F
100
AcDbEntity
  8
0
  6
Continuous
 62
   144
370
    18
100
AcDbLine
 10
36.3128768686
 20
17.7191669068
 30
0.0
 11
36.3128768686
 21
17.7388489481
 31
0.0
  0
LINE
  5
6ED
330
1F
100
AcDbEntity
  8
0
  6
Continuous
 62
   144
370
    18
100
AcDbLine
 10
36.0024406534
 20
17.7191669068
 30
0.0
 11
36.0024406534
 21
17.7388489481
 31
0.0
  0
LINE
  5
6EE
330
1F
100
AcDbEntity
  8
0
  6
Continuous
 62
   144
370
    18
100
AcDbLine
 10
36.0024406534
 20
17.7191669068
 30
0.0
 11
36.0015532804
 21
17.7182795338
 31
0.0
  0
ARC
  5
6EF
330
1F
100
AcDbEntity
  8
0
  6
Continuous
 62
   144
370
    18
100
AcDbCircle
 10
36.0024466501
 20
17.758536986
 30
0.0
 40
0.0393700796535558
100
AcDbArc
 50
180.0087270892
 51
269.9912729108
  0
LINE
  5
6F0
330
1F
100
AcDbEntity
  8
0
  6
Continuous
 62
   144
370
    18
100
AcDbLine
 10
35.9621891979
 20
17.7576438037
 30
0.0
 11
35.9630765709
 21
17.7585309893
 31
0.0
  0
ELLIPSE
  5
6F1
330
1F
100
AcDbEntity
  8
0
  6
Continuous
 62
   144
370
    18
100
AcDbEllipse
 10
36.0015652738
 20
17.7576556097
 30
0.0
 11
-0.02784733028226327
 21
-0.02784733028226682
 31
0.0
210
0.0
220
0.0
230
1.0
 40
0.9996954599
 41
5.497934678134645
 42
7.068431177329273
  0
LINE
  5
6F2
330
1F
100
AcDbEntity
  8
0
  6
Continuous
 62
   144
370
    18
100
AcDbLine
 10
36.3137642416
 20
17.7182795338
 30
0.0
 11
36.3128768686
 21
17.7191669068
 31
0.0
  0
LINE
  5
6F3
330
1F
100
AcDbEntity
  8
0
  6
Continuous
 62
   144
370
    18
100
AcDbLine
 10
36.3137642416
 20
17.7182795338
 30
0.0
 11
36.0015532804
 21
17.7182795338
 31
0.0
  0
LINE
  5
6F4
330
1F
100
AcDbEntity
  8
0
  6
Continuous
 62
   144
370
    18
100
AcDbLine
 10
36.352240951
 20
17.7585309893
 30
0.0
 11
36.3531283241
 21
17.7576438037
 31
0.0
  0
LINE
  5
6F5
330
1F
100
AcDbEntity
  8
0
  6
Continuous
 62
   144
370
    18
100
AcDbLine
 10
36.352240951
 20
17.9542938436
 30
0.0
 11
36.352240951
 21
17.7585309893
 31
0.0
  0
LINE
  5
6F6
330
1F
100
AcDbEntity
  8
0
  6
Continuous
 62
   144
370
    18
100
AcDbLine
 10
36.3522506807
 20
17.9543035733
 30
0.0
 11
36.352240951
 21
17.9542938436
 31
0.0
  0
ELLIPSE
  5
6F7
330
1F
100
AcDbEntity
  8
0
  6
Continuous
 62
   144
370
    18
100
AcDbEllipse
 10
36.3531439152
 20
17.9551932107
 30
0.0
 11
0.0
 21
0.05118110236220375
 31
0.0
210
0.0
220
0.0
230
1.0
 40
0.0174550649
 41
1.588179347966806
 42
3.124139673757726
  0
LINE
  5
6F8
330
1F
100
AcDbEntity
  8
0
  6
Continuous
 62
   144
370
    18
100
AcDbLine
 10
36.3531283241
 20
17.9040199032
 30
0.0
 11
36.3531283241
 21
17.7576438037
 31
0.0
  0
CIRCLE
  5
6F9
330
1F
100
AcDbEntity
  8
0
  6
Continuous
 62
   144
370
    18
100
AcDbCircle
 10
36.157658761
 20
20.1628306699
 30
0.0
 40
0.0688988372286943
  0
CIRCLE
  5
6FA
330
1F
100
AcDbEntity
  8
0
  6
Continuous
 62
   144
370
    18
100
AcDbCircle
 10
36.157658761
 20
20.1628306699
 30
0.0
 40
0.0641571069922833
  0
LINE
  5
6FB
330
1F
100
AcDbEntity
  8
0
  6
Continuous
 62
     7
370
    25
100
AcDbLine
 10
34.7611329289
 20
14.9085883241
 30
0.0
 11
35.3910541887
 21
14.9085883241
 31
0.0
  0
LINE
  5
6FC
330
1F
100
AcDbEntity
  8
0
  6
Continuous
 62
     8
370
    25
100
AcDbLine
 10
38.39071089
 20
23.1185520189
 30
0.0
 11
38.3816582608
 21
23.0821505094
 31
0.0
  0
LINE
  5
6FD
330
1F
100
AcDbEntity
  8
0
  6
Continuous
 62
     8
370
    25
100
AcDbLine
 10
38.379478562
 20
22.9313806607
 30
0.0
 11
38.3709414355
 21
22.8970620151
 31
0.0
  0
LINE
  5
6FE
330
1F
100
AcDbEntity
  8
0
  6
Continuous
 62
     8
370
    25
100
AcDbLine
 10
4.430767056
 20
22.3889032847
 30
0.0
 11
4.430767056
 21
16.8770924973
 31
0.0
  0
LINE
  5
6FF
330
1F
100
AcDbEntity
  8
0
  6
Continuous
 62
     8
370
    25
100
AcDbLine
 10
38.8165938277
 20
16.8770924973
 30
0.0
 11
38.8165938277
 21
22.3889032847
 31
0.0
  0
LINE
  5
700
330
1F
100
AcDbEntity
  8
0
  6
Continuous
 62
     8
370
    25
100
AcDbLine
 10
33.4831315048
 20
19.201315969
 30
0.0
 11
33.6150890459
 21
19.201315969
 31
0.0
  0
LINE
  5
701
330
1F
100
AcDbEntity
  8
0
  6
Continuous
 62
     8
370
    25
100
AcDbLine
 10
35.5646886407
 20
19.201315969
 30
0.0
 11
35.5686194359
 21
19.201315969
 31
0.0
  0
LINE
  5
702
330
1F
100
AcDbEntity
  8
0
  6
Continuous
 62
     8
370
    25
100
AcDbLine
 10
36.7466980861
 20
19.201315969
 30
0.0
 11
36.750628884
 21
19.201315969
 31
0.0
  0
LINE
  5
703
330
1F
100
AcDbEntity
  8
0
  6
Continuous
 62
   144
370
    18
100
AcDbLine
 10
35.820594151
 20
19.744444829
 30
0.0
 11
35.8645882309
 21
19.744444829
 31
0.0
  0
LINE
  5
704
330
1F
100
AcDbEntity
  8
0
  6
Continuous
 62
   144
370
    18
100
AcDbLine
 10
36.4492174351
 20
19.744444829
 30
0.0
 11
36.4932115151
 21
19.744444829
 31
0.0
  0
LINE
  5
705
330
1F
100
AcDbEntity
  8
0
  6
Continuous
 62
     8
370
    25
100
AcDbLine
 10
38.5857453947
 20
22.5189973816
 30
0.0
 11
38.2385800956
 21
22.5189973816
 31
0.0
  0
LINE
  5
706
330
1F
100
AcDbEntity
  8
0
  6
Continuous
 62
     8
370
    25
100
AcDbLine
 10
36.3725407839
 20
22.5189973816
 30
0.0
 11
36.029603678
 21
22.5189973816
 31
0.0
  0
LINE
  5
707
330
1F
100
AcDbEntity
  8
0
  6
Continuous
 62
     8
370
    25
100
AcDbLine
 10
36.029603678
 20
22.5294661388
 30
0.0
 11
36.3731634597
 21
22.5294661388
 31
0.0
  0
LINE
  5
708
330
1F
100
AcDbEntity
  8
0
  6
Continuous
 62
     8
370
    25
100
AcDbLine
 10
38.2379574197
 20
22.5294661388
 30
0.0
 11
38.5857453947
 21
22.5294661388
 31
0.0
  0
LINE
  5
709
330
1F
100
AcDbEntity
  8
0
  6
Continuous
 62
     8
370
    25
100
AcDbLine
 10
38.4381150939
 20
22.583339928
 30
0.0
 11
38.2347530368
 21
22.583339928
 31
0.0
  0
LINE
  5
70A
330
1F
100
AcDbEntity
  8
0
  6
Continuous
 62
     8
370
    25
100
AcDbLine
 10
36.3763678427
 20
22.583339928
 30
0.0
 11
36.1772339787
 21
22.583339928
 31
0.0
  0
LINE
  5
70B
330
1F
100
AcDbEntity
  8
0
  6
Continuous
 62
     8
370
    25
100
AcDbLine
 10
25.2461721066
 20
22.5070135209
 30
0.0
 11
25.2417049185
 21
22.5708972866
 31
0.0
  0
LINE
  5
70C
330
1F
100
AcDbEntity
  8
0
  6
Continuous
 62
   144
370
    18
100
AcDbLine
 10
34.7829146878
 20
22.5070135209
 30
0.0
 11
34.7812537757
 21
22.5387056128
 31
0.0
  0
ARC
  5
70D
330
1F
100
AcDbEntity
  8
0
  6
Continuous
 62
   144
370
    18
100
AcDbCircle
 10
25.2325278091
 20
22.6098340396
 30
0.0
 40
0.0567009778274913
100
AcDbArc
 50
84.8336524963
 51
159.8175356137
  0
LWPOLYLINE
  5
70E
330
1F
100
AcDbEntity
  8
0
  6
Continuous
 62
     8
370
    25
100
AcDbPolyline
 90
        5
 70
   128
 43
0.0
 10
25.2376335981
 20
22.6663046658
 10
25.2370694307
 20
22.6824475136
 10
25.2366637733
 20
22.6940661921
 10
25.2364039914
 20
22.7014588917
 10
25.2363635166
 20
22.7026233827
  0
LINE
  5
70F
330
1F
100
AcDbEntity
  8
0
  6
Continuous
 62
     8
370
    25
100
AcDbLine
 10
25.2417049183
 20
22.5719260573
 30
0.0
 11
25.2391953696
 21
22.6078142752
 31
0.0
  0
LINE
  5
710
330
1F
100
AcDbEntity
  8
0
  6
Continuous
 62
   144
370
    18
100
AcDbLine
 10
14.4193134455
 20
22.5708972866
 30
0.0
 11
14.4148462574
 21
22.5070135209
 31
0.0
  0
LINE
  5
711
330
1F
100
AcDbEntity
  8
0
  6
Continuous
 62
   144
370
    18
100
AcDbLine
 10
4.8797645883
 20
22.5387056128
 30
0.0
 11
4.8781036762
 21
22.5070135209
 31
0.0
  0
ARC
  5
712
330
1F
100
AcDbEntity
  8
0
  6
Continuous
 62
   144
370
    18
100
AcDbCircle
 10
14.4284905549
 20
22.6098340396
 30
0.0
 40
0.0567009778274917
100
AcDbArc
 50
20.1824643863
 51
95.1663475037
  0
LWPOLYLINE
  5
713
330
1F
100
AcDbEntity
  8
0
  6
Continuous
 62
     8
370
    25
100
AcDbPolyline
 90
        5
 70
   128
 43
0.0
 10
14.4246548474
 20
22.7026233827
 10
14.4246143726
 20
22.7014588917
 10
14.4243545907
 20
22.6940661921
 10
14.4239489333
 20
22.6824475136
 10
14.4233847659
 20
22.6663046658
  0
LINE
  5
714
330
1F
100
AcDbEntity
  8
0
  6
Continuous
 62
     8
370
    25
100
AcDbLine
 10
14.4218229944
 20
22.6078142752
 30
0.0
 11
14.4193134457
 21
22.5719260573
 31
0.0
  0
LINE
  5
715
330
1F
100
AcDbEntity
  8
0
  6
Continuous
 62
     8
370
    25
100
AcDbLine
 10
38.2329285597
 20
22.6140140073
 30
0.0
 11
37.3056588649
 21
22.6140140073
 31
0.0
  0
LINE
  5
716
330
1F
100
AcDbEntity
  8
0
  6
Continuous
 62
     8
370
    25
100
AcDbLine
 10
25.0215966508
 20
22.5070135209
 30
0.0
 11
25.0245077228
 21
22.5486437904
 31
0.0
  0
LINE
  5
717
330
1F
100
AcDbEntity
  8
0
  6
Continuous
 62
     8
370
    25
100
AcDbLine
 10
14.6365106412
 20
22.5486437904
 30
0.0
 11
14.6394217132
 21
22.5070135209
 31
0.0
  0
ENDSEC
  0
SECTION
  2
OBJECTS
  0
DICTIONARY
  5
C
330
0
100
AcDbDictionary
281
     1
  3
ACAD_GROUP
350
D
  3
ACAD_LAYOUT
350
1A
  3
ACAD_MLINESTYLE
350
17
  3
ACAD_PLOTSETTINGS
350
19
  3
ACAD_PLOTSTYLENAME
350
E
  3
ACAD_SCALELIST
350
47
  0
DICTIONARY
  5
D
102
{ACAD_REACTORS
330
C
102
}
330
C
100
AcDbDictionary
281
     1
  0
DICTIONARY
  5
1A
102
{ACAD_REACTORS
330
C
102
}
330
C
100
AcDbDictionary
281
     1
  3
Layout1
350
1E
  3
Layout2
350
26
  3
Model
350
22
  0
DICTIONARY
  5
17
102
{ACAD_REACTORS
330
C
102
}
330
C
100
AcDbDictionary
281
     1
  3
Standard
350
18
  0
DICTIONARY
  5
19
102
{ACAD_REACTORS
330
C
102
}
330
C
100
AcDbDictionary
281
     1
  0
ACDBDICTIONARYWDFLT
  5
E
102
{ACAD_REACTORS
330
C
102
}
330
C
100
AcDbDictionary
281
     1
  3
Normal
350
F
100
AcDbDictionaryWithDefault
340
F
  0
DICTIONARY
  5
47
102
{ACAD_REACTORS
330
C
102
}
330
C
100
AcDbDictionary
281
     1
  3
A0
350
48
  3
A1
350
49
  3
A2
350
4A
  3
A3
350
4B
  3
A4
350
4C
  3
A5
350
4D
  3
A6
350
4E
  3
A7
350
4F
  3
A8
350
50
  3
A9
350
51
  3
B0
350
52
  3
B1
350
53
  3
B2
350
54
  3
B3
350
55
  3
B4
350
56
  3
B5
350
57
  3
B6
350
58
  3
B7
350
59
  3
B8
350
5A
  3
B9
350
5B
  3
C0
350
5C
  3
C1
350
5D
  3
C2
350
5E
  3
C3
350
5F
  3
C4
350
60
  3
C5
350
61
  3
C6
350
62
  3
C7
350
63
  3
C8
350
64
  3
C9
350
65
  3
D0
350
66
  3
D1
350
67
  3
D2
350
68
  0
LAYOUT
  5
1E
102
{ACAD_REACTORS
330
1A
102
}
330
1A
100
AcDbPlotSettings
  1

  2
none_device
  4

  6

 40
0.0
 41
0.0
 42
0.0
 43
0.0
 44
0.0
 45
0.0
 46
0.0
 47
0.0
 48
0.0
 49
0.0
140
0.0
141
0.0
142
1.0
143
1.0
 70
   688
 72
     0
 73
     0
 74
     5
  7

 75
    16
147
1.0
148
0.0
149
0.0
100
AcDbLayout
  1
Layout1
 70
     1
 71
     1
 10
0.0
 20
0.0
 11
12.0
 21
9.0
 12
0.0
 22
0.0
 32
0.0
 14
1.0000000000E+20
 24
1.0000000000E+20
 34
1.0000000000E+20
 15
-1.0000000000E+20
 25
-1.0000000000E+20
 35
-1.0000000000E+20
146
0.0
 13
0.0
 23
0.0
 33
0.0
 16
1.0
 26
0.0
 36
0.0
 17
0.0
 27
1.0
 37
0.0
 76
     0
330
1B
  0
LAYOUT
  5
26
102
{ACAD_REACTORS
330
1A
102
}
330
1A
100
AcDbPlotSettings
  1

  2
none_device
  4

  6

 40
0.0
 41
0.0
 42
0.0
 43
0.0
 44
0.0
 45
0.0
 46
0.0
 47
0.0
 48
0.0
 49
0.0
140
0.0
141
0.0
142
1.0
143
1.0
 70
   688
 72
     0
 73
     0
 74
     5
  7

 75
    16
147
1.0
148
0.0
149
0.0
100
AcDbLayout
  1
Layout2
 70
     1
 71
     2
 10
0.0
 20
0.0
 11
0.0
 21
0.0
 12
0.0
 22
0.0
 32
0.0
 14
0.0
 24
0.0
 34
0.0
 15
0.0
 25
0.0
 35
0.0
146
0.0
 13
0.0
 23
0.0
 33
0.0
 16
1.0
 26
0.0
 36
0.0
 17
0.0
 27
1.0
 37
0.0
 76
     0
330
23
  0
LAYOUT
  5
22
102
{ACAD_REACTORS
330
1A
102
}
330
1A
100
AcDbPlotSettings
  1

  2
none_device
  4
Letter_(8.50_x_11.00_Inches)
  6

 40
6.35
 41
6.35
 42
6.35000508
 43
6.35000508
 44
215.9
 45
279.4
 46
0.0
 47
0.0
 48
0.0
 49
0.0
140
0.0
141
0.0
142
1.0
143
1.0
 70
  1712
 72
     0
 73
     0
 74
     0
  7

 75
     0
147
1.0
148
0.0
149
0.0
100
AcDbLayout
  1
Model
 70
     1
 71
     0
 10
0.0
 20
0.0
 11
45.0
 21
40.0
 12
0.0
 22
0.0
 32
0.0
 14
0.0
 24
0.0
 34
0.0
 15
45.0
 25
40.0
 35
0.0
146
0.0
 13
0.0
 23
0.0
 33
0.0
 16
1.0
 26
0.0
 36
0.0
 17
0.0
 27
1.0
 37
0.0
 76
     0
330
1F
331
29
  0
MLINESTYLE
  5
18
102
{ACAD_REACTORS
330
17
102
}
330
17
100
AcDbMlineStyle
  2
Standard
 70
     0
  3

 62
   256
 51
90.0
 52
90.0
 71
     2
 49
0.5
 62
   256
  6
BYLAYER
 49
-0.5
 62
   256
  6
BYLAYER
  0
ACDBPLACEHOLDER
  5
F
102
{ACAD_REACTORS
330
E
102
}
330
E
  0
SCALE
  5
48
102
{ACAD_REACTORS
330
47
102
}
330
47
100
AcDbScale
 70
     0
300
1:1
140
1.0
141
1.0
290
     1
  0
SCALE
  5
49
102
{ACAD_REACTORS
330
47
102
}
330
47
100
AcDbScale
 70
     0
300
1:2
140
1.0
141
2.0
290
     0
  0
SCALE
  5
4A
102
{ACAD_REACTORS
330
47
102
}
330
47
100
AcDbScale
 70
     0
300
1:4
140
1.0
141
4.0
290
     0
  0
SCALE
  5
4B
102
{ACAD_REACTORS
330
47
102
}
330
47
100
AcDbScale
 70
     0
300
1:5
140
1.0
141
5.0
290
     0
  0
SCALE
  5
4C
102
{ACAD_REACTORS
330
47
102
}
330
47
100
AcDbScale
 70
     0
300
1:8
140
1.0
141
8.0
290
     0
  0
SCALE
  5
4D
102
{ACAD_REACTORS
330
47
102
}
330
47
100
AcDbScale
 70
     0
300
1:10
140
1.0
141
10.0
290
     0
  0
SCALE
  5
4E
102
{ACAD_REACTORS
330
47
102
}
330
47
100
AcDbScale
 70
     0
300
1:16
140
1.0
141
16.0
290
     0
  0
SCALE
  5
4F
102
{ACAD_REACTORS
330
47
102
}
330
47
100
AcDbScale
 70
     0
300
1:20
140
1.0
141
20.0
290
     0
  0
SCALE
  5
50
102
{ACAD_REACTORS
330
47
102
}
330
47
100
AcDbScale
 70
     0
300
1:30
140
1.0
141
30.0
290
     0
  0
SCALE
  5
51
102
{ACAD_REACTORS
330
47
102
}
330
47
100
AcDbScale
 70
     0
300
1:40
140
1.0
141
40.0
290
     0
  0
SCALE
  5
52
102
{ACAD_REACTORS
330
47
102
}
330
47
100
AcDbScale
 70
     0
300
1:50
140
1.0
141
50.0
290
     0
  0
SCALE
  5
53
102
{ACAD_REACTORS
330
47
102
}
330
47
100
AcDbScale
 70
     0
300
1:100
140
1.0
141
100.0
290
     0
  0
SCALE
  5
54
102
{ACAD_REACTORS
330
47
102
}
330
47
100
AcDbScale
 70
     0
300
2:1
140
2.0
141
1.0
290
     0
  0
SCALE
  5
55
102
{ACAD_REACTORS
330
47
102
}
330
47
100
AcDbScale
 70
     0
300
4:1
140
4.0
141
1.0
290
     0
  0
SCALE
  5
56
102
{ACAD_REACTORS
330
47
102
}
330
47
100
AcDbScale
 70
     0
300
8:1
140
8.0
141
1.0
290
     0
  0
SCALE
  5
57
102
{ACAD_REACTORS
330
47
102
}
330
47
100
AcDbScale
 70
     0
300
10:1
140
10.0
141
1.0
290
     0
  0
SCALE
  5
58
102
{ACAD_REACTORS
330
47
102
}
330
47
100
AcDbScale
 70
     0
300
100:1
140
100.0
141
1.0
290
     0
  0
SCALE
  5
59
102
{ACAD_REACTORS
330
47
102
}
330
47
100
AcDbScale
 70
     0
300
1/128" = 1'-0"
140
0.0078125
141
12.0
290
     0
  0
SCALE
  5
5A
102
{ACAD_REACTORS
330
47
102
}
330
47
100
AcDbScale
 70
     0
300
1/64" = 1'-0"
140
0.015625
141
12.0
290
     0
  0
SCALE
  5
5B
102
{ACAD_REACTORS
330
47
102
}
330
47
100
AcDbScale
 70
     0
300
1/32" = 1'-0"
140
0.03125
141
12.0
290
     0
  0
SCALE
  5
5C
102
{ACAD_REACTORS
330
47
102
}
330
47
100
AcDbScale
 70
     0
300
1/16" = 1'-0"
140
0.0625
141
12.0
290
     0
  0
SCALE
  5
5D
102
{ACAD_REACTORS
330
47
102
}
330
47
100
AcDbScale
 70
     0
300
3/32" = 1'-0"
140
0.09375
141
12.0
290
     0
  0
SCALE
  5
5E
102
{ACAD_REACTORS
330
47
102
}
330
47
100
AcDbScale
 70
     0
300
1/8" = 1'-0"
140
0.125
141
12.0
290
     0
  0
SCALE
  5
5F
102
{ACAD_REACTORS
330
47
102
}
330
47
100
AcDbScale
 70
     0
300
3/16" = 1'-0"
140
0.1875
141
12.0
290
     0
  0
SCALE
  5
60
102
{ACAD_REACTORS
330
47
102
}
330
47
100
AcDbScale
 70
     0
300
1/4" = 1'-0"
140
0.25
141
12.0
290
     0
  0
SCALE
  5
61
102
{ACAD_REACTORS
330
47
102
}
330
47
100
AcDbScale
 70
     0
300
3/8" = 1'-0"
140
0.375
141
12.0
290
     0
  0
SCALE
  5
62
102
{ACAD_REACTORS
330
47
102
}
330
47
100
AcDbScale
 70
     0
300
1/2" = 1'-0"
140
0.5
141
12.0
290
     0
  0
SCALE
  5
63
102
{ACAD_REACTORS
330
47
102
}
330
47
100
AcDbScale
 70
     0
300
3/4" = 1'-0"
140
0.75
141
12.0
290
     0
  0
SCALE
  5
64
102
{ACAD_REACTORS
330
47
102
}
330
47
100
AcDbScale
 70
     0
300
1" = 1'-0"
140
1.0
141
12.0
290
     0
  0
SCALE
  5
65
102
{ACAD_REACTORS
330
47
102
}
330
47
100
AcDbScale
 70
     0
300
1-1/2" = 1'-0"
140
1.5
141
12.0
290
     0
  0
SCALE
  5
66
102
{ACAD_REACTORS
330
47
102
}
330
47
100
AcDbScale
 70
     0
300
3" = 1'-0"
140
3.0
141
12.0
290
     0
  0
SCALE
  5
67
102
{ACAD_REACTORS
330
47
102
}
330
47
100
AcDbScale
 70
     0
300
6" = 1'-0"
140
6.0
141
12.0
290
     0
  0
SCALE
  5
68
102
{ACAD_REACTORS
330
47
102
}
330
47
100
AcDbScale
 70
     0
300
1'-0" = 1'-0"
140
12.0
141
12.0
290
     0
  0
ENDSEC
  0
EOF
