  0
SECTION
  2
HEADER
  9
$ACADVER
  1
AC1015
  9
$ACADMAINTVER
 70
     6
  9
$DWGCODEPAGE
  3
ANSI_1252
  9
$INSBASE
 10
0.0
 20
0.0
 30
0.0
  9
$EXTMIN
 10
0.0
 20
0.0
 30
0.0
  9
$EXTMAX
 10
45.0
 20
40.0
 30
0.0
  9
$LIMMIN
 10
0.0
 20
0.0
  9
$LIMMAX
 10
45.0
 20
40.0
  9
$ORTHOMODE
 70
     0
  9
$REGENMODE
 70
     1
  9
$FILLMODE
 70
     1
  9
$QTEXTMODE
 70
     0
  9
$MIRRTEXT
 70
     1
  9
$LTSCALE
 40
1.0
  9
$ATTMODE
 70
     1
  9
$TEXTSIZE
 40
0.125
  9
$TRACEWID
 40
0.05
  9
$TEXTSTYLE
  7
Standard
  9
$CLAYER
  8
0
  9
$CELTYPE
  6
ByLayer
  9
$CECOLOR
 62
   256
  9
$CELTSCALE
 40
1.0
  9
$DISPSILH
 70
     0
  9
$DIMSCALE
 40
1.0
  9
$DIMASZ
 40
0.13
  9
$DIMEXO
 40
0.05
  9
$DIMDLI
 40
0.38
  9
$DIMRND
 40
0.0
  9
$DIMDLE
 40
0.0
  9
$DIMEXE
 40
0.125
  9
$DIMTP
 40
0.0
  9
$DIMTM
 40
0.0
  9
$DIMTXT
 40
0.125
  9
$DIMCEN
 40
0.09
  9
$DIMTSZ
 40
0.0
  9
$DIMTOL
 70
     0
  9
$DIMLIM
 70
     0
  9
$DIMTIH
 70
     1
  9
$DIMTOH
 70
     1
  9
$DIMSE1
 70
     0
  9
$DIMSE2
 70
     0
  9
$DIMTAD
 70
     0
  9
$DIMZIN
 70
     0
  9
$DIMBLK
  1

  9
$DIMASO
 70
     1
  9
$DIMSHO
 70
     1
  9
$DIMPOST
  1

  9
$DIMAPOST
  1

  9
$DIMALT
 70
     0
  9
$DIMALTD
 70
     2
  9
$DIMALTF
 40
25.4
  9
$DIMLFAC
 40
1.0
  9
$DIMTOFL
 70
     0
  9
$DIMTVP
 40
0.0
  9
$DIMTIX
 70
     0
  9
$DIMSOXD
 70
     0
  9
$DIMSAH
 70
     0
  9
$DIMBLK1
  1

  9
$DIMBLK2
  1

  9
$DIMSTYLE
  2
Standard
  9
$DIMCLRD
 70
     0
  9
$DIMCLRE
 70
     0
  9
$DIMCLRT
 70
     0
  9
$DIMTFAC
 40
1.0
  9
$DIMGAP
 40
0.06
  9
$DIMJUST
 70
     0
  9
$DIMSD1
 70
     0
  9
$DIMSD2
 70
     0
  9
$DIMTOLJ
 70
     1
  9
$DIMTZIN
 70
     0
  9
$DIMALTZ
 70
     0
  9
$DIMALTTZ
 70
     0
  9
$DIMUPT
 70
     0
  9
$DIMDEC
 70
     2
  9
$DIMTDEC
 70
     2
  9
$DIMALTU
 70
     2
  9
$DIMALTTD
 70
     2
  9
$DIMTXSTY
  7
Standard
  9
$DIMAUNIT
 70
     0
  9
$DIMADEC
 70
     2
  9
$DIMALTRND
 40
0.0
  9
$DIMAZIN
 70
     0
  9
$DIMDSEP
 70
    46
  9
$DIMATFIT
 70
     3
  9
$DIMFRAC
 70
     0
  9
$DIMLDRBLK
  1

  9
$DIMLUNIT
 70
     2
  9
$DIMLWD
 70
    -2
  9
$DIMLWE
 70
    -2
  9
$DIMTMOVE
 70
     0
  9
$LUNITS
 70
     2
  9
$LUPREC
 70
     2
  9
$SKETCHINC
 40
0.1
  9
$FILLETRAD
 40
0.5
  9
$AUNITS
 70
     0
  9
$AUPREC
 70
     2
  9
$MENU
  1
.
  9
$ELEVATION
 40
0.0
  9
$PELEVATION
 40
0.0
  9
$THICKNESS
 40
0.0
  9
$LIMCHECK
 70
     0
  9
$CHAMFERA
 40
0.0
  9
$CHAMFERB
 40
0.0
  9
$CHAMFERC
 40
0.0
  9
$CHAMFERD
 40
0.0
  9
$SKPOLY
 70
     0
  9
$TDCREATE
 40
2458813.45254897
  9
$TDUCREATE
 40
2458813.785882303
  9
$TDUPDATE
 40
2458813.452550787
  9
$TDUUPDATE
 40
2458813.785884121
  9
$TDINDWG
 40
0.0000000116
  9
$TDUSRTIMER
 40
0.0000000116
  9
$USRTIMER
 70
     1
  9
$ANGBASE
 50
0.0
  9
$ANGDIR
 70
     0
  9
$PDMODE
 70
     0
  9
$PDSIZE
 40
-1.0
  9
$PLINEWID
 40
0.0
  9
$SPLFRAME
 70
     0
  9
$SPLINETYPE
 70
     6
  9
$SPLINESEGS
 70
     8
  9
$HANDSEED
  5
6D4
  9
$SURFTAB1
 70
     6
  9
$SURFTAB2
 70
     6
  9
$SURFTYPE
 70
     6
  9
$SURFU
 70
     6
  9
$SURFV
 70
     6
  9
$UCSBASE
  2

  9
$UCSNAME
  2

  9
$UCSORG
 10
0.0
 20
0.0
 30
0.0
  9
$UCSXDIR
 10
1.0
 20
0.0
 30
0.0
  9
$UCSYDIR
 10
0.0
 20
1.0
 30
0.0
  9
$UCSORTHOREF
  2

  9
$UCSORTHOVIEW
 70
     0
  9
$UCSORGTOP
 10
0.0
 20
0.0
 30
0.0
  9
$UCSORGBOTTOM
 10
0.0
 20
0.0
 30
0.0
  9
$UCSORGLEFT
 10
0.0
 20
0.0
 30
0.0
  9
$UCSORGRIGHT
 10
0.0
 20
0.0
 30
0.0
  9
$UCSORGFRONT
 10
0.0
 20
0.0
 30
0.0
  9
$UCSORGBACK
 10
0.0
 20
0.0
 30
0.0
  9
$PUCSBASE
  2

  9
$PUCSNAME
  2

  9
$PUCSORG
 10
0.0
 20
0.0
 30
0.0
  9
$PUCSXDIR
 10
1.0
 20
0.0
 30
0.0
  9
$PUCSYDIR
 10
0.0
 20
1.0
 30
0.0
  9
$PUCSORTHOREF
  2

  9
$PUCSORTHOVIEW
 70
     0
  9
$PUCSORGTOP
 10
0.0
 20
0.0
 30
0.0
  9
$PUCSORGBOTTOM
 10
0.0
 20
0.0
 30
0.0
  9
$PUCSORGLEFT
 10
0.0
 20
0.0
 30
0.0
  9
$PUCSORGRIGHT
 10
0.0
 20
0.0
 30
0.0
  9
$PUCSORGFRONT
 10
0.0
 20
0.0
 30
0.0
  9
$PUCSORGBACK
 10
0.0
 20
0.0
 30
0.0
  9
$USERI1
 70
     0
  9
$USERI2
 70
     0
  9
$USERI3
 70
     0
  9
$USERI4
 70
     0
  9
$USERI5
 70
     0
  9
$USERR1
 40
0.0
  9
$USERR2
 40
0.0
  9
$USERR3
 40
0.0
  9
$USERR4
 40
0.0
  9
$USERR5
 40
0.0
  9
$WORLDVIEW
 70
     1
  9
$SHADEDGE
 70
     3
  9
$SHADEDIF
 70
    70
  9
$TILEMODE
 70
     1
  9
$MAXACTVP
 70
    64
  9
$PINSBASE
 10
0.0
 20
0.0
 30
0.0
  9
$PLIMCHECK
 70
     0
  9
$PEXTMIN
 10
1.0000000000E+20
 20
1.0000000000E+20
 30
1.0000000000E+20
  9
$PEXTMAX
 10
-1.0000000000E+20
 20
-1.0000000000E+20
 30
-1.0000000000E+20
  9
$PLIMMIN
 10
0.0
 20
0.0
  9
$PLIMMAX
 10
12.0
 20
9.0
  9
$UNITMODE
 70
     0
  9
$VISRETAIN
 70
     1
  9
$PLINEGEN
 70
     0
  9
$PSLTSCALE
 70
     1
  9
$TREEDEPTH
 70
  3020
  9
$CMLSTYLE
  2
Standard
  9
$CMLJUST
 70
     0
  9
$CMLSCALE
 40
1.0
  9
$PROXYGRAPHICS
 70
     1
  9
$MEASUREMENT
 70
     0
  9
$CELWEIGHT
370
    -1
  9
$ENDCAPS
280
     0
  9
$JOINSTYLE
280
     0
  9
$LWDISPLAY
290
     1
  9
$INSUNITS
 70
     1
  9
$HYPERLINKBASE
  1

  9
$STYLESHEET
  1

  9
$XEDIT
290
     1
  9
$CEPSNTYPE
380
     0
  9
$PSTYLEMODE
290
     1
  9
$FINGERPRINTGUID
  2
{993B6027-FFF3-4636-94D6-142F7F68061C}
  9
$VERSIONGUID
  2
{FAEB1C32-E019-11D5-929B-00C0DF256EC4}
  9
$EXTNAMES
290
     1
  9
$PSVPSCALE
 40
0.0
  9
$OLESTARTUP
290
     0
  0
ENDSEC
  0
SECTION
  2
CLASSES
  0
CLASS
  1
ACDBDICTIONARYWDFLT
  2
AcDbDictionaryWithDefault
  3
ObjectDBX Classes
 90
        0
280
     0
281
     0
  0
CLASS
  1
VISUALSTYLE
  2
AcDbVisualStyle
  3
ObjectDBX Classes
 90
     4095
280
     0
281
     0
  0
CLASS
  1
MATERIAL
  2
AcDbMaterial
  3
ObjectDBX Classes
 90
     1153
280
     0
281
     0
  0
CLASS
  1
SCALE
  2
AcDbScale
  3
ObjectDBX Classes
 90
     1153
280
     0
281
     0
  0
CLASS
  1
TABLESTYLE
  2
AcDbTableStyle
  3
ObjectDBX Classes
 90
     4095
280
     0
281
     0
  0
CLASS
  1
MLEADERSTYLE
  2
AcDbMLeaderStyle
  3
ACDB_MLEADERSTYLE_CLASS
 90
     4095
280
     0
281
     0
  0
CLASS
  1
SUN
  2
AcDbSun
  3
SCENEOE
 90
     1153
280
     0
281
     0
  0
CLASS
  1
ACDBPLACEHOLDER
  2
AcDbPlaceHolder
  3
ObjectDBX Classes
 90
        0
280
     0
281
     0
  0
CLASS
  1
LAYOUT
  2
AcDbLayout
  3
ObjectDBX Classes
 90
        0
280
     0
281
     0
  0
ENDSEC
  0
SECTION
  2
TABLES
  0
TABLE
  2
VPORT
  5
8
330
0
100
AcDbSymbolTable
 70
     1
  0
VPORT
  5
29
330
8
100
AcDbSymbolTableRecord
100
AcDbViewportTableRecord
  2
*Active
 70
     0
 10
0.0
 20
0.0
 11
1.0
 21
1.0
 12
22.5
 22
20.0
 13
0.0
 23
0.0
 14
0.5
 24
0.5
 15
0.5
 25
0.5
 16
0.0
 26
0.0
 36
1.0
 17
0.0
 27
0.0
 37
0.0
 40
40.0
 41
1.125
 42
50.0
 43
0.0
 44
0.0
 50
0.0
 51
0.0
 71
     0
 72
  2000
 73
     1
 74
     3
 75
     0
 76
     0
 77
     0
 78
     0
281
     0
 65
     1
110
0.0
120
0.0
130
0.0
111
1.0
121
0.0
131
0.0
112
0.0
122
1.0
132
0.0
 79
     0
146
0.0
  0
ENDTAB
  0
TABLE
  2
LTYPE
  5
5
330
0
100
AcDbSymbolTable
 70
     6
  0
LTYPE
  5
14
330
5
100
AcDbSymbolTableRecord
100
AcDbLinetypeTableRecord
  2
ByBlock
 70
     0
  3

 72
    65
 73
     0
 40
0.0
  0
LTYPE
  5
15
330
5
100
AcDbSymbolTableRecord
100
AcDbLinetypeTableRecord
  2
ByLayer
 70
     0
  3

 72
    65
 73
     0
 40
0.0
  0
LTYPE
  5
16
330
5
100
AcDbSymbolTableRecord
100
AcDbLinetypeTableRecord
  2
Continuous
 70
     0
  3
Solid line
 72
    65
 73
     0
 40
0.0
  0
LTYPE
  5
6E
330
5
100
AcDbSymbolTableRecord
100
AcDbLinetypeTableRecord
  2
HIDDEN
 70
     0
  3
Hidden __ __ __ __ __ __ __ __ __ __ __ __ __ __
 72
    65
 73
     2
 40
0.075
 49
0.05
 74
     0
 49
-0.025
 74
     0
  0
LTYPE
  5
6F
330
5
100
AcDbSymbolTableRecord
100
AcDbLinetypeTableRecord
  2
PHANTOM
 70
     0
  3
Phantom ______  __  __  ______  __  __  ______
 72
    65
 73
     6
 40
0.5
 49
0.25
 74
     0
 49
-0.05
 74
     0
 49
0.05
 74
     0
 49
-0.05
 74
     0
 49
0.05
 74
     0
 49
-0.05
 74
     0
  0
LTYPE
  5
70
330
5
100
AcDbSymbolTableRecord
100
AcDbLinetypeTableRecord
  2
CENTER
 70
     0
  3
Center ____ _ ____ _ ____ _ ____ _ ____ _ ____
 72
    65
 73
     4
 40
0.4
 49
0.25
 74
     0
 49
-0.05
 74
     0
 49
0.05
 74
     0
 49
-0.05
 74
     0
  0
LTYPE
  5
71
330
5
100
AcDbSymbolTableRecord
100
AcDbLinetypeTableRecord
  2
CENTERX2
 70
     0
  3
Center (2x) ________  __  ________  __  _____
 72
    65
 73
     4
 40
0.8
 49
0.5
 74
     0
 49
-0.1
 74
     0
 49
0.1
 74
     0
 49
-0.1
 74
     0
  0
LTYPE
  5
72
330
5
100
AcDbSymbolTableRecord
100
AcDbLinetypeTableRecord
  2
DOT2
 70
     0
  3
Dot (.5x) ........................................
 72
    65
 73
     2
 40
0.025
 49
0.0
 74
     0
 49
-0.025
 74
     0
  0
ENDTAB
  0
TABLE
  2
LAYER
  5
2
330
0
100
AcDbSymbolTable
 70
     1
  0
LAYER
  5
10
330
2
100
AcDbSymbolTableRecord
100
AcDbLayerTableRecord
  2
0
 70
     0
 62
     7
  6
Continuous
370
    -3
390
F
  0
ENDTAB
  0
TABLE
  2
STYLE
  5
3
330
0
100
AcDbSymbolTable
 70
     1
  0
STYLE
  5
11
330
3
100
AcDbSymbolTableRecord
100
AcDbTextStyleTableRecord
  2
Standard
 70
     0
 40
0.0
 41
1.0
 50
0.0
 71
     0
 42
0.125
  3
txt
  4

  0
ENDTAB
  0
TABLE
  2
VIEW
  5
6
330
0
100
AcDbSymbolTable
 70
     0
  0
ENDTAB
  0
TABLE
  2
UCS
  5
7
330
0
100
AcDbSymbolTable
 70
     0
  0
ENDTAB
  0
TABLE
  2
APPID
  5
9
330
0
100
AcDbSymbolTable
 70
     1
  0
APPID
  5
12
330
9
100
AcDbSymbolTableRecord
100
AcDbRegAppTableRecord
  2
ACAD
 70
     0
  0
ENDTAB
  0
TABLE
  2
DIMSTYLE
  5
A
330
0
100
AcDbSymbolTable
 70
     1
100
AcDbDimStyleTable
  0
DIMSTYLE
105
27
330
A
100
AcDbSymbolTableRecord
100
AcDbDimStyleTableRecord
  2
Standard
 70
     0
178
     0
340
11
  0
ENDTAB
  0
TABLE
  2
BLOCK_RECORD
  5
1
330
0
100
AcDbSymbolTable
 70
     1
  0
BLOCK_RECORD
  5
1F
330
1
100
AcDbSymbolTableRecord
100
AcDbBlockTableRecord
  2
*Model_Space
340
22
  0
BLOCK_RECORD
  5
1B
330
1
100
AcDbSymbolTableRecord
100
AcDbBlockTableRecord
  2
*Paper_Space
340
1E
  0
BLOCK_RECORD
  5
23
330
1
100
AcDbSymbolTableRecord
100
AcDbBlockTableRecord
  2
*Paper_Space0
340
26
  0
ENDTAB
  0
ENDSEC
  0
SECTION
  2
BLOCKS
  0
BLOCK
  5
20
330
1F
100
AcDbEntity
  8
0
100
AcDbBlockBegin
  2
*Model_Space
 70
     0
 10
0.0
 20
0.0
 30
0.0
  3
*Model_Space
  1

  0
ENDBLK
  5
21
330
1F
100
AcDbEntity
  8
0
100
AcDbBlockEnd
  0
BLOCK
  5
1C
330
1B
100
AcDbEntity
 67
     1
  8
0
100
AcDbBlockBegin
  2
*Paper_Space
 70
     0
 10
0.0
 20
0.0
 30
0.0
  3
*Paper_Space
  1

  0
ENDBLK
  5
1D
330
1B
100
AcDbEntity
 67
     1
  8
0
100
AcDbBlockEnd
  0
BLOCK
  5
24
330
23
100
AcDbEntity
  8
0
100
AcDbBlockBegin
  2
*Paper_Space0
 70
     0
 10
0.0
 20
0.0
 30
0.0
  3
*Paper_Space0
  1

  0
ENDBLK
  5
25
330
23
100
AcDbEntity
  8
0
100
AcDbBlockEnd
  0
ENDSEC
  0
SECTION
  2
ENTITIES
  0
LINE
  5
73
330
1F
100
AcDbEntity
  8
0
  6
Continuous
 62
     7
370
    25
100
AcDbLine
 10
32.4789142157
 20
15.4302572339
 30
0.0
 11
32.4789142157
 21
17.0050611478
 31
0.0
  0
LINE
  5
74
330
1F
100
AcDbEntity
  8
0
  6
Continuous
 62
     7
370
    25
100
AcDbLine
 10
31.8489929558
 20
17.0050611478
 30
0.0
 11
31.8489929558
 21
15.4302572339
 31
0.0
  0
LINE
  5
75
330
1F
100
AcDbEntity
  8
0
  6
Continuous
 62
     7
370
    25
100
AcDbLine
 10
35.3271529158
 20
23.0286824308
 30
0.0
 11
35.3207885866
 21
23.1356829171
 31
0.0
  0
ARC
  5
76
330
1F
100
AcDbEntity
  8
0
  6
Continuous
 62
     7
370
    25
100
AcDbCircle
 10
35.3089984002
 20
23.1349816434
 30
0.0
 40
0.0118110236220578
100
AcDbArc
 50
3.403910673
 51
90.0
  0
LINE
  5
77
330
1F
100
AcDbEntity
  8
0
  6
Continuous
 62
     7
370
    25
100
AcDbLine
 10
33.3161115976
 20
23.3916092887
 30
0.0
 11
33.3216955553
 21
23.3784620515
 31
0.0
  0
LINE
  5
78
330
1F
100
AcDbEntity
  8
0
  6
Continuous
 62
     7
370
    25
100
AcDbLine
 10
33.3244498951
 20
23.3719770527
 30
0.0
 11
33.3398381043
 21
23.3357460411
 31
0.0
  0
LINE
  5
79
330
1F
100
AcDbEntity
  8
0
  6
Continuous
 62
     7
370
    25
100
AcDbLine
 10
35.4469987388
 20
23.3357460411
 30
0.0
 11
35.4707252454
 21
23.3916092887
 31
0.0
  0
LWPOLYLINE
  5
7A
330
1F
100
AcDbEntity
  8
0
  6
Continuous
 62
     7
370
    25
100
AcDbPolyline
 90
        4
 70
   128
 43
0.0
 10
31.9510999991
 20
23.0286824308
 10
31.950551698
 20
23.0390638165
 10
31.9497294881
 20
23.0546063942
 10
31.9491472116
 20
23.0655701661
  0
LWPOLYLINE
  5
7B
330
1F
100
AcDbEntity
  8
0
  6
Continuous
 62
     7
370
    25
100
AcDbPolyline
 90
        3
 70
   128
 43
0.0
 10
31.9489015732
 20
23.0708429266
 10
31.9453363579
 20
23.0800364185
 10
31.9397327643
 20
23.0846085326
  0
ARC
  5
7C
330
1F
100
AcDbEntity
  8
0
  6
Continuous
 62
     7
370
    25
100
AcDbCircle
 10
31.8956344318
 20
23.0581013236
 30
0.0
 40
0.054279724500409
100
AcDbArc
 50
23.6929267131
 51
74.7116114282
  0
LWPOLYLINE
  5
7D
330
1F
100
AcDbEntity
  8
0
  6
Continuous
 62
     7
370
    25
100
AcDbPolyline
 90
        3
 70
   128
 43
0.0
 10
31.9459817791
 20
23.067648575
 10
31.9492322394
 20
23.0652241507
 10
31.9504829163
 20
23.0587353415
  0
LINE
  5
7E
330
1F
100
AcDbEntity
  8
0
  6
Continuous
 62
     7
370
    25
100
AcDbLine
 10
19.9846717988
 20
23.1733454543
 30
0.0
 11
19.9862284199
 21
23.1510848682
 31
0.0
  0
LWPOLYLINE
  5
7F
330
1F
100
AcDbEntity
  8
0
  6
Continuous
 62
     7
370
    25
100
AcDbPolyline
 90
        3
 70
   128
 43
0.0
 10
7.9085154625
 20
23.0587353415
 10
7.9097661394
 20
23.0652241507
 10
7.9130165997
 20
23.067648575
  0
ARC
  5
80
330
1F
100
AcDbEntity
  8
0
  6
Continuous
 62
     7
370
    25
100
AcDbCircle
 10
7.963363947
 20
23.0581013236
 30
0.0
 40
0.054279724500326
100
AcDbArc
 50
105.2883885718
 51
156.307073287
  0
LWPOLYLINE
  5
81
330
1F
100
AcDbEntity
  8
0
  6
Continuous
 62
     7
370
    25
100
AcDbPolyline
 90
        3
 70
   128
 43
0.0
 10
7.9192656145
 20
23.0846085326
 10
7.9136620208
 20
23.0800364185
 10
7.9100968055
 20
23.0708429266
  0
LWPOLYLINE
  5
82
330
1F
100
AcDbEntity
  8
0
  6
Continuous
 62
     7
370
    25
100
AcDbPolyline
 90
        4
 70
   128
 43
0.0
 10
7.9098511672
 20
23.0655701661
 10
7.9092688906
 20
23.0546063942
 10
7.9084466808
 20
23.0390638165
 10
7.9078983797
 20
23.0286824308
  0
LINE
  5
83
330
1F
100
AcDbEntity
  8
0
  6
Continuous
 62
   144
370
    18
100
AcDbLine
 10
19.8727699589
 20
23.1510848682
 30
0.0
 11
19.87432658
 21
23.1733454542
 31
0.0
  0
LINE
  5
84
330
1F
100
AcDbEntity
  8
0
  6
Continuous
 62
     7
370
    25
100
AcDbLine
 10
35.4786251969
 20
23.7831191124
 30
0.0
 11
35.4760955869
 21
23.9280403723
 31
0.0
  0
LINE
  5
85
330
1F
100
AcDbEntity
  8
0
  6
Continuous
 62
     7
370
    25
100
AcDbLine
 10
33.3089545172
 20
23.8256781676
 30
0.0
 11
33.3082116462
 21
23.7831191124
 31
0.0
  0
LINE
  5
86
330
1F
100
AcDbEntity
  8
0
  6
Continuous
 62
     7
370
    25
100
AcDbLine
 10
35.4760955869
 20
23.9280403723
 30
0.0
 11
35.4403046062
 21
23.9634734432
 31
0.0
  0
LINE
  5
87
330
1F
100
AcDbEntity
  8
0
  6
Continuous
 62
     7
370
    25
100
AcDbLine
 10
33.3490090846
 20
23.3357460411
 30
0.0
 11
33.3490090846
 21
23.2648798994
 31
0.0
  0
LINE
  5
88
330
1F
100
AcDbEntity
  8
0
  6
Continuous
 62
     7
370
    25
100
AcDbLine
 10
35.4378277585
 20
23.2648798994
 30
0.0
 11
35.4378277585
 21
23.3357460411
 31
0.0
  0
LINE
  5
89
330
1F
100
AcDbEntity
  8
0
  6
Continuous
 62
   144
370
    18
100
AcDbLine
 10
35.0935118745
 20
23.7232318778
 30
0.0
 11
35.0909746822
 21
23.7792070456
 31
0.0
  0
LINE
  5
8A
330
1F
100
AcDbEntity
  8
0
  6
Continuous
 62
   144
370
    18
100
AcDbLine
 10
35.0522114991
 20
23.6962392152
 30
0.0
 11
35.0935118745
 21
23.7232318778
 31
0.0
  0
LINE
  5
8B
330
1F
100
AcDbEntity
  8
0
  6
Continuous
 62
   144
370
    18
100
AcDbLine
 10
35.0498091356
 20
23.7503032092
 30
0.0
 11
35.0522114991
 21
23.6962392152
 31
0.0
  0
LINE
  5
8C
330
1F
100
AcDbEntity
  8
0
  6
Continuous
 62
   144
370
    18
100
AcDbLine
 10
34.2998696496
 20
23.4475779274
 30
0.0
 11
34.3462978268
 21
23.4744316448
 31
0.0
  0
LINE
  5
8D
330
1F
100
AcDbEntity
  8
0
  6
Continuous
 62
   144
370
    18
100
AcDbLine
 10
34.3462978268
 20
23.4744316448
 30
0.0
 11
34.3464714289
 21
23.5304014284
 31
0.0
  0
LINE
  5
8E
330
1F
100
AcDbEntity
  8
0
  6
Continuous
 62
   144
370
    18
100
AcDbLine
 10
33.8557830829
 20
23.6673733604
 30
0.0
 11
33.8119293873
 21
23.6961920507
 31
0.0
  0
LINE
  5
8F
330
1F
100
AcDbEntity
  8
0
  6
Continuous
 62
   144
370
    18
100
AcDbLine
 10
33.8190793596
 20
23.7014100849
 30
0.0
 11
33.8488418363
 21
23.7232161723
 31
0.0
  0
LINE
  5
90
330
1F
100
AcDbEntity
  8
0
  6
Continuous
 62
   144
370
    18
100
AcDbLine
 10
33.8937066636
 20
23.6961823391
 30
0.0
 11
33.8488418363
 21
23.7232161723
 31
0.0
  0
LINE
  5
91
330
1F
100
AcDbEntity
  8
0
  6
Continuous
 62
   144
370
    18
100
AcDbLine
 10
33.6933249685
 20
23.7232318778
 30
0.0
 11
33.6958621608
 21
23.7792070456
 31
0.0
  0
LINE
  5
92
330
1F
100
AcDbEntity
  8
0
  6
Continuous
 62
   144
370
    18
100
AcDbLine
 10
33.6622479221
 20
23.6962392152
 30
0.0
 11
33.6933249685
 21
23.7232318778
 31
0.0
  0
LINE
  5
93
330
1F
100
AcDbEntity
  8
0
  6
Continuous
 62
   144
370
    18
100
AcDbLine
 10
33.6622479221
 20
23.6962392152
 30
0.0
 11
33.6649702589
 21
23.7503032092
 31
0.0
  0
LINE
  5
94
330
1F
100
AcDbEntity
  8
0
  6
Continuous
 62
   144
370
    18
100
AcDbLine
 10
33.6649702589
 20
23.7503032092
 30
0.0
 11
33.6958621608
 21
23.7792070456
 31
0.0
  0
LINE
  5
95
330
1F
100
AcDbEntity
  8
0
  6
Continuous
 62
     7
370
    25
100
AcDbLine
 10
34.5798040028
 20
23.4475779274
 30
0.0
 11
34.6272310775
 21
23.4744316448
 31
0.0
  0
LINE
  5
96
330
1F
100
AcDbEntity
  8
0
  6
Continuous
 62
   144
370
    18
100
AcDbLine
 10
34.5798040028
 20
23.4475779274
 30
0.0
 11
34.6242292018
 21
23.4187309235
 31
0.0
  0
LINE
  5
97
330
1F
100
AcDbEntity
  8
0
  6
Continuous
 62
   144
370
    18
100
AcDbLine
 10
34.6272310775
 20
23.4744316448
 30
0.0
 11
34.6242292018
 21
23.4187309235
 31
0.0
  0
LINE
  5
98
330
1F
100
AcDbEntity
  8
0
  6
Continuous
 62
   144
370
    18
100
AcDbLine
 10
34.6263696629
 20
23.5304014284
 30
0.0
 11
34.6272310775
 21
23.4744316448
 31
0.0
  0
LINE
  5
99
330
1F
100
AcDbEntity
  8
0
  6
Continuous
 62
   144
370
    18
100
AcDbLine
 10
34.5791074481
 20
23.5017916667
 30
0.0
 11
34.6263861051
 21
23.5303783134
 31
0.0
  0
LINE
  5
9A
330
1F
100
AcDbEntity
  8
0
  6
Continuous
 62
   144
370
    18
100
AcDbLine
 10
34.5791074481
 20
23.5017916667
 30
0.0
 11
34.5798040028
 21
23.4475779274
 31
0.0
  0
LINE
  5
9B
330
1F
100
AcDbEntity
  8
0
  6
Continuous
 62
   144
370
    18
100
AcDbLine
 10
34.3466447599
 20
23.584490979
 30
0.0
 11
34.2993550041
 21
23.6133161479
 31
0.0
  0
LINE
  5
9C
330
1F
100
AcDbEntity
  8
0
  6
Continuous
 62
   144
370
    18
100
AcDbLine
 10
34.3465054025
 20
23.5304252494
 30
0.0
 11
34.3466447599
 21
23.584490979
 31
0.0
  0
LINE
  5
9D
330
1F
100
AcDbEntity
  8
0
  6
Continuous
 62
   144
370
    18
100
AcDbLine
 10
34.3465054025
 20
23.5304252494
 30
0.0
 11
34.2990090043
 21
23.5574014823
 31
0.0
  0
LINE
  5
9E
330
1F
100
AcDbEntity
  8
0
  6
Continuous
 62
   144
370
    18
100
AcDbLine
 10
34.2990090043
 20
23.5574014823
 30
0.0
 11
34.2993550041
 21
23.6133161479
 31
0.0
  0
LINE
  5
9F
330
1F
100
AcDbEntity
  8
0
  6
Continuous
 62
   144
370
    18
100
AcDbLine
 10
34.7625459452
 20
23.6133161479
 30
0.0
 11
34.7611826527
 21
23.6673733604
 31
0.0
  0
LINE
  5
A0
330
1F
100
AcDbEntity
  8
0
  6
Continuous
 62
   144
370
    18
100
AcDbLine
 10
34.8090839298
 20
23.6402209287
 30
0.0
 11
34.7625459452
 21
23.6133161479
 31
0.0
  0
LINE
  5
A1
330
1F
100
AcDbEntity
  8
0
  6
Continuous
 62
   144
370
    18
100
AcDbLine
 10
34.8075636803
 20
23.6962152285
 30
0.0
 11
34.8090839298
 21
23.6402209287
 31
0.0
  0
LINE
  5
A2
330
1F
100
AcDbEntity
  8
0
  6
Continuous
 62
   144
370
    18
100
AcDbLine
 10
34.7611826527
 20
23.6673733604
 30
0.0
 11
34.8075802088
 21
23.6961920507
 31
0.0
  0
LINE
  5
A3
330
1F
100
AcDbEntity
  8
0
  6
Continuous
 62
   144
370
    18
100
AcDbLine
 10
34.935031712
 20
23.5574014823
 30
0.0
 11
34.9330467605
 21
23.6133161479
 31
0.0
  0
LINE
  5
A4
330
1F
100
AcDbEntity
  8
0
  6
Continuous
 62
   144
370
    18
100
AcDbLine
 10
34.9717459506
 20
23.5304252494
 30
0.0
 11
34.935031712
 21
23.5574014823
 31
0.0
  0
LINE
  5
A5
330
1F
100
AcDbEntity
  8
0
  6
Continuous
 62
   144
370
    18
100
AcDbLine
 10
34.969572165
 20
23.584490979
 30
0.0
 11
34.9717459506
 21
23.5304252494
 31
0.0
  0
LINE
  5
A6
330
1F
100
AcDbEntity
  8
0
  6
Continuous
 62
   144
370
    18
100
AcDbLine
 10
34.969572165
 20
23.584490979
 30
0.0
 11
34.9330467605
 21
23.6133161479
 31
0.0
  0
LINE
  5
A7
330
1F
100
AcDbEntity
  8
0
  6
Continuous
 62
   144
370
    18
100
AcDbLine
 10
33.8537900825
 20
23.6133161479
 30
0.0
 11
33.8557830829
 21
23.6673733604
 31
0.0
  0
LINE
  5
A8
330
1F
100
AcDbEntity
  8
0
  6
Continuous
 62
   144
370
    18
100
AcDbLine
 10
33.8918734071
 20
23.6402209287
 30
0.0
 11
33.8537900825
 21
23.6133161479
 31
0.0
  0
LINE
  5
A9
330
1F
100
AcDbEntity
  8
0
  6
Continuous
 62
   144
370
    18
100
AcDbLine
 10
33.8918734071
 20
23.6402209287
 30
0.0
 11
33.8937077512
 21
23.6962152285
 31
0.0
  0
LINE
  5
AA
330
1F
100
AcDbEntity
  8
0
  6
Continuous
 62
   144
370
    18
100
AcDbLine
 10
33.8557830829
 20
23.6673733604
 30
0.0
 11
33.893719458
 21
23.6961920507
 31
0.0
  0
LINE
  5
AB
330
1F
100
AcDbEntity
  8
0
  6
Continuous
 62
   144
370
    18
100
AcDbLine
 10
33.7022477532
 20
23.6673733604
 30
0.0
 11
33.7346179553
 21
23.6961920507
 31
0.0
  0
LINE
  5
AC
330
1F
100
AcDbEntity
  8
0
  6
Continuous
 62
   144
370
    18
100
AcDbLine
 10
33.7346070468
 20
23.6961823391
 30
0.0
 11
33.6933242584
 21
23.7232161723
 31
0.0
  0
LINE
  5
AD
330
1F
100
AcDbEntity
  8
0
  6
Continuous
 62
   144
370
    18
100
AcDbLine
 10
33.6622838708
 20
23.6961823391
 30
0.0
 11
33.6933242584
 21
23.7232161723
 31
0.0
  0
LINE
  5
AE
330
1F
100
AcDbEntity
  8
0
  6
Continuous
 62
   144
370
    18
100
AcDbLine
 10
33.6622703988
 20
23.6961920507
 30
0.0
 11
33.7022477532
 21
23.6673733604
 31
0.0
  0
LINE
  5
AF
330
1F
100
AcDbEntity
  8
0
  6
Continuous
 62
   144
370
    18
100
AcDbLine
 10
34.0679520317
 20
23.6962392152
 30
0.0
 11
34.1115251239
 21
23.7232318778
 31
0.0
  0
LINE
  5
B0
330
1F
100
AcDbEntity
  8
0
  6
Continuous
 62
   144
370
    18
100
AcDbLine
 10
34.0679520317
 20
23.6962392152
 30
0.0
 11
34.0691854959
 21
23.7503032092
 31
0.0
  0
LINE
  5
B1
330
1F
100
AcDbEntity
  8
0
  6
Continuous
 62
   144
370
    18
100
AcDbLine
 10
34.5344216009
 20
23.4744316431
 30
0.0
 11
34.5326112883
 21
23.4187309249
 31
0.0
  0
LINE
  5
B2
330
1F
100
AcDbEntity
  8
0
  6
Continuous
 62
   144
370
    18
100
AcDbLine
 10
34.8922303717
 20
23.4744316431
 30
0.0
 11
34.8858262215
 21
23.4187309249
 31
0.0
  0
LINE
  5
B3
330
1F
100
AcDbEntity
  8
0
  6
Continuous
 62
   144
370
    18
100
AcDbLine
 10
33.8204431807
 20
23.4187309235
 30
0.0
 11
33.8129911871
 21
23.4744316448
 31
0.0
  0
LINE
  5
B4
330
1F
100
AcDbEntity
  8
0
  6
Continuous
 62
   144
370
    18
100
AcDbLine
 10
34.5346434853
 20
23.6962392152
 30
0.0
 11
34.5825478848
 21
23.7232161723
 31
0.0
  0
LINE
  5
B5
330
1F
100
AcDbEntity
  8
0
  6
Continuous
 62
   144
370
    18
100
AcDbLine
 10
34.5341569448
 20
23.7503032092
 30
0.0
 11
34.5346434853
 21
23.6962392152
 31
0.0
  0
LINE
  5
B6
330
1F
100
AcDbEntity
  8
0
  6
Continuous
 62
   144
370
    18
100
AcDbLine
 10
34.8090839298
 20
23.6402209287
 30
0.0
 11
34.8495320028
 21
23.6133161479
 31
0.0
  0
LINE
  5
B7
330
1F
100
AcDbEntity
  8
0
  6
Continuous
 62
   144
370
    18
100
AcDbLine
 10
34.8075509937
 20
23.6961920507
 30
0.0
 11
34.847847446
 21
23.6673733604
 31
0.0
  0
LINE
  5
B8
330
1F
100
AcDbEntity
  8
0
  6
Continuous
 62
   144
370
    18
100
AcDbLine
 10
34.8949634462
 20
23.6402209287
 30
0.0
 11
34.8495320028
 21
23.6133161479
 31
0.0
  0
LINE
  5
B9
330
1F
100
AcDbEntity
  8
0
  6
Continuous
 62
   144
370
    18
100
AcDbLine
 10
33.8172646876
 20
23.584490979
 30
0.0
 11
33.8098109507
 21
23.6402209287
 31
0.0
  0
LINE
  5
BA
330
1F
100
AcDbEntity
  8
0
  6
Continuous
 62
   144
370
    18
100
AcDbLine
 10
35.4293327094
 20
23.6402209287
 30
0.0
 11
35.43590032
 21
23.6133161479
 31
0.0
  0
LINE
  5
BB
330
1F
100
AcDbEntity
  8
0
  6
Continuous
 62
   144
370
    18
100
AcDbLine
 10
34.8537144412
 20
23.7232161723
 30
0.0
 11
34.8520453951
 21
23.7792214746
 31
0.0
  0
LINE
  5
BC
330
1F
100
AcDbEntity
  8
0
  6
Continuous
 62
   144
370
    18
100
AcDbLine
 10
34.8931680534
 20
23.6962392152
 30
0.0
 11
34.8537144412
 21
23.7232161723
 31
0.0
  0
LINE
  5
BD
330
1F
100
AcDbEntity
  8
0
  6
Continuous
 62
   144
370
    18
100
AcDbLine
 10
34.891294086
 20
23.7503032092
 30
0.0
 11
34.8931680534
 21
23.6962392152
 31
0.0
  0
LINE
  5
BE
330
1F
100
AcDbEntity
  8
0
  6
Continuous
 62
   144
370
    18
100
AcDbLine
 10
34.7188470647
 20
23.6961823391
 30
0.0
 11
34.765930745
 21
23.7232161723
 31
0.0
  0
LINE
  5
BF
330
1F
100
AcDbEntity
  8
0
  6
Continuous
 62
   144
370
    18
100
AcDbLine
 10
34.7188327932
 20
23.6961920507
 30
0.0
 11
34.7611826527
 21
23.6673733604
 31
0.0
  0
LINE
  5
C0
330
1F
100
AcDbEntity
  8
0
  6
Continuous
 62
   144
370
    18
100
AcDbLine
 10
34.7605263525
 20
23.4475779274
 30
0.0
 11
34.8068188481
 21
23.4744316448
 31
0.0
  0
LINE
  5
C1
330
1F
100
AcDbEntity
  8
0
  6
Continuous
 62
   144
370
    18
100
AcDbLine
 10
34.8068188481
 20
23.4744316448
 30
0.0
 11
34.8015112796
 21
23.4187309235
 31
0.0
  0
LINE
  5
C2
330
1F
100
AcDbEntity
  8
0
  6
Continuous
 62
   144
370
    18
100
AcDbLine
 10
34.8885577971
 20
23.584490979
 30
0.0
 11
34.8903698809
 21
23.5304252494
 31
0.0
  0
LINE
  5
C3
330
1F
100
AcDbEntity
  8
0
  6
Continuous
 62
   144
370
    18
100
AcDbLine
 10
34.8903698809
 20
23.5304252494
 30
0.0
 11
34.935031712
 21
23.5574014823
 31
0.0
  0
LINE
  5
C4
330
1F
100
AcDbEntity
  8
0
  6
Continuous
 62
   144
370
    18
100
AcDbLine
 10
34.9330467605
 20
23.6133161479
 30
0.0
 11
34.8885577971
 21
23.584490979
 31
0.0
  0
LINE
  5
C5
330
1F
100
AcDbEntity
  8
0
  6
Continuous
 62
   144
370
    18
100
AcDbLine
 10
33.740635197
 20
23.584490979
 30
0.0
 11
33.6996856012
 21
23.6133161479
 31
0.0
  0
LINE
  5
C6
330
1F
100
AcDbEntity
  8
0
  6
Continuous
 62
   144
370
    18
100
AcDbLine
 10
34.1591839954
 20
23.6961823391
 30
0.0
 11
34.111524838
 21
23.7232161723
 31
0.0
  0
LINE
  5
C7
330
1F
100
AcDbEntity
  8
0
  6
Continuous
 62
   144
370
    18
100
AcDbLine
 10
34.0679897784
 20
23.6961823391
 30
0.0
 11
34.111524838
 21
23.7232161723
 31
0.0
  0
LINE
  5
C8
330
1F
100
AcDbEntity
  8
0
  6
Continuous
 62
   144
370
    18
100
AcDbLine
 10
34.1151178916
 20
23.6673733604
 30
0.0
 11
34.0679738913
 21
23.6961920507
 31
0.0
  0
LINE
  5
C9
330
1F
100
AcDbEntity
  8
0
  6
Continuous
 62
   144
370
    18
100
AcDbLine
 10
33.7687058273
 20
23.7232161723
 30
0.0
 11
33.7709710526
 21
23.7792214746
 31
0.0
  0
LINE
  5
CA
330
1F
100
AcDbEntity
  8
0
  6
Continuous
 62
   144
370
    18
100
AcDbLine
 10
33.805796519
 20
23.700086113
 30
0.0
 11
33.7687058273
 21
23.7232161723
 31
0.0
  0
LINE
  5
CB
330
1F
100
AcDbEntity
  8
0
  6
Continuous
 62
   144
370
    18
100
AcDbLine
 10
35.47063184
 20
23.7503032092
 30
0.0
 11
35.4746211823
 21
23.6962392152
 31
0.0
  0
LINE
  5
CC
330
1F
100
AcDbEntity
  8
0
  6
Continuous
 62
   144
370
    18
100
AcDbLine
 10
35.4645973692
 20
23.6673733604
 30
0.0
 11
35.4663765459
 21
23.6961920486
 31
0.0
  0
LINE
  5
CD
330
1F
100
AcDbEntity
  8
0
  6
Continuous
 62
   144
370
    18
100
AcDbLine
 10
35.4746077987
 20
23.6961920507
 30
0.0
 11
35.4645973692
 21
23.6673733604
 31
0.0
  0
LINE
  5
CE
330
1F
100
AcDbEntity
  8
0
  6
Continuous
 62
   144
370
    18
100
AcDbLine
 10
34.5808293769
 20
23.6133161479
 30
0.0
 11
34.5801372151
 21
23.6673733604
 31
0.0
  0
LINE
  5
CF
330
1F
100
AcDbEntity
  8
0
  6
Continuous
 62
   144
370
    18
100
AcDbLine
 10
34.5346606401
 20
23.6961920507
 30
0.0
 11
34.5801372151
 21
23.6673733604
 31
0.0
  0
LINE
  5
D0
330
1F
100
AcDbEntity
  8
0
  6
Continuous
 62
   144
370
    18
100
AcDbLine
 10
34.5346756607
 20
23.6962152285
 30
0.0
 11
34.5351941895
 21
23.6402209287
 31
0.0
  0
LINE
  5
D1
330
1F
100
AcDbEntity
  8
0
  6
Continuous
 62
   144
370
    18
100
AcDbLine
 10
34.5351941895
 20
23.6402209287
 30
0.0
 11
34.5808293769
 21
23.6133161479
 31
0.0
  0
LINE
  5
D2
330
1F
100
AcDbEntity
  8
0
  6
Continuous
 62
   144
370
    18
100
AcDbLine
 10
34.7176513472
 20
23.7503032092
 30
0.0
 11
34.7188184925
 21
23.6962392152
 31
0.0
  0
LINE
  5
D3
330
1F
100
AcDbEntity
  8
0
  6
Continuous
 62
   144
370
    18
100
AcDbLine
 10
34.7188184925
 20
23.6962392152
 30
0.0
 11
34.765930745
 21
23.7232161723
 31
0.0
  0
LINE
  5
D4
330
1F
100
AcDbEntity
  8
0
  6
Continuous
 62
   144
370
    18
100
AcDbLine
 10
34.765930745
 20
23.7232161723
 30
0.0
 11
34.764580005
 21
23.7792214746
 31
0.0
  0
LINE
  5
D5
330
1F
100
AcDbEntity
  8
0
  6
Continuous
 62
   144
370
    18
100
AcDbLine
 10
34.7645803554
 20
23.7792070456
 30
0.0
 11
34.7176513472
 21
23.7503032092
 31
0.0
  0
LINE
  5
D6
330
1F
100
AcDbEntity
  8
0
  6
Continuous
 62
   144
370
    18
100
AcDbLine
 10
34.9280886641
 20
23.5017916667
 30
0.0
 11
34.9300943135
 21
23.4475779274
 31
0.0
  0
LINE
  5
D7
330
1F
100
AcDbEntity
  8
0
  6
Continuous
 62
   144
370
    18
100
AcDbLine
 10
34.9280886641
 20
23.5017916667
 30
0.0
 11
34.9717232019
 21
23.5303783134
 31
0.0
  0
LINE
  5
D8
330
1F
100
AcDbEntity
  8
0
  6
Continuous
 62
   144
370
    18
100
AcDbLine
 10
34.9717072409
 20
23.5304014284
 30
0.0
 11
34.9738456559
 21
23.4744316448
 31
0.0
  0
LINE
  5
D9
330
1F
100
AcDbEntity
  8
0
  6
Continuous
 62
   144
370
    18
100
AcDbLine
 10
34.9300943135
 20
23.4475779274
 30
0.0
 11
34.9738456559
 21
23.4744316448
 31
0.0
  0
LINE
  5
DA
330
1F
100
AcDbEntity
  8
0
  6
Continuous
 62
   144
370
    18
100
AcDbLine
 10
35.0067669262
 20
23.5017916667
 30
0.0
 11
35.0090677128
 21
23.4475779274
 31
0.0
  0
LINE
  5
DB
330
1F
100
AcDbEntity
  8
0
  6
Continuous
 62
   144
370
    18
100
AcDbLine
 10
34.9716966698
 20
23.5303783134
 30
0.0
 11
35.0067669262
 21
23.5017916667
 31
0.0
  0
LINE
  5
DC
330
1F
100
AcDbEntity
  8
0
  6
Continuous
 62
   144
370
    18
100
AcDbLine
 10
34.9738456559
 20
23.4744316448
 30
0.0
 11
35.0090677128
 21
23.4475779274
 31
0.0
  0
LINE
  5
DD
330
1F
100
AcDbEntity
  8
0
  6
Continuous
 62
   144
370
    18
100
AcDbLine
 10
33.8129911968
 20
23.4744316448
 30
0.0
 11
33.8567425295
 21
23.4475779274
 31
0.0
  0
LINE
  5
DE
330
1F
100
AcDbEntity
  8
0
  6
Continuous
 62
     7
370
    25
100
AcDbLine
 10
33.8129911968
 20
23.4744316448
 30
0.0
 11
33.8151296117
 21
23.5304014284
 31
0.0
  0
LINE
  5
DF
330
1F
100
AcDbEntity
  8
0
  6
Continuous
 62
   144
370
    18
100
AcDbLine
 10
33.8151136508
 20
23.5303783134
 30
0.0
 11
33.858748179
 21
23.5017916667
 31
0.0
  0
LINE
  5
E0
330
1F
100
AcDbEntity
  8
0
  6
Continuous
 62
   144
370
    18
100
AcDbLine
 10
33.858748179
 20
23.5017916667
 30
0.0
 11
33.8567425295
 21
23.4475779274
 31
0.0
  0
LINE
  5
E1
330
1F
100
AcDbEntity
  8
0
  6
Continuous
 62
   144
370
    18
100
AcDbLine
 10
33.7777691303
 20
23.4475779274
 30
0.0
 11
33.8129911968
 21
23.4744316448
 31
0.0
  0
LINE
  5
E2
330
1F
100
AcDbEntity
  8
0
  6
Continuous
 62
   144
370
    18
100
AcDbLine
 10
33.7800699168
 20
23.5017916667
 30
0.0
 11
33.8151401829
 21
23.5303783134
 31
0.0
  0
LINE
  5
E3
330
1F
100
AcDbEntity
  8
0
  6
Continuous
 62
   144
370
    18
100
AcDbLine
 10
33.7800699168
 20
23.5017916667
 30
0.0
 11
33.7777691303
 21
23.4475779274
 31
0.0
  0
LINE
  5
E4
330
1F
100
AcDbEntity
  8
0
  6
Continuous
 62
   144
370
    18
100
AcDbLine
 10
33.6996856012
 20
23.6133161479
 30
0.0
 11
33.6689737809
 21
23.584490979
 31
0.0
  0
LINE
  5
E5
330
1F
100
AcDbEntity
  8
0
  6
Continuous
 62
   144
370
    18
100
AcDbLine
 10
33.6596015952
 20
23.6402209287
 30
0.0
 11
33.6996856012
 21
23.6133161479
 31
0.0
  0
LINE
  5
E6
330
1F
100
AcDbEntity
  8
0
  6
Continuous
 62
   144
370
    18
100
AcDbLine
 10
33.6689737809
 20
23.584490979
 30
0.0
 11
33.6596015952
 21
23.6402209287
 31
0.0
  0
LINE
  5
E7
330
1F
100
AcDbEntity
  8
0
  6
Continuous
 62
   144
370
    18
100
AcDbLine
 10
34.7176513363
 20
23.7503032092
 30
0.0
 11
34.7188184816
 21
23.6962392152
 31
0.0
  0
LINE
  5
E8
330
1F
100
AcDbEntity
  8
0
  6
Continuous
 62
   144
370
    18
100
AcDbLine
 10
34.7188184816
 20
23.6962392152
 30
0.0
 11
34.7659303672
 21
23.7232318778
 31
0.0
  0
LINE
  5
E9
330
1F
100
AcDbEntity
  8
0
  6
Continuous
 62
   144
370
    18
100
AcDbLine
 10
34.7659303672
 20
23.7232318778
 30
0.0
 11
34.7645803554
 21
23.7792070456
 31
0.0
  0
LINE
  5
EA
330
1F
100
AcDbEntity
  8
0
  6
Continuous
 62
   144
370
    18
100
AcDbLine
 10
35.4825704874
 20
23.7232318778
 30
0.0
 11
35.4786233168
 21
23.7792070456
 31
0.0
  0
LINE
  5
EB
330
1F
100
AcDbEntity
  8
0
  6
Continuous
 62
     7
370
    25
100
AcDbLine
 10
34.6255095934
 20
23.584490979
 30
0.0
 11
34.6263394994
 21
23.5304252494
 31
0.0
  0
LINE
  5
EC
330
1F
100
AcDbEntity
  8
0
  6
Continuous
 62
   144
370
    18
100
AcDbLine
 10
34.6264073884
 20
23.5304252494
 30
0.0
 11
34.5815187433
 21
23.5574014823
 31
0.0
  0
LINE
  5
ED
330
1F
100
AcDbEntity
  8
0
  6
Continuous
 62
   144
370
    18
100
AcDbLine
 10
34.6255095934
 20
23.584490979
 30
0.0
 11
34.5808293769
 21
23.6133161479
 31
0.0
  0
LINE
  5
EE
330
1F
100
AcDbEntity
  8
0
  6
Continuous
 62
   144
370
    18
100
AcDbLine
 10
35.1245514043
 20
23.6962152285
 30
0.0
 11
35.1272352563
 21
23.6402209287
 31
0.0
  0
LINE
  5
EF
330
1F
100
AcDbEntity
  8
0
  6
Continuous
 62
   144
370
    18
100
AcDbLine
 10
35.3061609248
 20
23.6961920507
 30
0.0
 11
35.2742285949
 21
23.6673733604
 31
0.0
  0
LINE
  5
F0
330
1F
100
AcDbEntity
  8
0
  6
Continuous
 62
   144
370
    18
100
AcDbLine
 10
33.4501850639
 20
23.7232318778
 30
0.0
 11
33.4536034139
 21
23.7792070456
 31
0.0
  0
LINE
  5
F1
330
1F
100
AcDbEntity
  8
0
  6
Continuous
 62
   144
370
    18
100
AcDbLine
 10
33.4334514873
 20
23.6962392152
 30
0.0
 11
33.4501850639
 21
23.7232318778
 31
0.0
  0
LINE
  5
F2
330
1F
100
AcDbEntity
  8
0
  6
Continuous
 62
   144
370
    18
100
AcDbLine
 10
33.4334514873
 20
23.6962392152
 30
0.0
 11
33.4370081562
 21
23.7503032092
 31
0.0
  0
LINE
  5
F3
330
1F
100
AcDbEntity
  8
0
  6
Continuous
 62
   144
370
    18
100
AcDbLine
 10
33.4370081562
 20
23.7503032092
 30
0.0
 11
33.4536034139
 21
23.7792070456
 31
0.0
  0
LINE
  5
F4
330
1F
100
AcDbEntity
  8
0
  6
Continuous
 62
   144
370
    18
100
AcDbLine
 10
35.0807772359
 20
23.5017916667
 30
0.0
 11
35.1205626594
 21
23.5303783134
 31
0.0
  0
LINE
  5
F5
330
1F
100
AcDbEntity
  8
0
  6
Continuous
 62
   144
370
    18
100
AcDbLine
 10
35.0833556491
 20
23.4475779274
 30
0.0
 11
35.1232364759
 21
23.4744316448
 31
0.0
  0
LINE
  5
F6
330
1F
100
AcDbEntity
  8
0
  6
Continuous
 62
   144
370
    18
100
AcDbLine
 10
33.666274192
 20
23.5303783134
 30
0.0
 11
33.7060596072
 21
23.5017916667
 31
0.0
  0
LINE
  5
F7
330
1F
100
AcDbEntity
  8
0
  6
Continuous
 62
   144
370
    18
100
AcDbLine
 10
33.3368552276
 20
23.6961823391
 30
0.0
 11
33.320811935
 21
23.7232161723
 31
0.0
  0
LINE
  5
F8
330
1F
100
AcDbEntity
  8
0
  6
Continuous
 62
   144
370
    18
100
AcDbLine
 10
33.3204608951
 20
23.6961823391
 30
0.0
 11
33.320811935
 21
23.7232161723
 31
0.0
  0
LINE
  5
F9
330
1F
100
AcDbEntity
  8
0
  6
Continuous
 62
   144
370
    18
100
AcDbLine
 10
33.334483522
 20
23.6673733604
 30
0.0
 11
33.320456168
 21
23.6961920507
 31
0.0
  0
LINE
  5
FA
330
1F
100
AcDbEntity
  8
0
  6
Continuous
 62
   144
370
    18
100
AcDbLine
 10
33.537993379
 20
23.7503032092
 30
0.0
 11
33.5621032418
 21
23.7792070456
 31
0.0
  0
LINE
  5
FB
330
1F
100
AcDbEntity
  8
0
  6
Continuous
 62
   144
370
    18
100
AcDbLine
 10
33.5348054443
 20
23.6962392152
 30
0.0
 11
33.537993379
 21
23.7503032092
 31
0.0
  0
LINE
  5
FC
330
1F
100
AcDbEntity
  8
0
  6
Continuous
 62
   144
370
    18
100
AcDbLine
 10
33.5348054443
 20
23.6962392152
 30
0.0
 11
33.5590795338
 21
23.7232318778
 31
0.0
  0
LINE
  5
FD
330
1F
100
AcDbEntity
  8
0
  6
Continuous
 62
   144
370
    18
100
AcDbLine
 10
35.4694053113
 20
23.601480726
 30
0.0
 11
35.4726750996
 21
23.6133161479
 31
0.0
  0
LINE
  5
FE
330
1F
100
AcDbEntity
  8
0
  6
Continuous
 62
   144
370
    18
100
AcDbLine
 10
35.4647115305
 20
23.584490979
 30
0.0
 11
35.4686973999
 21
23.5304252494
 31
0.0
  0
LINE
  5
FF
330
1F
100
AcDbEntity
  8
0
  6
Continuous
 62
   144
370
    18
100
AcDbLine
 10
35.4686973999
 20
23.5304252494
 30
0.0
 11
35.4766450024
 21
23.5574014823
 31
0.0
  0
LINE
  5
100
330
1F
100
AcDbEntity
  8
0
  6
Continuous
 62
   144
370
    18
100
AcDbLine
 10
35.4766450024
 20
23.5574014823
 30
0.0
 11
35.4726750996
 21
23.6133161479
 31
0.0
  0
LINE
  5
101
330
1F
100
AcDbEntity
  8
0
  6
Continuous
 62
     7
370
    25
100
AcDbLine
 10
34.6267922037
 20
23.7503032092
 30
0.0
 11
34.627622205
 21
23.6962392152
 31
0.0
  0
LINE
  5
102
330
1F
100
AcDbEntity
  8
0
  6
Continuous
 62
   144
370
    18
100
AcDbLine
 10
34.582547693
 20
23.7232318778
 30
0.0
 11
34.581862274
 21
23.7792070456
 31
0.0
  0
LINE
  5
103
330
1F
100
AcDbEntity
  8
0
  6
Continuous
 62
   144
370
    18
100
AcDbLine
 10
34.6276900939
 20
23.6962392152
 30
0.0
 11
34.582547693
 21
23.7232318778
 31
0.0
  0
LINE
  5
104
330
1F
100
AcDbEntity
  8
0
  6
Continuous
 62
   144
370
    18
100
AcDbLine
 10
34.6267922037
 20
23.7503032092
 30
0.0
 11
34.581862274
 21
23.7792070456
 31
0.0
  0
LINE
  5
105
330
1F
100
AcDbEntity
  8
0
  6
Continuous
 62
   144
370
    18
100
AcDbLine
 10
34.627622205
 20
23.6962392152
 30
0.0
 11
34.6753120051
 21
23.7232161723
 31
0.0
  0
LINE
  5
106
330
1F
100
AcDbEntity
  8
0
  6
Continuous
 62
   144
370
    18
100
AcDbLine
 10
34.6753120051
 20
23.7232161723
 30
0.0
 11
34.6742898511
 21
23.7792214746
 31
0.0
  0
LINE
  5
107
330
1F
100
AcDbEntity
  8
0
  6
Continuous
 62
   144
370
    18
100
AcDbLine
 10
34.6742901163
 20
23.7792070456
 30
0.0
 11
34.6267922037
 21
23.7503032092
 31
0.0
  0
LINE
  5
108
330
1F
100
AcDbEntity
  8
0
  6
Continuous
 62
   144
370
    18
100
AcDbLine
 10
34.2049745691
 20
23.7792070456
 30
0.0
 11
34.1600446505
 21
23.7503032092
 31
0.0
  0
LINE
  5
109
330
1F
100
AcDbEntity
  8
0
  6
Continuous
 62
   144
370
    18
100
AcDbLine
 10
34.2042889583
 20
23.7232161723
 30
0.0
 11
34.204974747
 21
23.7792214746
 31
0.0
  0
LINE
  5
10A
330
1F
100
AcDbEntity
  8
0
  6
Continuous
 62
   144
370
    18
100
AcDbLine
 10
34.1591467603
 20
23.6962392152
 30
0.0
 11
34.2042889583
 21
23.7232161723
 31
0.0
  0
LINE
  5
10B
330
1F
100
AcDbEntity
  8
0
  6
Continuous
 62
     7
370
    25
100
AcDbLine
 10
34.1592146492
 20
23.6962392152
 30
0.0
 11
34.1600446505
 21
23.7503032092
 31
0.0
  0
LINE
  5
10C
330
1F
100
AcDbEntity
  8
0
  6
Continuous
 62
   144
370
    18
100
AcDbLine
 10
34.1115251239
 20
23.7232318778
 30
0.0
 11
34.1125467268
 21
23.7792070456
 31
0.0
  0
LINE
  5
10D
330
1F
100
AcDbEntity
  8
0
  6
Continuous
 62
   144
370
    18
100
AcDbLine
 10
34.1592146492
 20
23.6962392152
 30
0.0
 11
34.1115251239
 21
23.7232318778
 31
0.0
  0
LINE
  5
10E
330
1F
100
AcDbEntity
  8
0
  6
Continuous
 62
   144
370
    18
100
AcDbLine
 10
34.1600446505
 20
23.7503032092
 30
0.0
 11
34.1125467268
 21
23.7792070456
 31
0.0
  0
LINE
  5
10F
330
1F
100
AcDbEntity
  8
0
  6
Continuous
 62
   144
370
    18
100
AcDbLine
 10
34.0242908978
 20
23.6133161479
 30
0.0
 11
34.0256541904
 21
23.6673733604
 31
0.0
  0
LINE
  5
110
330
1F
100
AcDbEntity
  8
0
  6
Continuous
 62
   144
370
    18
100
AcDbLine
 10
33.9792566449
 20
23.6961920507
 30
0.0
 11
34.0256541904
 21
23.6673733604
 31
0.0
  0
LINE
  5
111
330
1F
100
AcDbEntity
  8
0
  6
Continuous
 62
   144
370
    18
100
AcDbLine
 10
33.9777529239
 20
23.6402209287
 30
0.0
 11
33.9792731734
 21
23.6962152285
 31
0.0
  0
LINE
  5
112
330
1F
100
AcDbEntity
  8
0
  6
Continuous
 62
   144
370
    18
100
AcDbLine
 10
33.9777529239
 20
23.6402209287
 30
0.0
 11
34.0242908978
 21
23.6133161479
 31
0.0
  0
LINE
  5
113
330
1F
100
AcDbEntity
  8
0
  6
Continuous
 62
   144
370
    18
100
AcDbLine
 10
33.8150909021
 20
23.5304252494
 30
0.0
 11
33.8172646876
 21
23.584490979
 31
0.0
  0
LINE
  5
114
330
1F
100
AcDbEntity
  8
0
  6
Continuous
 62
   144
370
    18
100
AcDbLine
 10
33.8150909021
 20
23.5304252494
 30
0.0
 11
33.8518051311
 21
23.5574014823
 31
0.0
  0
LINE
  5
115
330
1F
100
AcDbEntity
  8
0
  6
Continuous
 62
   144
370
    18
100
AcDbLine
 10
33.8518051311
 20
23.5574014823
 30
0.0
 11
33.8537900825
 21
23.6133161479
 31
0.0
  0
LINE
  5
116
330
1F
100
AcDbEntity
  8
0
  6
Continuous
 62
   144
370
    18
100
AcDbLine
 10
33.8537900825
 20
23.6133161479
 30
0.0
 11
33.8172646876
 21
23.584490979
 31
0.0
  0
LINE
  5
117
330
1F
100
AcDbEntity
  8
0
  6
Continuous
 62
   144
370
    18
100
AcDbLine
 10
33.7034811939
 20
23.4475779274
 30
0.0
 11
33.7357933242
 21
23.4744316448
 31
0.0
  0
LINE
  5
118
330
1F
100
AcDbEntity
  8
0
  6
Continuous
 62
   144
370
    18
100
AcDbLine
 10
33.7442364462
 20
23.4187309235
 30
0.0
 11
33.7357933242
 21
23.4744316448
 31
0.0
  0
LINE
  5
119
330
1F
100
AcDbEntity
  8
0
  6
Continuous
 62
   144
370
    18
100
AcDbLine
 10
33.7034811939
 20
23.4475779274
 30
0.0
 11
33.7442364462
 21
23.4187309235
 31
0.0
  0
LINE
  5
11A
330
1F
100
AcDbEntity
  8
0
  6
Continuous
 62
     7
370
    25
100
AcDbLine
 10
34.718846363
 20
23.6962152285
 30
0.0
 11
34.7200409479
 21
23.6402209287
 31
0.0
  0
LINE
  5
11B
330
1F
100
AcDbEntity
  8
0
  6
Continuous
 62
   144
370
    18
100
AcDbLine
 10
33.3082145507
 20
23.7792214746
 30
0.0
 11
33.304265251
 21
23.7232161723
 31
0.0
  0
LINE
  5
11C
330
1F
100
AcDbEntity
  8
0
  6
Continuous
 62
   144
370
    18
100
AcDbLine
 10
34.3461969136
 20
23.6961920507
 30
0.0
 11
34.3934184215
 21
23.6673733604
 31
0.0
  0
LINE
  5
11D
330
1F
100
AcDbEntity
  8
0
  6
Continuous
 62
   144
370
    18
100
AcDbLine
 10
34.4407972084
 20
23.6402209287
 30
0.0
 11
34.3934184215
 21
23.6133161479
 31
0.0
  0
LINE
  5
11E
330
1F
100
AcDbEntity
  8
0
  6
Continuous
 62
     7
370
    25
100
AcDbLine
 10
31.8489929558
 20
15.4302572339
 30
0.0
 11
32.4789142157
 21
15.4302572339
 31
0.0
  0
LINE
  5
11F
330
1F
100
AcDbEntity
  8
0
  6
Continuous
 62
   144
370
    18
100
AcDbLine
 10
33.3222460627
 20
23.7207995879
 30
0.0
 11
33.3244032466
 21
23.7503032092
 31
0.0
  0
LINE
  5
120
330
1F
100
AcDbEntity
  8
0
  6
Continuous
 62
   144
370
    18
100
AcDbLine
 10
33.3084098076
 20
23.7232161723
 30
0.0
 11
33.312344079
 21
23.7792214746
 31
0.0
  0
LINE
  5
121
330
1F
100
AcDbEntity
  8
0
  6
Continuous
 62
   144
370
    18
100
AcDbLine
 10
33.3123430585
 20
23.7792070456
 30
0.0
 11
33.3244032466
 21
23.7503032092
 31
0.0
  0
LINE
  5
122
330
1F
100
AcDbEntity
  8
0
  6
Continuous
 62
   144
370
    18
100
AcDbLine
 10
34.5825478848
 20
23.7232161723
 30
0.0
 11
34.5818620961
 21
23.7792214746
 31
0.0
  0
LINE
  5
123
330
1F
100
AcDbEntity
  8
0
  6
Continuous
 62
   144
370
    18
100
AcDbLine
 10
34.6276900827
 20
23.6962392152
 30
0.0
 11
34.5825478848
 21
23.7232161723
 31
0.0
  0
LINE
  5
124
330
1F
100
AcDbEntity
  8
0
  6
Continuous
 62
   144
370
    18
100
AcDbLine
 10
34.7197470324
 20
23.7792214746
 30
0.0
 11
34.7176513472
 21
23.7503032092
 31
0.0
  0
LINE
  5
125
330
1F
100
AcDbEntity
  8
0
  6
Continuous
 62
   144
370
    18
100
AcDbLine
 10
34.0691855068
 20
23.7503032092
 30
0.0
 11
34.0670898216
 21
23.7792214746
 31
0.0
  0
LINE
  5
126
330
1F
100
AcDbEntity
  8
0
  6
Continuous
 62
   144
370
    18
100
AcDbLine
 10
33.895542757
 20
23.7503032092
 30
0.0
 11
33.8923247289
 21
23.7792214746
 31
0.0
  0
LINE
  5
127
330
1F
100
AcDbEntity
  8
0
  6
Continuous
 62
   144
370
    18
100
AcDbLine
 10
34.8945121244
 20
23.7792214746
 30
0.0
 11
34.8912940962
 21
23.7503032092
 31
0.0
  0
LINE
  5
128
330
1F
100
AcDbEntity
  8
0
  6
Continuous
 62
     7
370
    25
100
AcDbLine
 10
34.0691854959
 20
23.7503032092
 30
0.0
 11
34.0670898105
 21
23.7792214746
 31
0.0
  0
LINE
  5
129
330
1F
100
AcDbEntity
  8
0
  6
Continuous
 62
   144
370
    18
100
AcDbLine
 10
34.0691854959
 20
23.7503032092
 30
0.0
 11
34.1125467268
 21
23.7792070456
 31
0.0
  0
LINE
  5
12A
330
1F
100
AcDbEntity
  8
0
  6
Continuous
 62
     7
370
    25
100
AcDbLine
 10
34.7197470214
 20
23.7792214746
 30
0.0
 11
34.7176513363
 21
23.7503032092
 31
0.0
  0
LINE
  5
12B
330
1F
100
AcDbEntity
  8
0
  6
Continuous
 62
   144
370
    18
100
AcDbLine
 10
34.6742901163
 20
23.7792070456
 30
0.0
 11
34.7176513363
 21
23.7503032092
 31
0.0
  0
LINE
  5
12C
330
1F
100
AcDbEntity
  8
0
  6
Continuous
 62
   144
370
    18
100
AcDbLine
 10
33.9800180055
 20
23.4744316448
 30
0.0
 11
34.0263104905
 21
23.4475779274
 31
0.0
  0
LINE
  5
12D
330
1F
100
AcDbEntity
  8
0
  6
Continuous
 62
   144
370
    18
100
AcDbLine
 10
33.9853255635
 20
23.4187309235
 30
0.0
 11
33.980017995
 21
23.4744316448
 31
0.0
  0
LINE
  5
12E
330
1F
100
AcDbEntity
  8
0
  6
Continuous
 62
   144
370
    18
100
AcDbLine
 10
35.1635660142
 20
23.7232161723
 30
0.0
 11
35.1607734376
 21
23.7792214746
 31
0.0
  0
LINE
  5
12F
330
1F
100
AcDbEntity
  8
0
  6
Continuous
 62
   144
370
    18
100
AcDbLine
 10
35.1245376528
 20
23.6962392152
 30
0.0
 11
35.1635660142
 21
23.7232161723
 31
0.0
  0
LINE
  5
130
330
1F
100
AcDbEntity
  8
0
  6
Continuous
 62
   144
370
    18
100
AcDbLine
 10
33.361290644
 20
23.6961823391
 30
0.0
 11
33.3413772453
 21
23.7232161723
 31
0.0
  0
LINE
  5
131
330
1F
100
AcDbEntity
  8
0
  6
Continuous
 62
   144
370
    18
100
AcDbLine
 10
33.3368552276
 20
23.6961823391
 30
0.0
 11
33.3413772453
 21
23.7232161723
 31
0.0
  0
LINE
  5
132
330
1F
100
AcDbEntity
  8
0
  6
Continuous
 62
   144
370
    18
100
AcDbLine
 10
33.3547867042
 20
23.6673733604
 30
0.0
 11
33.3368491828
 21
23.6961920507
 31
0.0
  0
LINE
  5
133
330
1F
100
AcDbEntity
  8
0
  6
Continuous
 62
   144
370
    18
100
AcDbLine
 10
33.3122156602
 20
23.6962392152
 30
0.0
 11
33.3162050025
 21
23.7503032092
 31
0.0
  0
LINE
  5
134
330
1F
100
AcDbEntity
  8
0
  6
Continuous
 62
     7
370
    25
100
AcDbLine
 10
33.3122324173
 20
23.6961823391
 30
0.0
 11
33.3084098076
 21
23.7232161723
 31
0.0
  0
LINE
  5
135
330
1F
100
AcDbEntity
  8
0
  6
Continuous
 62
   144
370
    18
100
AcDbLine
 10
33.3222394739
 20
23.6673733604
 30
0.0
 11
33.3122290439
 21
23.6961920507
 31
0.0
  0
LINE
  5
136
330
1F
100
AcDbEntity
  8
0
  6
Continuous
 62
   144
370
    18
100
AcDbLine
 10
33.3204602957
 20
23.6961920486
 30
0.0
 11
33.3222394739
 21
23.6673733604
 31
0.0
  0
LINE
  5
137
330
1F
100
AcDbEntity
  8
0
  6
Continuous
 62
   144
370
    18
100
AcDbLine
 10
35.2247336012
 20
23.7792070456
 30
0.0
 11
35.2488434571
 21
23.7503032092
 31
0.0
  0
LINE
  5
138
330
1F
100
AcDbEntity
  8
0
  6
Continuous
 62
   144
370
    18
100
AcDbLine
 10
35.2520313918
 20
23.6962392152
 30
0.0
 11
35.2277581555
 21
23.7232161723
 31
0.0
  0
LINE
  5
139
330
1F
100
AcDbEntity
  8
0
  6
Continuous
 62
   144
370
    18
100
AcDbLine
 10
35.2488434571
 20
23.7503032092
 30
0.0
 11
35.2520313918
 21
23.6962392152
 31
0.0
  0
LINE
  5
13A
330
1F
100
AcDbEntity
  8
0
  6
Continuous
 62
   144
370
    18
100
AcDbLine
 10
34.5808293769
 20
23.6133161479
 30
0.0
 11
34.5333834532
 21
23.584490979
 31
0.0
  0
LINE
  5
13B
330
1F
100
AcDbEntity
  8
0
  6
Continuous
 62
   144
370
    18
100
AcDbLine
 10
34.5815187433
 20
23.5574014823
 30
0.0
 11
34.5808293769
 21
23.6133161479
 31
0.0
  0
LINE
  5
13C
330
1F
100
AcDbEntity
  8
0
  6
Continuous
 62
   144
370
    18
100
AcDbLine
 10
34.5338699361
 20
23.5304252494
 30
0.0
 11
34.5815187433
 21
23.5574014823
 31
0.0
  0
LINE
  5
13D
330
1F
100
AcDbEntity
  8
0
  6
Continuous
 62
   144
370
    18
100
AcDbLine
 10
34.5333834532
 20
23.584490979
 30
0.0
 11
34.5338699361
 21
23.5304252494
 31
0.0
  0
LINE
  5
13E
330
1F
100
AcDbEntity
  8
0
  6
Continuous
 62
   144
370
    18
100
AcDbLine
 10
34.2060074661
 20
23.6133161479
 30
0.0
 11
34.2066996279
 21
23.6673733604
 31
0.0
  0
LINE
  5
13F
330
1F
100
AcDbEntity
  8
0
  6
Continuous
 62
   144
370
    18
100
AcDbLine
 10
34.251642665
 20
23.6402209287
 30
0.0
 11
34.2060074661
 21
23.6133161479
 31
0.0
  0
LINE
  5
140
330
1F
100
AcDbEntity
  8
0
  6
Continuous
 62
   144
370
    18
100
AcDbLine
 10
34.251642665
 20
23.6402209287
 30
0.0
 11
34.2521611937
 21
23.6962152285
 31
0.0
  0
LINE
  5
141
330
1F
100
AcDbEntity
  8
0
  6
Continuous
 62
   144
370
    18
100
AcDbLine
 10
34.2066996279
 20
23.6673733604
 30
0.0
 11
34.2521762144
 21
23.6961920507
 31
0.0
  0
LINE
  5
142
330
1F
100
AcDbEntity
  8
0
  6
Continuous
 62
   144
370
    18
100
AcDbLine
 10
34.0691855068
 20
23.7503032092
 30
0.0
 11
34.0222564877
 21
23.7792070456
 31
0.0
  0
LINE
  5
143
330
1F
100
AcDbEntity
  8
0
  6
Continuous
 62
   144
370
    18
100
AcDbLine
 10
34.0680183614
 20
23.6962392152
 30
0.0
 11
34.0691855068
 21
23.7503032092
 31
0.0
  0
LINE
  5
144
330
1F
100
AcDbEntity
  8
0
  6
Continuous
 62
   144
370
    18
100
AcDbLine
 10
34.0680183614
 20
23.6962392152
 30
0.0
 11
34.0209064759
 21
23.7232318778
 31
0.0
  0
LINE
  5
145
330
1F
100
AcDbEntity
  8
0
  6
Continuous
 62
   144
370
    18
100
AcDbLine
 10
34.0209064759
 20
23.7232318778
 30
0.0
 11
34.0222564877
 21
23.7792070456
 31
0.0
  0
LINE
  5
146
330
1F
100
AcDbEntity
  8
0
  6
Continuous
 62
   144
370
    18
100
AcDbLine
 10
34.977025902
 20
23.6402209287
 30
0.0
 11
35.0124546208
 21
23.6133161479
 31
0.0
  0
LINE
  5
147
330
1F
100
AcDbEntity
  8
0
  6
Continuous
 62
   144
370
    18
100
AcDbLine
 10
34.9748914238
 20
23.6962152285
 30
0.0
 11
34.977025902
 21
23.6402209287
 31
0.0
  0
LINE
  5
148
330
1F
100
AcDbEntity
  8
0
  6
Continuous
 62
   144
370
    18
100
AcDbLine
 10
34.9748807859
 20
23.6961920507
 30
0.0
 11
35.0101683447
 21
23.6673733604
 31
0.0
  0
LINE
  5
149
330
1F
100
AcDbEntity
  8
0
  6
Continuous
 62
   144
370
    18
100
AcDbLine
 10
35.0124546208
 20
23.6133161479
 30
0.0
 11
35.0101683447
 21
23.6673733604
 31
0.0
  0
LINE
  5
14A
330
1F
100
AcDbEntity
  8
0
  6
Continuous
 62
   144
370
    18
100
AcDbLine
 10
35.1565681372
 20
23.6133161479
 30
0.0
 11
35.153749609
 21
23.6673733604
 31
0.0
  0
LINE
  5
14B
330
1F
100
AcDbEntity
  8
0
  6
Continuous
 62
   144
370
    18
100
AcDbLine
 10
35.1942389708
 20
23.6402209287
 30
0.0
 11
35.1565681372
 21
23.6133161479
 31
0.0
  0
LINE
  5
14C
330
1F
100
AcDbEntity
  8
0
  6
Continuous
 62
   144
370
    18
100
AcDbLine
 10
35.1913100603
 20
23.6962152285
 30
0.0
 11
35.1942389708
 21
23.6402209287
 31
0.0
  0
LINE
  5
14D
330
1F
100
AcDbEntity
  8
0
  6
Continuous
 62
   144
370
    18
100
AcDbLine
 10
35.153749609
 20
23.6673733604
 30
0.0
 11
35.1913244431
 21
23.6961920507
 31
0.0
  0
LINE
  5
14E
330
1F
100
AcDbEntity
  8
0
  6
Continuous
 62
   144
370
    18
100
AcDbLine
 10
34.6753117192
 20
23.7232318778
 30
0.0
 11
34.6742901163
 21
23.7792070456
 31
0.0
  0
LINE
  5
14F
330
1F
100
AcDbEntity
  8
0
  6
Continuous
 62
   144
370
    18
100
AcDbLine
 10
34.7188848114
 20
23.6962392152
 30
0.0
 11
34.6753117192
 21
23.7232318778
 31
0.0
  0
LINE
  5
150
330
1F
100
AcDbEntity
  8
0
  6
Continuous
 62
   144
370
    18
100
AcDbLine
 10
34.7176513472
 20
23.7503032092
 30
0.0
 11
34.6742901163
 21
23.7792070456
 31
0.0
  0
LINE
  5
151
330
1F
100
AcDbEntity
  8
0
  6
Continuous
 62
   144
370
    18
100
AcDbLine
 10
35.1565681372
 20
23.6133161479
 30
0.0
 11
35.1178630706
 21
23.584490979
 31
0.0
  0
LINE
  5
152
330
1F
100
AcDbEntity
  8
0
  6
Continuous
 62
     7
370
    25
100
AcDbLine
 10
35.1593752824
 20
23.5574014823
 30
0.0
 11
35.1565681372
 21
23.6133161479
 31
0.0
  0
LINE
  5
153
330
1F
100
AcDbEntity
  8
0
  6
Continuous
 62
   144
370
    18
100
AcDbLine
 10
35.1178630706
 20
23.584490979
 30
0.0
 11
35.1205338417
 21
23.5304252494
 31
0.0
  0
LINE
  5
154
330
1F
100
AcDbEntity
  8
0
  6
Continuous
 62
   144
370
    18
100
AcDbLine
 10
35.1840110248
 20
23.584490979
 30
0.0
 11
35.1869771242
 21
23.5304252494
 31
0.0
  0
LINE
  5
155
330
1F
100
AcDbEntity
  8
0
  6
Continuous
 62
   144
370
    18
100
AcDbLine
 10
35.1840110248
 20
23.584490979
 30
0.0
 11
35.1565681372
 21
23.6133161479
 31
0.0
  0
LINE
  5
156
330
1F
100
AcDbEntity
  8
0
  6
Continuous
 62
     7
370
    25
100
AcDbLine
 10
34.3935188918
 20
23.0286824308
 30
0.0
 11
34.3935188918
 21
23.1356829171
 31
0.0
  0
LINE
  5
157
330
1F
100
AcDbEntity
  8
0
  6
Continuous
 62
     7
370
    25
100
AcDbLine
 10
34.3935188918
 20
23.1356829171
 30
0.0
 11
34.3935188918
 21
23.146792667
 31
0.0
  0
LINE
  5
158
330
1F
100
AcDbEntity
  8
0
  6
Continuous
 62
     7
370
    25
100
AcDbLine
 10
34.3935188918
 20
23.146792667
 30
0.0
 11
35.3089984002
 21
23.146792667
 31
0.0
  0
ARC
  5
159
330
1F
100
AcDbEntity
  8
0
  6
Continuous
 62
   144
370
    18
100
AcDbCircle
 10
35.3089984002
 20
23.1349816434
 30
0.0
 40
0.0118110236220446
100
AcDbArc
 50
3.403910673
 51
90.0
  0
LINE
  5
15A
330
1F
100
AcDbEntity
  8
0
  6
Continuous
 62
   144
370
    18
100
AcDbLine
 10
35.3271529158
 20
23.0286824308
 30
0.0
 11
35.3207885866
 21
23.1356829171
 31
0.0
  0
LINE
  5
15B
330
1F
100
AcDbEntity
  8
0
  6
Continuous
 62
   144
370
    18
100
AcDbLine
 10
34.3935188918
 20
23.1356829171
 30
0.0
 11
33.4660523467
 21
23.1356829171
 31
0.0
  0
LINE
  5
15C
330
1F
100
AcDbEntity
  8
0
  6
Continuous
 62
   144
370
    18
100
AcDbLine
 10
34.3935188918
 20
23.1356829171
 30
0.0
 11
34.3935188918
 21
23.0286824308
 31
0.0
  0
LINE
  5
15D
330
1F
100
AcDbEntity
  8
0
  6
Continuous
 62
   144
370
    18
100
AcDbLine
 10
33.4596880175
 20
23.0286824308
 30
0.0
 11
33.4660523467
 21
23.1356829171
 31
0.0
  0
LINE
  5
15E
330
1F
100
AcDbEntity
  8
0
  6
Continuous
 62
   144
370
    18
100
AcDbLine
 10
34.3935188918
 20
23.146792667
 30
0.0
 11
34.3935188918
 21
23.1356829171
 31
0.0
  0
LINE
  5
15F
330
1F
100
AcDbEntity
  8
0
  6
Continuous
 62
   144
370
    18
100
AcDbLine
 10
33.4778425331
 20
23.146792667
 30
0.0
 11
34.3935188918
 21
23.146792667
 31
0.0
  0
ARC
  5
160
330
1F
100
AcDbEntity
  8
0
  6
Continuous
 62
   144
370
    18
100
AcDbCircle
 10
33.4778425331
 20
23.1349816434
 30
0.0
 40
0.0118110236220446
100
AcDbArc
 50
90.0
 51
176.596089327
  0
LINE
  5
161
330
1F
100
AcDbEntity
  8
0
  6
Continuous
 62
   144
370
    18
100
AcDbLine
 10
34.4404505694
 20
23.7503032092
 30
0.0
 11
34.4406594171
 21
23.6962392152
 31
0.0
  0
LINE
  5
162
330
1F
100
AcDbEntity
  8
0
  6
Continuous
 62
   144
370
    18
100
AcDbLine
 10
34.4406594171
 20
23.6962392152
 30
0.0
 11
34.3934184215
 21
23.7232161723
 31
0.0
  0
LINE
  5
163
330
1F
100
AcDbEntity
  8
0
  6
Continuous
 62
   144
370
    18
100
AcDbLine
 10
34.4401920945
 20
23.584490979
 30
0.0
 11
34.3934184215
 21
23.6133161479
 31
0.0
  0
LINE
  5
164
330
1F
100
AcDbEntity
  8
0
  6
Continuous
 62
   144
370
    18
100
AcDbLine
 10
34.4404009231
 20
23.5304252494
 30
0.0
 11
34.4401920945
 21
23.584490979
 31
0.0
  0
LINE
  5
165
330
1F
100
AcDbEntity
  8
0
  6
Continuous
 62
   144
370
    18
100
AcDbLine
 10
33.8964669723
 20
23.5304252494
 30
0.0
 11
33.8518051311
 21
23.5574014823
 31
0.0
  0
LINE
  5
166
330
1F
100
AcDbEntity
  8
0
  6
Continuous
 62
   144
370
    18
100
AcDbLine
 10
33.8964669723
 20
23.5304252494
 30
0.0
 11
33.8982790561
 21
23.584490979
 31
0.0
  0
LINE
  5
167
330
1F
100
AcDbEntity
  8
0
  6
Continuous
 62
   144
370
    18
100
AcDbLine
 10
33.8982790561
 20
23.584490979
 30
0.0
 11
33.8537900825
 21
23.6133161479
 31
0.0
  0
LINE
  5
168
330
1F
100
AcDbEntity
  8
0
  6
Continuous
 62
   144
370
    18
100
AcDbLine
 10
33.3223928976
 20
23.4744316448
 30
0.0
 11
33.3241510651
 21
23.4475779274
 31
0.0
  0
LINE
  5
169
330
1F
100
AcDbEntity
  8
0
  6
Continuous
 62
   144
370
    18
100
AcDbLine
 10
33.3361435896
 20
23.4187309235
 30
0.0
 11
33.3223928991
 21
23.4744316448
 31
0.0
  0
LINE
  5
16A
330
1F
100
AcDbEntity
  8
0
  6
Continuous
 62
   144
370
    18
100
AcDbLine
 10
33.3234250194
 20
23.4372642491
 30
0.0
 11
33.3141792362
 21
23.4744316448
 31
0.0
  0
LINE
  5
16B
330
1F
100
AcDbEntity
  8
0
  6
Continuous
 62
   144
370
    18
100
AcDbLine
 10
35.1218665758
 20
23.7503032092
 30
0.0
 11
35.1245889125
 21
23.6962392152
 31
0.0
  0
LINE
  5
16C
330
1F
100
AcDbEntity
  8
0
  6
Continuous
 62
   144
370
    18
100
AcDbLine
 10
35.0935125846
 20
23.7232161723
 30
0.0
 11
35.0909740237
 21
23.7792214746
 31
0.0
  0
LINE
  5
16D
330
1F
100
AcDbEntity
  8
0
  6
Continuous
 62
   144
370
    18
100
AcDbLine
 10
35.0909746822
 20
23.7792070456
 30
0.0
 11
35.1218665758
 21
23.7503032092
 31
0.0
  0
LINE
  5
16E
330
1F
100
AcDbEntity
  8
0
  6
Continuous
 62
   144
370
    18
100
AcDbLine
 10
34.3464554957
 20
23.5303783134
 30
0.0
 11
34.3934184215
 21
23.5017916667
 31
0.0
  0
LINE
  5
16F
330
1F
100
AcDbEntity
  8
0
  6
Continuous
 62
   144
370
    18
100
AcDbLine
 10
34.3934184215
 20
23.5017916667
 30
0.0
 11
34.4403813588
 21
23.5303783134
 31
0.0
  0
LINE
  5
170
330
1F
100
AcDbEntity
  8
0
  6
Continuous
 62
   144
370
    18
100
AcDbLine
 10
34.4403655271
 20
23.5303686765
 30
0.0
 11
34.3934184215
 21
23.5574014823
 31
0.0
  0
LINE
  5
171
330
1F
100
AcDbEntity
  8
0
  6
Continuous
 62
   144
370
    18
100
AcDbLine
 10
34.3464713273
 20
23.5303686765
 30
0.0
 11
34.3934184215
 21
23.5574014823
 31
0.0
  0
LINE
  5
172
330
1F
100
AcDbEntity
  8
0
  6
Continuous
 62
   144
370
    18
100
AcDbLine
 10
34.1626076412
 20
23.4187309235
 30
0.0
 11
34.2070328402
 21
23.4475779274
 31
0.0
  0
LINE
  5
173
330
1F
100
AcDbEntity
  8
0
  6
Continuous
 62
   144
370
    18
100
AcDbLine
 10
34.1626076412
 20
23.4187309235
 30
0.0
 11
34.1596057655
 21
23.4744316448
 31
0.0
  0
LINE
  5
174
330
1F
100
AcDbEntity
  8
0
  6
Continuous
 62
     7
370
    25
100
AcDbLine
 10
34.1596057767
 20
23.4744316448
 30
0.0
 11
34.2070328402
 21
23.4475779274
 31
0.0
  0
LINE
  5
175
330
1F
100
AcDbEntity
  8
0
  6
Continuous
 62
   144
370
    18
100
AcDbLine
 10
34.207729395
 20
23.5017916667
 30
0.0
 11
34.2070328402
 21
23.4475779274
 31
0.0
  0
LINE
  5
176
330
1F
100
AcDbEntity
  8
0
  6
Continuous
 62
   144
370
    18
100
AcDbLine
 10
34.1604507491
 20
23.5303783134
 30
0.0
 11
34.207729395
 21
23.5017916667
 31
0.0
  0
LINE
  5
177
330
1F
100
AcDbEntity
  8
0
  6
Continuous
 62
   144
370
    18
100
AcDbLine
 10
34.1596057767
 20
23.4744316448
 30
0.0
 11
34.1604671913
 21
23.5304014284
 31
0.0
  0
LINE
  5
178
330
1F
100
AcDbEntity
  8
0
  6
Continuous
 62
   144
370
    18
100
AcDbLine
 10
34.8912940962
 20
23.7503032092
 30
0.0
 11
34.852045828
 21
23.7792070456
 31
0.0
  0
LINE
  5
179
330
1F
100
AcDbEntity
  8
0
  6
Continuous
 62
   144
370
    18
100
AcDbLine
 10
34.8912940962
 20
23.7503032092
 30
0.0
 11
34.8931680636
 21
23.6962392152
 31
0.0
  0
LINE
  5
17A
330
1F
100
AcDbEntity
  8
0
  6
Continuous
 62
   144
370
    18
100
AcDbLine
 10
34.8931680636
 20
23.6962392152
 30
0.0
 11
34.8537139744
 21
23.7232318778
 31
0.0
  0
LINE
  5
17B
330
1F
100
AcDbEntity
  8
0
  6
Continuous
 62
   144
370
    18
100
AcDbLine
 10
34.8537139744
 20
23.7232318778
 30
0.0
 11
34.852045828
 21
23.7792070456
 31
0.0
  0
LINE
  5
17C
330
1F
100
AcDbEntity
  8
0
  6
Continuous
 62
   144
370
    18
100
AcDbLine
 10
35.0462016551
 20
23.584490979
 30
0.0
 11
35.0124546208
 21
23.6133161479
 31
0.0
  0
LINE
  5
17D
330
1F
100
AcDbEntity
  8
0
  6
Continuous
 62
   144
370
    18
100
AcDbLine
 10
35.0462016551
 20
23.584490979
 30
0.0
 11
35.0486589182
 21
23.5304252494
 31
0.0
  0
LINE
  5
17E
330
1F
100
AcDbEntity
  8
0
  6
Continuous
 62
   144
370
    18
100
AcDbLine
 10
35.0486589182
 20
23.5304252494
 30
0.0
 11
35.0147316635
 21
23.5574014823
 31
0.0
  0
LINE
  5
17F
330
1F
100
AcDbEntity
  8
0
  6
Continuous
 62
   144
370
    18
100
AcDbLine
 10
35.0147316635
 20
23.5574014823
 30
0.0
 11
35.0124546208
 21
23.6133161479
 31
0.0
  0
LINE
  5
180
330
1F
100
AcDbEntity
  8
0
  6
Continuous
 62
   144
370
    18
100
AcDbLine
 10
35.1232364759
 20
23.4744316448
 30
0.0
 11
35.1523927466
 21
23.4475779274
 31
0.0
  0
LINE
  5
181
330
1F
100
AcDbEntity
  8
0
  6
Continuous
 62
   144
370
    18
100
AcDbLine
 10
35.120547674
 20
23.5304014284
 30
0.0
 11
35.1232364759
 21
23.4744316448
 31
0.0
  0
LINE
  5
182
330
1F
100
AcDbEntity
  8
0
  6
Continuous
 62
   144
370
    18
100
AcDbLine
 10
35.1205394656
 20
23.5303783134
 30
0.0
 11
35.1495563299
 21
23.5017916667
 31
0.0
  0
LINE
  5
183
330
1F
100
AcDbEntity
  8
0
  6
Continuous
 62
   144
370
    18
100
AcDbLine
 10
35.1495563299
 20
23.5017916667
 30
0.0
 11
35.1523927466
 21
23.4475779274
 31
0.0
  0
LINE
  5
184
330
1F
100
AcDbEntity
  8
0
  6
Continuous
 62
   144
370
    18
100
AcDbLine
 10
34.111524838
 20
23.7232161723
 30
0.0
 11
34.1125469919
 21
23.7792214746
 31
0.0
  0
LINE
  5
185
330
1F
100
AcDbEntity
  8
0
  6
Continuous
 62
   144
370
    18
100
AcDbLine
 10
35.0067669262
 20
23.5017916667
 30
0.0
 11
35.0486362322
 21
23.5303783134
 31
0.0
  0
LINE
  5
186
330
1F
100
AcDbEntity
  8
0
  6
Continuous
 62
   144
370
    18
100
AcDbLine
 10
34.9717084923
 20
23.5303686765
 30
0.0
 11
35.0147316635
 21
23.5574014823
 31
0.0
  0
LINE
  5
187
330
1F
100
AcDbEntity
  8
0
  6
Continuous
 62
   144
370
    18
100
AcDbLine
 10
33.7382006199
 20
23.5303783134
 30
0.0
 11
33.7800699168
 21
23.5017916667
 31
0.0
  0
LINE
  5
188
330
1F
100
AcDbEntity
  8
0
  6
Continuous
 62
   144
370
    18
100
AcDbLine
 10
33.8151283604
 20
23.5303686765
 30
0.0
 11
33.7721051795
 21
23.5574014823
 31
0.0
  0
LINE
  5
189
330
1F
100
AcDbEntity
  8
0
  6
Continuous
 62
   144
370
    18
100
AcDbLine
 10
33.7382147344
 20
23.5303686765
 30
0.0
 11
33.7721051795
 21
23.5574014823
 31
0.0
  0
LINE
  5
18A
330
1F
100
AcDbEntity
  8
0
  6
Continuous
 62
   144
370
    18
100
AcDbLine
 10
34.020906098
 20
23.7232161723
 30
0.0
 11
34.0222568381
 21
23.7792214746
 31
0.0
  0
LINE
  5
18B
330
1F
100
AcDbEntity
  8
0
  6
Continuous
 62
   144
370
    18
100
AcDbLine
 10
34.0680183505
 20
23.6962392152
 30
0.0
 11
34.020906098
 21
23.7232161723
 31
0.0
  0
LINE
  5
18C
330
1F
100
AcDbEntity
  8
0
  6
Continuous
 62
   144
370
    18
100
AcDbLine
 10
34.0680183505
 20
23.6962392152
 30
0.0
 11
34.0691854959
 21
23.7503032092
 31
0.0
  0
LINE
  5
18D
330
1F
100
AcDbEntity
  8
0
  6
Continuous
 62
   144
370
    18
100
AcDbLine
 10
33.9777529239
 20
23.6402209287
 30
0.0
 11
33.9373048403
 21
23.6133161479
 31
0.0
  0
LINE
  5
18E
330
1F
100
AcDbEntity
  8
0
  6
Continuous
 62
   144
370
    18
100
AcDbLine
 10
33.8936914087
 20
23.6961920507
 30
0.0
 11
33.938989397
 21
23.6673733604
 31
0.0
  0
LINE
  5
18F
330
1F
100
AcDbEntity
  8
0
  6
Continuous
 62
   144
370
    18
100
AcDbLine
 10
35.3445723053
 20
23.584490979
 30
0.0
 11
35.3280821219
 21
23.6133161479
 31
0.0
  0
LINE
  5
190
330
1F
100
AcDbEntity
  8
0
  6
Continuous
 62
   144
370
    18
100
AcDbLine
 10
35.3445723053
 20
23.584490979
 30
0.0
 11
35.3481285837
 21
23.5304252494
 31
0.0
  0
LINE
  5
191
330
1F
100
AcDbEntity
  8
0
  6
Continuous
 62
   144
370
    18
100
AcDbLine
 10
33.5316888927
 20
23.6402209287
 30
0.0
 11
33.5093431074
 21
23.6133161479
 31
0.0
  0
LINE
  5
192
330
1F
100
AcDbEntity
  8
0
  6
Continuous
 62
   144
370
    18
100
AcDbLine
 10
33.5316888927
 20
23.6402209287
 30
0.0
 11
33.5348405709
 21
23.6962152285
 31
0.0
  0
LINE
  5
193
330
1F
100
AcDbEntity
  8
0
  6
Continuous
 62
   144
370
    18
100
AcDbLine
 10
35.3393250111
 20
23.4187309235
 30
0.0
 11
35.3662055016
 21
23.4475779274
 31
0.0
  0
LINE
  5
194
330
1F
100
AcDbEntity
  8
0
  6
Continuous
 62
   144
370
    18
100
AcDbLine
 10
35.3516272697
 20
23.4744316431
 30
0.0
 11
35.3393250114
 21
23.4187309249
 31
0.0
  0
LINE
  5
195
330
1F
100
AcDbEntity
  8
0
  6
Continuous
 62
   144
370
    18
100
AcDbLine
 10
33.4587547211
 20
23.6133161479
 30
0.0
 11
33.442264543
 21
23.584490979
 31
0.0
  0
LINE
  5
196
330
1F
100
AcDbEntity
  8
0
  6
Continuous
 62
   144
370
    18
100
AcDbLine
 10
33.4206313414
 20
23.4475779274
 30
0.0
 11
33.4475118319
 21
23.4187309235
 31
0.0
  0
LINE
  5
197
330
1F
100
AcDbEntity
  8
0
  6
Continuous
 62
   144
370
    18
100
AcDbLine
 10
33.4475118319
 20
23.4187309235
 30
0.0
 11
33.4352095729
 21
23.4744316448
 31
0.0
  0
LINE
  5
198
330
1F
100
AcDbEntity
  8
0
  6
Continuous
 62
   144
370
    18
100
AcDbLine
 10
33.4206313414
 20
23.4475779274
 30
0.0
 11
33.4352095729
 21
23.4744316448
 31
0.0
  0
LINE
  5
199
330
1F
100
AcDbEntity
  8
0
  6
Continuous
 62
   144
370
    18
100
AcDbLine
 10
35.4538577742
 20
23.6402209287
 30
0.0
 11
35.43590032
 21
23.6133161479
 31
0.0
  0
LINE
  5
19A
330
1F
100
AcDbEntity
  8
0
  6
Continuous
 62
   144
370
    18
100
AcDbLine
 10
35.4644439455
 20
23.4744316448
 30
0.0
 11
35.4506932549
 21
23.4187309235
 31
0.0
  0
LINE
  5
19B
330
1F
100
AcDbEntity
  8
0
  6
Continuous
 62
   144
370
    18
100
AcDbLine
 10
35.4504635801
 20
23.4475779274
 30
0.0
 11
35.4644439455
 21
23.4744316448
 31
0.0
  0
LINE
  5
19C
330
1F
100
AcDbEntity
  8
0
  6
Continuous
 62
   144
370
    18
100
AcDbLine
 10
33.3329790713
 20
23.6402209287
 30
0.0
 11
33.350936523
 21
23.6133161479
 31
0.0
  0
LINE
  5
19D
330
1F
100
AcDbEntity
  8
0
  6
Continuous
 62
   144
370
    18
100
AcDbLine
 10
33.4856907548
 20
23.5304252494
 30
0.0
 11
33.4890382046
 21
23.584490979
 31
0.0
  0
LINE
  5
19E
330
1F
100
AcDbEntity
  8
0
  6
Continuous
 62
   144
370
    18
100
AcDbLine
 10
33.8964669621
 20
23.5304252494
 30
0.0
 11
33.898279046
 21
23.584490979
 31
0.0
  0
LINE
  5
19F
330
1F
100
AcDbEntity
  8
0
  6
Continuous
 62
   144
370
    18
100
AcDbLine
 10
33.9815022412
 20
23.5304252494
 30
0.0
 11
33.9830617235
 21
23.584490979
 31
0.0
  0
LINE
  5
1A0
330
1F
100
AcDbEntity
  8
0
  6
Continuous
 62
   144
370
    18
100
AcDbLine
 10
33.9830617235
 20
23.584490979
 30
0.0
 11
34.0242908978
 21
23.6133161479
 31
0.0
  0
LINE
  5
1A1
330
1F
100
AcDbEntity
  8
0
  6
Continuous
 62
   144
370
    18
100
AcDbLine
 10
34.0697341315
 20
23.5304252494
 30
0.0
 11
34.0709674633
 21
23.584490979
 31
0.0
  0
LINE
  5
1A2
330
1F
100
AcDbEntity
  8
0
  6
Continuous
 62
   144
370
    18
100
AcDbLine
 10
34.0709674633
 20
23.584490979
 30
0.0
 11
34.1140862387
 21
23.6133161479
 31
0.0
  0
LINE
  5
1A3
330
1F
100
AcDbEntity
  8
0
  6
Continuous
 62
   144
370
    18
100
AcDbLine
 10
34.803775109
 20
23.584490979
 30
0.0
 11
34.8495320028
 21
23.6133161479
 31
0.0
  0
LINE
  5
1A4
330
1F
100
AcDbEntity
  8
0
  6
Continuous
 62
     7
370
    25
100
AcDbLine
 10
34.803775109
 20
23.584490979
 30
0.0
 11
34.8053345913
 21
23.5304252494
 31
0.0
  0
LINE
  5
1A5
330
1F
100
AcDbEntity
  8
0
  6
Continuous
 62
   144
370
    18
100
AcDbLine
 10
34.7625459452
 20
23.6133161479
 30
0.0
 11
34.803775109
 21
23.584490979
 31
0.0
  0
LINE
  5
1A6
330
1F
100
AcDbEntity
  8
0
  6
Continuous
 62
   144
370
    18
100
AcDbLine
 10
34.888557787
 20
23.584490979
 30
0.0
 11
34.8903698708
 21
23.5304252494
 31
0.0
  0
LINE
  5
1A7
330
1F
100
AcDbEntity
  8
0
  6
Continuous
 62
   144
370
    18
100
AcDbLine
 10
35.2977986323
 20
23.584490979
 30
0.0
 11
35.3280821219
 21
23.6133161479
 31
0.0
  0
LINE
  5
1A8
330
1F
100
AcDbEntity
  8
0
  6
Continuous
 62
   144
370
    18
100
AcDbLine
 10
35.2977986323
 20
23.584490979
 30
0.0
 11
35.3011460821
 21
23.5304252494
 31
0.0
  0
LINE
  5
1A9
330
1F
100
AcDbEntity
  8
0
  6
Continuous
 62
   144
370
    18
100
AcDbLine
 10
33.3792488852
 20
23.6133161479
 30
0.0
 11
33.4027297263
 21
23.584490979
 31
0.0
  0
LINE
  5
1AA
330
1F
100
AcDbEntity
  8
0
  6
Continuous
 62
   144
370
    18
100
AcDbLine
 10
33.542694751
 20
23.584490979
 30
0.0
 11
33.5316888857
 21
23.6402209287
 31
0.0
  0
LINE
  5
1AB
330
1F
100
AcDbEntity
  8
0
  6
Continuous
 62
   144
370
    18
100
AcDbLine
 10
33.5093431074
 20
23.6133161479
 30
0.0
 11
33.542694751
 21
23.584490979
 31
0.0
  0
LINE
  5
1AC
330
1F
100
AcDbEntity
  8
0
  6
Continuous
 62
   144
370
    18
100
AcDbLine
 10
34.3460396346
 20
23.6402209287
 30
0.0
 11
34.3466447486
 21
23.584490979
 31
0.0
  0
LINE
  5
1AD
330
1F
100
AcDbEntity
  8
0
  6
Continuous
 62
   144
370
    18
100
AcDbLine
 10
34.4407971969
 20
23.6402209287
 30
0.0
 11
34.4874818389
 21
23.6133161479
 31
0.0
  0
LINE
  5
1AE
330
1F
100
AcDbEntity
  8
0
  6
Continuous
 62
   144
370
    18
100
AcDbLine
 10
34.4401920831
 20
23.584490979
 30
0.0
 11
34.4874818389
 21
23.6133161479
 31
0.0
  0
LINE
  5
1AF
330
1F
100
AcDbEntity
  8
0
  6
Continuous
 62
   144
370
    18
100
AcDbLine
 10
34.4407971969
 20
23.6402209287
 30
0.0
 11
34.4401920831
 21
23.584490979
 31
0.0
  0
LINE
  5
1B0
330
1F
100
AcDbEntity
  8
0
  6
Continuous
 62
   144
370
    18
100
AcDbLine
 10
35.1272352478
 20
23.6402209287
 30
0.0
 11
35.1178630622
 21
23.584490979
 31
0.0
  0
LINE
  5
1B1
330
1F
100
AcDbEntity
  8
0
  6
Continuous
 62
   144
370
    18
100
AcDbLine
 10
35.3568774372
 20
23.6402209287
 30
0.0
 11
35.3445723
 21
23.584490979
 31
0.0
  0
LINE
  5
1B2
330
1F
100
AcDbEntity
  8
0
  6
Continuous
 62
   144
370
    18
100
AcDbLine
 10
35.2441420851
 20
23.584490979
 30
0.0
 11
35.2774937357
 21
23.6133161479
 31
0.0
  0
LINE
  5
1B3
330
1F
100
AcDbEntity
  8
0
  6
Continuous
 62
   144
370
    18
100
AcDbLine
 10
35.2551479504
 20
23.6402209287
 30
0.0
 11
35.2441420851
 21
23.584490979
 31
0.0
  0
LINE
  5
1B4
330
1F
100
AcDbEntity
  8
0
  6
Continuous
 62
   144
370
    18
100
AcDbLine
 10
34.6263860939
 20
23.5303783134
 30
0.0
 11
34.5791074481
 21
23.5017916667
 31
0.0
  0
LINE
  5
1B5
330
1F
100
AcDbEntity
  8
0
  6
Continuous
 62
   144
370
    18
100
AcDbLine
 10
34.207729395
 20
23.5017916667
 30
0.0
 11
34.160450738
 21
23.5303783134
 31
0.0
  0
LINE
  5
1B6
330
1F
100
AcDbEntity
  8
0
  6
Continuous
 62
   144
370
    18
100
AcDbLine
 10
33.9398003563
 20
23.4475779274
 30
0.0
 11
33.8946064609
 21
23.4744316448
 31
0.0
  0
LINE
  5
1B7
330
1F
100
AcDbEntity
  8
0
  6
Continuous
 62
   144
370
    18
100
AcDbLine
 10
33.5126082481
 20
23.6673733604
 30
0.0
 11
33.4806759121
 21
23.6961920507
 31
0.0
  0
LINE
  5
1B8
330
1F
100
AcDbEntity
  8
0
  6
Continuous
 62
   144
370
    18
100
AcDbLine
 10
33.4773381812
 20
23.6402209287
 30
0.0
 11
33.5093431074
 21
23.6133161479
 31
0.0
  0
LINE
  5
1B9
330
1F
100
AcDbEntity
  8
0
  6
Continuous
 62
   144
370
    18
100
AcDbLine
 10
33.8918733969
 20
23.6402209287
 30
0.0
 11
33.893707741
 21
23.6962152285
 31
0.0
  0
LINE
  5
1BA
330
1F
100
AcDbEntity
  8
0
  6
Continuous
 62
   144
370
    18
100
AcDbLine
 10
34.1583246716
 20
23.6402209287
 30
0.0
 11
34.1591845004
 21
23.6962152285
 31
0.0
  0
LINE
  5
1BB
330
1F
100
AcDbEntity
  8
0
  6
Continuous
 62
   144
370
    18
100
AcDbLine
 10
34.1591467491
 20
23.6962392152
 30
0.0
 11
34.2042891501
 21
23.7232318778
 31
0.0
  0
LINE
  5
1BC
330
1F
100
AcDbEntity
  8
0
  6
Continuous
 62
   144
370
    18
100
AcDbLine
 10
34.2042891501
 20
23.7232318778
 30
0.0
 11
34.2049745691
 21
23.7792070456
 31
0.0
  0
LINE
  5
1BD
330
1F
100
AcDbEntity
  8
0
  6
Continuous
 62
   144
370
    18
100
AcDbLine
 10
34.4880002602
 20
23.7792070456
 30
0.0
 11
34.4404505808
 21
23.7503032092
 31
0.0
  0
LINE
  5
1BE
330
1F
100
AcDbEntity
  8
0
  6
Continuous
 62
   144
370
    18
100
AcDbLine
 10
34.4883443751
 20
23.7232161723
 30
0.0
 11
34.4880001709
 21
23.7792214746
 31
0.0
  0
LINE
  5
1BF
330
1F
100
AcDbEntity
  8
0
  6
Continuous
 62
   144
370
    18
100
AcDbLine
 10
34.626370167
 20
23.5303686765
 30
0.0
 11
34.6737780908
 21
23.5574014823
 31
0.0
  0
LINE
  5
1C0
330
1F
100
AcDbEntity
  8
0
  6
Continuous
 62
   144
370
    18
100
AcDbLine
 10
35.0522283849
 20
23.6962152285
 30
0.0
 11
35.0546467526
 21
23.6402209287
 31
0.0
  0
LINE
  5
1C1
330
1F
100
AcDbEntity
  8
0
  6
Continuous
 62
   144
370
    18
100
AcDbLine
 10
35.0546467526
 20
23.6402209287
 30
0.0
 11
35.0124546208
 21
23.6133161479
 31
0.0
  0
LINE
  5
1C2
330
1F
100
AcDbEntity
  8
0
  6
Continuous
 62
   144
370
    18
100
AcDbLine
 10
35.3229683337
 20
23.4475779274
 30
0.0
 11
35.3393250164
 21
23.4187309235
 31
0.0
  0
LINE
  5
1C3
330
1F
100
AcDbEntity
  8
0
  6
Continuous
 62
   144
370
    18
100
AcDbLine
 10
35.3229683337
 20
23.4475779274
 30
0.0
 11
35.3516272754
 21
23.4744316448
 31
0.0
  0
LWPOLYLINE
  5
1C4
330
1F
100
AcDbEntity
  8
0
  6
Continuous
 62
     7
370
    25
100
AcDbPolyline
 90
        3
 70
   128
 43
0.0
 10
34.5330804659
 20
23.3701066408
 10
34.55180167
 20
23.3772912835
 10
34.5715332512
 20
23.3865140805
  0
LINE
  5
1C5
330
1F
100
AcDbEntity
  8
0
  6
Continuous
 62
     7
370
    25
100
AcDbLine
 10
34.5715323149
 20
23.3865157256
 30
0.0
 11
34.5804907883
 21
23.3916092887
 31
0.0
  0
ARC
  5
1C6
330
1F
100
AcDbEntity
  8
0
  6
Continuous
 62
   144
370
    18
100
AcDbCircle
 10
34.7022592543
 20
23.5864752747
 30
0.0
 40
0.2297831843331478
100
AcDbArc
 50
237.9994325323
 51
250.3538751842
  0
LWPOLYLINE
  5
1C7
330
1F
100
AcDbEntity
  8
0
  6
Continuous
 62
     7
370
    25
100
AcDbPolyline
 90
        3
 70
   128
 43
0.0
 10
34.6250071774
 20
23.3701066408
 10
34.6436692077
 20
23.3772912835
 10
34.663327386
 20
23.3865140808
  0
LINE
  5
1C8
330
1F
100
AcDbEntity
  8
0
  6
Continuous
 62
     7
370
    25
100
AcDbLine
 10
34.6633264406
 20
23.3865157259
 30
0.0
 11
34.672245945
 21
23.3916092887
 31
0.0
  0
ARC
  5
1C9
330
1F
100
AcDbEntity
  8
0
  6
Continuous
 62
   144
370
    18
100
AcDbCircle
 10
34.7914423509
 20
23.5755809508
 30
0.0
 40
0.2192107561700279
100
AcDbArc
 50
237.0605421295
 51
249.6376910116
  0
LWPOLYLINE
  5
1CA
330
1F
100
AcDbEntity
  8
0
  6
Continuous
 62
   144
370
    18
100
AcDbPolyline
 90
        3
 70
   128
 43
0.0
 10
34.7151713586
 20
23.3701066408
 10
34.7336321858
 20
23.3772912835
 10
34.7530673505
 20
23.386514081
  0
LINE
  5
1CB
330
1F
100
AcDbEntity
  8
0
  6
Continuous
 62
   144
370
    18
100
AcDbLine
 10
34.7530666489
 20
23.3865155004
 30
0.0
 11
34.7618790558
 21
23.3916092887
 31
0.0
  0
ARC
  5
1CC
330
1F
100
AcDbEntity
  8
0
  6
Continuous
 62
     7
370
    25
100
AcDbCircle
 10
34.8779912817
 20
23.5628300891
 30
0.0
 40
0.2068782528182429
100
AcDbArc
 50
235.8571077986
 51
248.7114391702
  0
LWPOLYLINE
  5
1CD
330
1F
100
AcDbEntity
  8
0
  6
Continuous
 62
   144
370
    18
100
AcDbPolyline
 90
        3
 70
   128
 43
0.0
 10
34.8028868058
 20
23.3701066408
 10
34.8210059318
 20
23.3772912835
 10
34.8400701694
 20
23.3865140812
  0
LINE
  5
1CE
330
1F
100
AcDbEntity
  8
0
  6
Continuous
 62
   144
370
    18
100
AcDbLine
 10
34.8400695324
 20
23.3865155005
 30
0.0
 11
34.8487079588
 21
23.3916092887
 31
0.0
  0
ARC
  5
1CF
330
1F
100
AcDbEntity
  8
0
  6
Continuous
 62
   144
370
    18
100
AcDbCircle
 10
34.9613110973
 20
23.5486195386
 30
0.0
 40
0.1932140920199081
100
AcDbArc
 50
234.3530207082
 51
247.5345525922
  0
LWPOLYLINE
  5
1D0
330
1F
100
AcDbEntity
  8
0
  6
Continuous
 62
     7
370
    25
100
AcDbPolyline
 90
        3
 70
   128
 43
0.0
 10
34.8874859512
 20
23.3701066408
 10
34.9051254786
 20
23.3772912835
 10
34.9236736986
 20
23.3865140813
  0
LINE
  5
1D1
330
1F
100
AcDbEntity
  8
0
  6
Continuous
 62
     7
370
    25
100
AcDbLine
 10
34.9236727687
 20
23.3865157264
 30
0.0
 11
34.9320718335
 21
23.3916092887
 31
0.0
  0
ARC
  5
1D2
330
1F
100
AcDbEntity
  8
0
  6
Continuous
 62
   144
370
    18
100
AcDbCircle
 10
35.0408591735
 20
23.5333928382
 30
0.0
 40
0.1787099892696215
100
AcDbArc
 50
232.501781509
 51
246.0510529762
  0
LWPOLYLINE
  5
1D3
330
1F
100
AcDbEntity
  8
0
  6
Continuous
 62
   144
370
    18
100
AcDbPolyline
 90
        3
 70
   128
 43
0.0
 10
34.9683249445
 20
23.3701066408
 10
34.9853506257
 20
23.3772912835
 10
35.0032416648
 20
23.3865140813
  0
LINE
  5
1D4
330
1F
100
AcDbEntity
  8
0
  6
Continuous
 62
   144
370
    18
100
AcDbLine
 10
35.0032411712
 20
23.3865155007
 30
0.0
 11
35.0113362304
 21
23.3916092887
 31
0.0
  0
ARC
  5
1D5
330
1F
100
AcDbEntity
  8
0
  6
Continuous
 62
     7
370
    25
100
AcDbCircle
 10
35.1161643742
 20
23.5176280147
 30
0.0
 40
0.1639196725336971
100
AcDbArc
 50
230.2447661455
 51
244.1836379195
  0
LWPOLYLINE
  5
1D6
330
1F
100
AcDbEntity
  8
0
  6
Continuous
 62
   144
370
    18
100
AcDbPolyline
 90
        3
 70
   128
 43
0.0
 10
35.044788552
 20
23.3701066408
 10
35.0610708113
 20
23.3772912835
 10
35.0781685078
 20
23.3865140812
  0
LINE
  5
1D7
330
1F
100
AcDbEntity
  8
0
  6
Continuous
 62
   144
370
    18
100
AcDbLine
 10
35.0781680917
 20
23.3865155006
 30
0.0
 11
35.0858978998
 21
23.3916092887
 31
0.0
  0
ARC
  5
1D8
330
1F
100
AcDbEntity
  8
0
  6
Continuous
 62
   144
370
    18
100
AcDbCircle
 10
35.1868574789
 20
23.5018252606
 30
0.0
 40
0.1494670434468167
100
AcDbArc
 50
227.5098216531
 51
241.8251600485
  0
LWPOLYLINE
  5
1D9
330
1F
100
AcDbEntity
  8
0
  6
Continuous
 62
   144
370
    18
100
AcDbPolyline
 90
        3
 70
   128
 43
0.0
 10
35.1162948394
 20
23.3701066408
 10
35.1317097591
 20
23.3772912835
 10
35.1478839891
 20
23.3865140811
  0
LINE
  5
1DA
330
1F
100
AcDbEntity
  8
0
  6
Continuous
 62
   144
370
    18
100
AcDbLine
 10
35.1478836538
 20
23.3865155004
 30
0.0
 11
35.1551893821
 21
23.3916092887
 31
0.0
  0
ARC
  5
1DB
330
1F
100
AcDbEntity
  8
0
  6
Continuous
 62
     7
370
    25
100
AcDbCircle
 10
35.2527250322
 20
23.486495825
 30
0.0
 40
0.1360759266398637
100
AcDbArc
 50
224.2112476801
 51
238.8267555088
  0
LWPOLYLINE
  5
1DC
330
1F
100
AcDbEntity
  8
0
  6
Continuous
 62
   144
370
    18
100
AcDbPolyline
 90
        3
 70
   128
 43
0.0
 10
35.1822996009
 20
23.3701066408
 10
35.196729864
 20
23.3772912835
 10
35.2118575317
 20
23.3865140809
  0
LINE
  5
1DD
330
1F
100
AcDbEntity
  8
0
  6
Continuous
 62
   144
370
    18
100
AcDbLine
 10
35.2118572797
 20
23.3865155002
 30
0.0
 11
35.2186833275
 21
23.3916092887
 31
0.0
  0
ARC
  5
1DE
330
1F
100
AcDbEntity
  8
0
  6
Continuous
 62
   144
370
    18
100
AcDbCircle
 10
35.3138162403
 20
23.472154747
 30
0.0
 40
0.1246508802611347
100
AcDbArc
 50
220.2533337604
 51
234.9826038811
  0
LWPOLYLINE
  5
1DF
330
1F
100
AcDbEntity
  8
0
  6
Continuous
 62
   144
370
    18
100
AcDbPolyline
 90
        3
 70
   128
 43
0.0
 10
35.2423005002
 20
23.3701066408
 10
35.2556362838
 20
23.3772912835
 10
35.2696022585
 20
23.3865140806
  0
LINE
  5
1E0
330
1F
100
AcDbEntity
  8
0
  6
Continuous
 62
   144
370
    18
100
AcDbLine
 10
35.2696020918
 20
23.3865154999
 30
0.0
 11
35.2758965087
 21
23.3916092887
 31
0.0
  0
ARC
  5
1E1
330
1F
100
AcDbEntity
  8
0
  6
Continuous
 62
   144
370
    18
100
AcDbCircle
 10
35.3706842476
 20
23.4593238639
 30
0.0
 40
0.1164902534522245
100
AcDbArc
 50
215.5412988488
 51
230.0143236182
  0
LWPOLYLINE
  5
1E2
330
1F
100
AcDbEntity
  8
0
  6
Continuous
 62
     7
370
    25
100
AcDbPolyline
 90
        3
 70
   128
 43
0.0
 10
35.2958408943
 20
23.3701066408
 10
35.307980705
 20
23.3772912835
 10
35.3206786972
 20
23.3865140802
  0
LINE
  5
1E3
330
1F
100
AcDbEntity
  8
0
  6
Continuous
 62
     7
370
    25
100
AcDbLine
 10
35.3206779834
 20
23.3865157253
 30
0.0
 11
35.3263934987
 21
23.3916092887
 31
0.0
  0
ARC
  5
1E4
330
1F
100
AcDbEntity
  8
0
  6
Continuous
 62
   144
370
    18
100
AcDbCircle
 10
35.4250245041
 20
23.4485648585
 30
0.0
 40
0.1138947415295353
100
AcDbArc
 50
210.0047627668
 51
223.5669308356
  0
LWPOLYLINE
  5
1E5
330
1F
100
AcDbEntity
  8
0
  6
Continuous
 62
   144
370
    18
100
AcDbPolyline
 90
        3
 70
   128
 43
0.0
 10
35.3425133086
 20
23.3701066408
 10
35.3533647551
 20
23.3772912835
 10
35.3646981254
 20
23.3865140799
  0
LINE
  5
1E6
330
1F
100
AcDbEntity
  8
0
  6
Continuous
 62
   144
370
    18
100
AcDbLine
 10
35.3646981323
 20
23.3865154991
 30
0.0
 11
35.3697899851
 21
23.3916092887
 31
0.0
  0
ARC
  5
1E7
330
1F
100
AcDbEntity
  8
0
  6
Continuous
 62
   144
370
    18
100
AcDbCircle
 10
35.4817848477
 20
23.4406217836
 30
0.0
 40
0.1222500466490009
100
AcDbArc
 50
203.6357079151
 51
215.2484625782
  0
LWPOLYLINE
  5
1E8
330
1F
100
AcDbEntity
  8
0
  6
Continuous
 62
   144
370
    18
100
AcDbPolyline
 90
        3
 70
   128
 43
0.0
 10
35.3819625376
 20
23.3701066408
 10
35.3914430339
 20
23.3772912835
 10
35.4013255287
 20
23.3865140794
  0
LINE
  5
1E9
330
1F
100
AcDbEntity
  8
0
  6
Continuous
 62
   144
370
    18
100
AcDbLine
 10
35.4013256226
 20
23.3865154987
 30
0.0
 11
35.4057556943
 21
23.3916092887
 31
0.0
  0
ARC
  5
1EA
330
1F
100
AcDbEntity
  8
0
  6
Continuous
 62
   144
370
    18
100
AcDbCircle
 10
35.5592328396
 20
23.4371503871
 30
0.0
 40
0.1600913045210103
100
AcDbArc
 50
196.5271425419
 51
204.7729255842
  0
LWPOLYLINE
  5
1EB
330
1F
100
AcDbEntity
  8
0
  6
Continuous
 62
     7
370
    25
100
AcDbPolyline
 90
        3
 70
   128
 43
0.0
 10
35.4138883491
 20
23.3701066408
 10
35.4219257428
 20
23.3772912835
 10
35.4302821503
 20
23.386514079
  0
LINE
  5
1EC
330
1F
100
AcDbEntity
  8
0
  6
Continuous
 62
     7
370
    25
100
AcDbLine
 10
35.4302816221
 20
23.386515724
 30
0.0
 11
35.4340169056
 21
23.3916092887
 31
0.0
  0
ARC
  5
1ED
330
1F
100
AcDbEntity
  8
0
  6
Continuous
 62
   144
370
    18
100
AcDbCircle
 10
35.8015821991
 20
23.4489923018
 30
0.0
 40
0.3720175468548819
100
AcDbArc
 50
188.8731932091
 51
192.2484316391
  0
LWPOLYLINE
  5
1EE
330
1F
100
AcDbEntity
  8
0
  6
Continuous
 62
     7
370
    25
100
AcDbPolyline
 90
        3
 70
   128
 43
0.0
 10
35.4380477682
 20
23.3701066408
 10
35.4445808899
 20
23.3772912835
 10
35.451347613
 20
23.3865140785
  0
LINE
  5
1EF
330
1F
100
AcDbEntity
  8
0
  6
Continuous
 62
     7
370
    25
100
AcDbLine
 10
35.4513471554
 20
23.3865157235
 30
0.0
 11
35.4543585341
 21
23.3916092887
 31
0.0
  0
ARC
  5
1F0
330
1F
100
AcDbEntity
  8
0
  6
Continuous
 62
     7
370
    25
100
AcDbCircle
 10
34.9478825202
 20
23.3835821046
 30
0.0
 40
0.5065396216997133
100
AcDbArc
 50
358.4712586903
 51
0.9080099644
  0
LWPOLYLINE
  5
1F1
330
1F
100
AcDbEntity
  8
0
  6
Continuous
 62
   144
370
    18
100
AcDbPolyline
 90
        3
 70
   128
 43
0.0
 10
35.4542569272
 20
23.3701066408
 10
35.4592360559
 20
23.3772912835
 10
35.464361596
 20
23.3865140781
  0
LINE
  5
1F2
330
1F
100
AcDbEntity
  8
0
  6
Continuous
 62
   144
370
    18
100
AcDbLine
 10
35.4643619442
 20
23.3865154973
 30
0.0
 11
35.4666257677
 21
23.3916092887
 31
0.0
  0
ARC
  5
1F3
330
1F
100
AcDbEntity
  8
0
  6
Continuous
 62
   144
370
    18
100
AcDbCircle
 10
35.3112920521
 20
23.4110563322
 30
0.0
 40
0.156546321284754
100
AcDbArc
 50
344.8215622251
 51
352.8639689548
  0
LWPOLYLINE
  5
1F4
330
1F
100
AcDbEntity
  8
0
  6
Continuous
 62
   144
370
    18
100
AcDbPolyline
 90
        3
 70
   128
 43
0.0
 10
35.4623924646
 20
23.3701066408
 10
35.4657797062
 20
23.3772912835
 10
35.4692250548
 20
23.3865140777
  0
LINE
  5
1F5
330
1F
100
AcDbEntity
  8
0
  6
Continuous
 62
   144
370
    18
100
AcDbLine
 10
35.4692254833
 20
23.3865154968
 30
0.0
 11
35.4707252454
 21
23.3916092887
 31
0.0
  0
ARC
  5
1F6
330
1F
100
AcDbEntity
  8
0
  6
Continuous
 62
   144
370
    18
100
AcDbCircle
 10
35.3858908581
 20
23.4129558887
 30
0.0
 40
0.0874788580416066
100
AcDbArc
 50
336.0424811617
 51
345.8760677511
  0
LINE
  5
1F7
330
1F
100
AcDbEntity
  8
0
  6
Continuous
 62
   144
370
    18
100
AcDbLine
 10
35.4629561612
 20
23.3713022918
 30
0.0
 11
35.4623772696
 21
23.3700684361
 31
0.0
  0
LWPOLYLINE
  5
1F8
330
1F
100
AcDbEntity
  8
0
  6
Continuous
 62
     7
370
    25
100
AcDbPolyline
 90
        3
 70
   128
 43
0.0
 10
35.4542569257
 20
23.3701066408
 10
35.4543953676
 20
23.3772912835
 10
35.4544146571
 20
23.3865140769
  0
LWPOLYLINE
  5
1F9
330
1F
100
AcDbEntity
  8
0
  6
Continuous
 62
     7
370
    25
100
AcDbPolyline
 90
        3
 70
   128
 43
0.0
 10
35.4380477657
 20
23.3701066408
 10
35.4365540203
 20
23.3772912835
 10
35.4348535164
 20
23.3865140766
  0
LWPOLYLINE
  5
1FA
330
1F
100
AcDbEntity
  8
0
  6
Continuous
 62
     7
370
    25
100
AcDbPolyline
 90
        3
 70
   128
 43
0.0
 10
35.4138883456
 20
23.3701066408
 10
35.4107737813
 20
23.3772912835
 10
35.407366426
 20
23.3865140764
  0
LWPOLYLINE
  5
1FB
330
1F
100
AcDbEntity
  8
0
  6
Continuous
 62
   144
370
    18
100
AcDbPolyline
 90
        3
 70
   128
 43
0.0
 10
35.3819625333
 20
23.3701066408
 10
35.3772508537
 20
23.3772912835
 10
35.372162579
 20
23.3865140762
  0
LWPOLYLINE
  5
1FC
330
1F
100
AcDbEntity
  8
0
  6
Continuous
 62
   144
370
    18
100
AcDbPolyline
 90
        3
 70
   128
 43
0.0
 10
35.3425133033
 20
23.3701066408
 10
35.3362403672
 20
23.3772912835
 10
35.329509898
 20
23.3865140761
  0
LWPOLYLINE
  5
1FD
330
1F
100
AcDbEntity
  8
0
  6
Continuous
 62
   144
370
    18
100
AcDbPolyline
 90
        3
 70
   128
 43
0.0
 10
35.2958408882
 20
23.3701066408
 10
35.2880544364
 20
23.3772912835
 10
35.2797329956
 20
23.3865140761
  0
LWPOLYLINE
  5
1FE
330
1F
100
AcDbEntity
  8
0
  6
Continuous
 62
   144
370
    18
100
AcDbPolyline
 90
        3
 70
   128
 43
0.0
 10
35.2423004933
 20
23.3701066408
 10
35.2330597854
 20
23.3772912835
 10
35.2232107041
 20
23.3865140761
  0
LWPOLYLINE
  5
1FF
330
1F
100
AcDbEntity
  8
0
  6
Continuous
 62
   144
370
    18
100
AcDbPolyline
 90
        3
 70
   128
 43
0.0
 10
35.1162948311
 20
23.3701066408
 10
35.1043671256
 20
23.3772912835
 10
35.0916986912
 20
23.3865140765
  0
ARC
  5
200
330
1F
100
AcDbEntity
  8
0
  6
Continuous
 62
     7
370
    25
100
AcDbCircle
 10
33.4195509548
 20
23.4193083196
 30
0.0
 40
0.1070837846132492
100
AcDbArc
 50
194.9909755661
 51
207.3758652067
  0
LWPOLYLINE
  5
201
330
1F
100
AcDbEntity
  8
0
  6
Continuous
 62
   144
370
    18
100
AcDbPolyline
 90
        3
 70
   128
 43
0.0
 10
33.3244443789
 20
23.3701066408
 10
33.3226748034
 20
23.3772912835
 10
33.3209358673
 20
23.3865140773
  0
LINE
  5
202
330
1F
100
AcDbEntity
  8
0
  6
Continuous
 62
   144
370
    18
100
AcDbLine
 10
33.3209353618
 20
23.3865154964
 30
0.0
 11
33.3202110753
 21
23.3916092887
 31
0.0
  0
ARC
  5
203
330
1F
100
AcDbEntity
  8
0
  6
Continuous
 62
     7
370
    25
100
AcDbCircle
 10
33.4076985822
 20
23.427575992
 30
0.0
 40
0.0945921117440406
100
AcDbArc
 50
202.347893852
 51
217.4416365404
  0
LWPOLYLINE
  5
204
330
1F
100
AcDbEntity
  8
0
  6
Continuous
 62
     7
370
    25
100
AcDbPolyline
 90
        3
 70
   128
 43
0.0
 10
33.3325799174
 20
23.3701066408
 10
33.3324414755
 20
23.3772912835
 10
33.332422186
 20
23.3865140769
  0
LINE
  5
205
330
1F
100
AcDbEntity
  8
0
  6
Continuous
 62
     7
370
    25
100
AcDbLine
 10
33.3324223323
 20
23.3865157218
 30
0.0
 11
33.332478309
 21
23.3916092887
 31
0.0
  0
ARC
  5
206
330
1F
100
AcDbEntity
  8
0
  6
Continuous
 62
     7
370
    25
100
AcDbCircle
 10
33.4153623542
 20
23.4374694103
 30
0.0
 40
0.094725475533547
100
AcDbArc
 50
208.9559561876
 51
225.3603605311
  0
LWPOLYLINE
  5
207
330
1F
100
AcDbEntity
  8
0
  6
Continuous
 62
   144
370
    18
100
AcDbPolyline
 90
        3
 70
   128
 43
0.0
 10
33.3487890773
 20
23.3701066408
 10
33.3502828227
 20
23.3772912835
 10
33.3519833266
 20
23.3865140766
  0
LINE
  5
208
330
1F
100
AcDbEntity
  8
0
  6
Continuous
 62
   144
370
    18
100
AcDbLine
 10
33.3519826792
 20
23.3865154957
 30
0.0
 11
33.3528199375
 21
23.3916092887
 31
0.0
  0
ARC
  5
209
330
1F
100
AcDbEntity
  8
0
  6
Continuous
 62
     7
370
    25
100
AcDbCircle
 10
33.4359863332
 20
23.4491905943
 30
0.0
 40
0.1011546149921141
100
AcDbArc
 50
214.6972818638
 51
231.4615565829
  0
LWPOLYLINE
  5
20A
330
1F
100
AcDbEntity
  8
0
  6
Continuous
 62
     7
370
    25
100
AcDbPolyline
 90
        3
 70
   128
 43
0.0
 10
33.3729484974
 20
23.3701066408
 10
33.3760630618
 20
23.3772912835
 10
33.3794704171
 20
23.3865140764
  0
LINE
  5
20B
330
1F
100
AcDbEntity
  8
0
  6
Continuous
 62
     7
370
    25
100
AcDbLine
 10
33.3794703986
 20
23.3865157212
 30
0.0
 11
33.3810811488
 21
23.3916092887
 31
0.0
  0
ARC
  5
20C
330
1F
100
AcDbEntity
  8
0
  6
Continuous
 62
   144
370
    18
100
AcDbCircle
 10
33.4669455187
 20
23.4625811981
 30
0.0
 40
0.1113988417270193
100
AcDbArc
 50
219.5757168172
 51
236.146463174
  0
LWPOLYLINE
  5
20D
330
1F
100
AcDbEntity
  8
0
  6
Continuous
 62
   144
370
    18
100
AcDbPolyline
 90
        3
 70
   128
 43
0.0
 10
33.4048743098
 20
23.3701066408
 10
33.4095859894
 20
23.3772912835
 10
33.4146742641
 20
23.3865140762
  0
LINE
  5
20E
330
1F
100
AcDbEntity
  8
0
  6
Continuous
 62
   144
370
    18
100
AcDbLine
 10
33.4146734943
 20
23.3865154953
 30
0.0
 11
33.417046858
 21
23.3916092887
 31
0.0
  0
ARC
  5
20F
330
1F
100
AcDbEntity
  8
0
  6
Continuous
 62
   144
370
    18
100
AcDbCircle
 10
33.5068554396
 20
23.4773306286
 30
0.0
 40
0.1241520416333787
100
AcDbArc
 50
223.6660998419
 51
239.763973915
  0
LWPOLYLINE
  5
210
330
1F
100
AcDbEntity
  8
0
  6
Continuous
 62
   144
370
    18
100
AcDbPolyline
 90
        3
 70
   128
 43
0.0
 10
33.4443235397
 20
23.3701066408
 10
33.4505964759
 20
23.3772912835
 10
33.4573269451
 20
23.3865140761
  0
LINE
  5
211
330
1F
100
AcDbEntity
  8
0
  6
Continuous
 62
   144
370
    18
100
AcDbLine
 10
33.4573261228
 20
23.3865154952
 30
0.0
 11
33.4604433443
 21
23.3916092887
 31
0.0
  0
ARC
  5
212
330
1F
100
AcDbEntity
  8
0
  6
Continuous
 62
     7
370
    25
100
AcDbCircle
 10
33.5548026159
 20
23.4930447013
 30
0.0
 40
0.1385381357026036
100
AcDbArc
 50
227.0698040952
 51
242.5820109711
  0
LWPOLYLINE
  5
213
330
1F
100
AcDbEntity
  8
0
  6
Continuous
 62
   144
370
    18
100
AcDbPolyline
 90
        3
 70
   128
 43
0.0
 10
33.4909959548
 20
23.3701066408
 10
33.4987824066
 20
23.3772912835
 10
33.5071038474
 20
23.3865140761
  0
LINE
  5
214
330
1F
100
AcDbEntity
  8
0
  6
Continuous
 62
   144
370
    18
100
AcDbLine
 10
33.5071029788
 20
23.3865154952
 30
0.0
 11
33.5109403344
 21
23.3916092887
 31
0.0
  0
ARC
  5
215
330
1F
100
AcDbEntity
  8
0
  6
Continuous
 62
   144
370
    18
100
AcDbCircle
 10
33.6100674488
 20
23.5092794872
 30
0.0
 40
0.1538585727802446
100
AcDbArc
 50
229.8887180415
 51
244.7961975648
  0
LWPOLYLINE
  5
216
330
1F
100
AcDbEntity
  8
0
  6
Continuous
 62
   144
370
    18
100
AcDbPolyline
 90
        3
 70
   128
 43
0.0
 10
33.5445363498
 20
23.3701066408
 10
33.5537770577
 20
23.3772912835
 10
33.563626139
 20
23.3865140761
  0
LINE
  5
217
330
1F
100
AcDbEntity
  8
0
  6
Continuous
 62
   144
370
    18
100
AcDbLine
 10
33.5636252306
 20
23.3865154952
 30
0.0
 11
33.5681535155
 21
23.3916092887
 31
0.0
  0
ARC
  5
218
330
1F
100
AcDbEntity
  8
0
  6
Continuous
 62
   144
370
    18
100
AcDbCircle
 10
33.6720087216
 20
23.52556427
 30
0.0
 40
0.1694987931007715
100
AcDbArc
 50
232.2136027849
 51
246.5468879648
  0
LWPOLYLINE
  5
219
330
1F
100
AcDbEntity
  8
0
  6
Continuous
 62
     7
370
    25
100
AcDbPolyline
 90
        3
 70
   128
 43
0.0
 10
33.6045372499
 20
23.3701066408
 10
33.6151618865
 20
23.3772912835
 10
33.6264636509
 20
23.3865140763
  0
LINE
  5
21A
330
1F
100
AcDbEntity
  8
0
  6
Continuous
 62
     7
370
    25
100
AcDbLine
 10
33.6264632338
 20
23.3865157211
 30
0.0
 11
33.6316474609
 21
23.3916092887
 31
0.0
  0
ARC
  5
21B
330
1F
100
AcDbEntity
  8
0
  6
Continuous
 62
   144
370
    18
100
AcDbCircle
 10
33.7400108057
 20
23.5414204512
 30
0.0
 40
0.1848945616046327
100
AcDbArc
 50
234.1205461712
 51
247.934545617
  0
LWPOLYLINE
  5
21C
330
1F
100
AcDbEntity
  8
0
  6
Continuous
 62
   144
370
    18
100
AcDbPolyline
 90
        3
 70
   128
 43
0.0
 10
33.670542012
 20
23.3701066408
 10
33.6824697175
 20
23.3772912835
 10
33.6951381519
 20
23.3865140765
  0
LINE
  5
21D
330
1F
100
AcDbEntity
  8
0
  6
Continuous
 62
   144
370
    18
100
AcDbLine
 10
33.6951371851
 20
23.3865154956
 30
0.0
 11
33.7009389433
 21
23.3916092887
 31
0.0
  0
ARC
  5
21E
330
1F
100
AcDbEntity
  8
0
  6
Continuous
 62
   144
370
    18
100
AcDbCircle
 10
33.8134584064
 20
23.5563785372
 30
0.0
 40
0.1995232689060393
100
AcDbArc
 50
235.6711765713
 51
249.031339597
  0
LWPOLYLINE
  5
21F
330
1F
100
AcDbEntity
  8
0
  6
Continuous
 62
   144
370
    18
100
AcDbPolyline
 90
        3
 70
   128
 43
0.0
 10
33.7420483001
 20
23.3701066408
 10
33.7551882974
 20
23.3772912835
 10
33.7691269875
 20
23.3865140768
  0
LINE
  5
220
330
1F
100
AcDbEntity
  8
0
  6
Continuous
 62
   144
370
    18
100
AcDbLine
 10
33.7691260024
 20
23.3865154959
 30
0.0
 11
33.7755006126
 21
23.3916092887
 31
0.0
  0
ARC
  5
221
330
1F
100
AcDbEntity
  8
0
  6
Continuous
 62
   144
370
    18
100
AcDbCircle
 10
33.8917246452
 20
23.5699938024
 30
0.0
 40
0.2129062246433457
100
AcDbArc
 50
236.9142859466
 51
249.8893172332
  0
LWPOLYLINE
  5
222
330
1F
100
AcDbEntity
  8
0
  6
Continuous
 62
   144
370
    18
100
AcDbPolyline
 90
        3
 70
   128
 43
0.0
 10
33.8185119081
 20
23.3701066408
 10
33.8327641939
 20
23.3772912835
 10
33.847867058
 20
23.3865140771
  0
LINE
  5
223
330
1F
100
AcDbEntity
  8
0
  6
Continuous
 62
   144
370
    18
100
AcDbLine
 10
33.8478660622
 20
23.3865154963
 30
0.0
 11
33.8547650096
 21
23.3916092887
 31
0.0
  0
ARC
  5
224
330
1F
100
AcDbEntity
  8
0
  6
Continuous
 62
     7
370
    25
100
AcDbCircle
 10
33.9741661466
 20
23.5818606511
 30
0.0
 40
0.2246156994121415
100
AcDbArc
 50
237.8877516721
 51
250.5460068857
  0
LWPOLYLINE
  5
225
330
1F
100
AcDbEntity
  8
0
  6
Continuous
 62
   144
370
    18
100
AcDbPolyline
 90
        3
 70
   128
 43
0.0
 10
33.8993509019
 20
23.3701066408
 10
33.9146070076
 20
23.3772912835
 10
33.930759104
 20
23.3865140775
  0
LINE
  5
226
330
1F
100
AcDbEntity
  8
0
  6
Continuous
 62
   144
370
    18
100
AcDbLine
 10
33.9307581049
 20
23.3865154967
 30
0.0
 11
33.9381288842
 21
23.3916092887
 31
0.0
  0
ARC
  5
227
330
1F
100
AcDbEntity
  8
0
  6
Continuous
 62
   144
370
    18
100
AcDbCircle
 10
34.0601220722
 20
23.5916254873
 30
0.0
 40
0.2342836264746712
100
AcDbArc
 50
238.6202941403
 51
251.0282119448
  0
LWPOLYLINE
  5
228
330
1F
100
AcDbEntity
  8
0
  6
Continuous
 62
     7
370
    25
100
AcDbPolyline
 90
        3
 70
   128
 43
0.0
 10
33.9839500478
 20
23.3701066408
 10
34.0000938653
 20
23.3772912835
 10
34.0171722669
 20
23.3865140779
  0
LINE
  5
229
330
1F
100
AcDbEntity
  8
0
  6
Continuous
 62
     7
370
    25
100
AcDbLine
 10
34.0171715293
 20
23.3865157229
 30
0.0
 11
34.0249577872
 21
23.3916092887
 31
0.0
  0
ARC
  5
22A
330
1F
100
AcDbEntity
  8
0
  6
Continuous
 62
   144
370
    18
100
AcDbCircle
 10
34.1489155265
 20
23.5989978307
 30
0.0
 40
0.2416102822191316
100
AcDbArc
 50
239.1329118162
 51
251.3545534535
  0
LWPOLYLINE
  5
22B
330
1F
100
AcDbEntity
  8
0
  6
Continuous
 62
   144
370
    18
100
AcDbPolyline
 90
        3
 70
   128
 43
0.0
 10
34.0716654952
 20
23.3701066408
 10
34.0885741603
 20
23.3772912835
 10
34.1064488903
 20
23.3865140784
  0
LINE
  5
22C
330
1F
100
AcDbEntity
  8
0
  6
Continuous
 62
   144
370
    18
100
AcDbLine
 10
34.1064479075
 20
23.3865154976
 30
0.0
 11
34.1145908981
 21
23.3916092887
 31
0.0
  0
ARC
  5
22D
330
1F
100
AcDbEntity
  8
0
  6
Continuous
 62
     7
370
    25
100
AcDbCircle
 10
34.2398564767
 20
23.6037594108
 30
0.0
 40
0.2463719535707225
100
AcDbArc
 50
239.439965215
 51
251.5371385653
  0
LWPOLYLINE
  5
22E
330
1F
100
AcDbEntity
  8
0
  6
Continuous
 62
   144
370
    18
100
AcDbPolyline
 90
        3
 70
   128
 43
0.0
 10
34.1618296767
 20
23.3701066408
 10
34.1793745043
 20
23.3772912835
 10
34.1979095251
 20
23.3865140788
  0
LINE
  5
22F
330
1F
100
AcDbEntity
  8
0
  6
Continuous
 62
   144
370
    18
100
AcDbLine
 10
34.1979085618
 20
23.3865154981
 30
0.0
 11
34.2063460548
 21
23.3916092887
 31
0.0
  0
ARC
  5
230
330
1F
100
AcDbEntity
  8
0
  6
Continuous
 62
     7
370
    25
100
AcDbCircle
 10
34.3322457018
 20
23.6057710088
 30
0.0
 40
0.2484269781329239
100
AcDbArc
 50
239.5499280987
 51
251.582597948
  0
LWPOLYLINE
  5
231
330
1F
100
AcDbEntity
  8
0
  6
Continuous
 62
     7
370
    25
100
AcDbPolyline
 90
        3
 70
   128
 43
0.0
 10
34.2537563884
 20
23.3701066408
 10
34.2718038517
 20
23.3772912835
 10
34.2908581008
 20
23.3865140793
  0
LINE
  5
232
330
1F
100
AcDbEntity
  8
0
  6
Continuous
 62
     7
370
    25
100
AcDbLine
 10
34.2908572344
 20
23.3865157243
 30
0.0
 11
34.2995249451
 21
23.3916092887
 31
0.0
  0
ARC
  5
233
330
1F
100
AcDbEntity
  8
0
  6
Continuous
 62
   144
370
    18
100
AcDbCircle
 10
34.4253794933
 20
23.6049768642
 30
0.0
 40
0.2477197803212647
100
AcDbArc
 50
239.4658337321
 51
251.4926395963
  0
LWPOLYLINE
  5
234
330
1F
100
AcDbEntity
  8
0
  6
Continuous
 62
   144
370
    18
100
AcDbPolyline
 90
        3
 70
   128
 43
0.0
 10
34.3467460125
 20
23.3701066408
 10
34.3651587594
 20
23.3772912835
 10
34.3845872225
 20
23.3865140797
  0
LINE
  5
235
330
1F
100
AcDbEntity
  8
0
  6
Continuous
 62
   144
370
    18
100
AcDbLine
 10
34.3845863198
 20
23.386515499
 30
0.0
 11
34.3934184215
 21
23.3916092887
 31
0.0
  0
ARC
  5
236
330
1F
100
AcDbEntity
  8
0
  6
Continuous
 62
   144
370
    18
100
AcDbCircle
 10
34.5185549621
 20
23.6014065361
 30
0.0
 40
0.2442827026035442
100
AcDbArc
 50
239.1854378204
 51
251.2641964858
  0
LWPOLYLINE
  5
237
330
1F
100
AcDbEntity
  8
0
  6
Continuous
 62
   144
370
    18
100
AcDbPolyline
 90
        3
 70
   128
 43
0.0
 10
34.4400908419
 20
23.3701066408
 10
34.4587287402
 20
23.3772912835
 10
34.4783835549
 20
23.3865140801
  0
LINE
  5
238
330
1F
100
AcDbEntity
  8
0
  6
Continuous
 62
   144
370
    18
100
AcDbLine
 10
34.478382693
 20
23.3865154994
 30
0.0
 11
34.4873118979
 21
23.3916092887
 31
0.0
  0
ARC
  5
239
330
1F
100
AcDbEntity
  8
0
  6
Continuous
 62
     7
370
    25
100
AcDbCircle
 10
34.6110759015
 20
23.5951741787
 30
0.0
 40
0.2382355830793474
100
AcDbArc
 50
238.7011075381
 51
250.8891894992
  0
LINE
  5
23A
330
1F
100
AcDbEntity
  8
0
  6
Continuous
 62
   144
370
    18
100
AcDbLine
 10
33.3398379851
 20
23.3357460411
 30
0.0
 11
35.4469988579
 21
23.3357460411
 31
0.0
  0
LINE
  5
23B
330
1F
100
AcDbEntity
  8
0
  6
Continuous
 62
     7
370
    25
100
AcDbLine
 10
34.5326112995
 20
23.4187309235
 30
0.0
 11
34.5330806438
 21
23.3700881996
 31
0.0
  0
LINE
  5
23C
330
1F
100
AcDbEntity
  8
0
  6
Continuous
 62
   144
370
    18
100
AcDbLine
 10
34.4873118979
 20
23.3916092887
 30
0.0
 11
34.4869671935
 21
23.4475779274
 31
0.0
  0
LINE
  5
23D
330
1F
100
AcDbEntity
  8
0
  6
Continuous
 62
   144
370
    18
100
AcDbLine
 10
34.4869671935
 20
23.4475779274
 30
0.0
 11
34.5326112995
 21
23.4187309235
 31
0.0
  0
LINE
  5
23E
330
1F
100
AcDbEntity
  8
0
  6
Continuous
 62
     7
370
    25
100
AcDbLine
 10
34.2537585505
 20
23.3700868776
 30
0.0
 11
34.2542255548
 21
23.4187309235
 31
0.0
  0
LINE
  5
23F
330
1F
100
AcDbEntity
  8
0
  6
Continuous
 62
   144
370
    18
100
AcDbLine
 10
34.2995249451
 20
23.3916092887
 30
0.0
 11
34.2998696496
 21
23.4475779274
 31
0.0
  0
LINE
  5
240
330
1F
100
AcDbEntity
  8
0
  6
Continuous
 62
   144
370
    18
100
AcDbLine
 10
34.2542255436
 20
23.4187309235
 30
0.0
 11
34.2998696496
 21
23.4475779274
 31
0.0
  0
LINE
  5
241
330
1F
100
AcDbEntity
  8
0
  6
Continuous
 62
   144
370
    18
100
AcDbLine
 10
34.5804907883
 20
23.3916092887
 30
0.0
 11
34.5798040028
 21
23.4475779274
 31
0.0
  0
LINE
  5
242
330
1F
100
AcDbEntity
  8
0
  6
Continuous
 62
   144
370
    18
100
AcDbLine
 10
34.5326112883
 20
23.4187309235
 30
0.0
 11
34.5798040028
 21
23.4475779274
 31
0.0
  0
LINE
  5
243
330
1F
100
AcDbEntity
  8
0
  6
Continuous
 62
   144
370
    18
100
AcDbLine
 10
34.2063460548
 20
23.3916092887
 30
0.0
 11
34.2070328402
 21
23.4475779274
 31
0.0
  0
LINE
  5
244
330
1F
100
AcDbEntity
  8
0
  6
Continuous
 62
   144
370
    18
100
AcDbLine
 10
34.2070328402
 20
23.4475779274
 30
0.0
 11
34.2542255548
 21
23.4187309235
 31
0.0
  0
LINE
  5
245
330
1F
100
AcDbEntity
  8
0
  6
Continuous
 62
   144
370
    18
100
AcDbLine
 10
34.6242292018
 20
23.4187309235
 30
0.0
 11
34.6250074724
 21
23.3700881996
 31
0.0
  0
LINE
  5
246
330
1F
100
AcDbEntity
  8
0
  6
Continuous
 62
   144
370
    18
100
AcDbLine
 10
34.672245945
 20
23.3916092887
 30
0.0
 11
34.6712223053
 21
23.4475779274
 31
0.0
  0
LINE
  5
247
330
1F
100
AcDbEntity
  8
0
  6
Continuous
 62
   144
370
    18
100
AcDbLine
 10
34.6242291908
 20
23.4187309235
 30
0.0
 11
34.6712223053
 21
23.4475779274
 31
0.0
  0
LINE
  5
248
330
1F
100
AcDbEntity
  8
0
  6
Continuous
 62
   144
370
    18
100
AcDbLine
 10
34.1145908981
 20
23.3916092887
 30
0.0
 11
34.1156145377
 21
23.4475779274
 31
0.0
  0
LINE
  5
249
330
1F
100
AcDbEntity
  8
0
  6
Continuous
 62
   144
370
    18
100
AcDbLine
 10
34.161833262
 20
23.3700868776
 30
0.0
 11
34.1626076523
 21
23.4187309235
 31
0.0
  0
LINE
  5
24A
330
1F
100
AcDbEntity
  8
0
  6
Continuous
 62
   144
370
    18
100
AcDbLine
 10
34.1156145377
 20
23.4475779274
 30
0.0
 11
34.1626076523
 21
23.4187309235
 31
0.0
  0
LINE
  5
24B
330
1F
100
AcDbEntity
  8
0
  6
Continuous
 62
   144
370
    18
100
AcDbLine
 10
34.7618790558
 20
23.3916092887
 30
0.0
 11
34.7605263525
 21
23.4475779274
 31
0.0
  0
LINE
  5
24C
330
1F
100
AcDbEntity
  8
0
  6
Continuous
 62
   144
370
    18
100
AcDbLine
 10
34.8015112796
 20
23.4187309235
 30
0.0
 11
34.8028804662
 21
23.3700868809
 31
0.0
  0
LINE
  5
24D
330
1F
100
AcDbEntity
  8
0
  6
Continuous
 62
   144
370
    18
100
AcDbLine
 10
34.7605263525
 20
23.4475779274
 30
0.0
 11
34.8015112796
 21
23.4187309235
 31
0.0
  0
LINE
  5
24E
330
1F
100
AcDbEntity
  8
0
  6
Continuous
 62
   144
370
    18
100
AcDbLine
 10
33.9839495262
 20
23.3700882029
 30
0.0
 11
33.9853255739
 21
23.4187309235
 31
0.0
  0
LINE
  5
24F
330
1F
100
AcDbEntity
  8
0
  6
Continuous
 62
   144
370
    18
100
AcDbLine
 10
34.0249577872
 20
23.3916092887
 30
0.0
 11
34.0263104905
 21
23.4475779274
 31
0.0
  0
LINE
  5
250
330
1F
100
AcDbEntity
  8
0
  6
Continuous
 62
   144
370
    18
100
AcDbLine
 10
33.9853255635
 20
23.4187309235
 30
0.0
 11
34.0263104905
 21
23.4475779274
 31
0.0
  0
LINE
  5
251
330
1F
100
AcDbEntity
  8
0
  6
Continuous
 62
   144
370
    18
100
AcDbLine
 10
34.8858262314
 20
23.4187309235
 30
0.0
 11
34.8874865807
 21
23.3700881996
 31
0.0
  0
LINE
  5
252
330
1F
100
AcDbEntity
  8
0
  6
Continuous
 62
   144
370
    18
100
AcDbLine
 10
34.9320718335
 20
23.3916092887
 30
0.0
 11
34.9300943135
 21
23.4475779274
 31
0.0
  0
LINE
  5
253
330
1F
100
AcDbEntity
  8
0
  6
Continuous
 62
   144
370
    18
100
AcDbLine
 10
34.8858262213
 20
23.4187309235
 30
0.0
 11
34.9300943135
 21
23.4475779274
 31
0.0
  0
LINE
  5
254
330
1F
100
AcDbEntity
  8
0
  6
Continuous
 62
   144
370
    18
100
AcDbLine
 10
33.8547650096
 20
23.3916092887
 30
0.0
 11
33.8567425295
 21
23.4475779274
 31
0.0
  0
LINE
  5
255
330
1F
100
AcDbEntity
  8
0
  6
Continuous
 62
   144
370
    18
100
AcDbLine
 10
33.8993585508
 20
23.3700868776
 30
0.0
 11
33.9010106217
 21
23.4187309235
 31
0.0
  0
LINE
  5
256
330
1F
100
AcDbEntity
  8
0
  6
Continuous
 62
   144
370
    18
100
AcDbLine
 10
33.8567425295
 20
23.4475779274
 30
0.0
 11
33.9010106217
 21
23.4187309235
 31
0.0
  0
LINE
  5
257
330
1F
100
AcDbEntity
  8
0
  6
Continuous
 62
   144
370
    18
100
AcDbLine
 10
35.0113362304
 20
23.3916092887
 30
0.0
 11
35.0090677128
 21
23.4475779274
 31
0.0
  0
LINE
  5
258
330
1F
100
AcDbEntity
  8
0
  6
Continuous
 62
   144
370
    18
100
AcDbLine
 10
35.0426004058
 20
23.4187309235
 30
0.0
 11
35.0447784673
 21
23.3700868809
 31
0.0
  0
LINE
  5
259
330
1F
100
AcDbEntity
  8
0
  6
Continuous
 62
   144
370
    18
100
AcDbLine
 10
35.0090677128
 20
23.4475779274
 30
0.0
 11
35.0426004058
 21
23.4187309235
 31
0.0
  0
LINE
  5
25A
330
1F
100
AcDbEntity
  8
0
  6
Continuous
 62
   144
370
    18
100
AcDbLine
 10
35.1551893821
 20
23.3916092887
 30
0.0
 11
35.1523927466
 21
23.4475779274
 31
0.0
  0
LINE
  5
25B
330
1F
100
AcDbEntity
  8
0
  6
Continuous
 62
   144
370
    18
100
AcDbLine
 10
35.1796495142
 20
23.4187309235
 30
0.0
 11
35.1822873872
 21
23.3700868809
 31
0.0
  0
LINE
  5
25C
330
1F
100
AcDbEntity
  8
0
  6
Continuous
 62
   144
370
    18
100
AcDbLine
 10
35.1523927466
 20
23.4475779274
 30
0.0
 11
35.1796495142
 21
23.4187309235
 31
0.0
  0
LINE
  5
25D
330
1F
100
AcDbEntity
  8
0
  6
Continuous
 62
   144
370
    18
100
AcDbLine
 10
33.604536245
 20
23.3700882029
 30
0.0
 11
33.6071873365
 21
23.4187309235
 31
0.0
  0
LINE
  5
25E
330
1F
100
AcDbEntity
  8
0
  6
Continuous
 62
   144
370
    18
100
AcDbLine
 10
33.6316474609
 20
23.3916092887
 30
0.0
 11
33.6344440964
 21
23.4475779274
 31
0.0
  0
LINE
  5
25F
330
1F
100
AcDbEntity
  8
0
  6
Continuous
 62
   144
370
    18
100
AcDbLine
 10
33.6071873289
 20
23.4187309235
 30
0.0
 11
33.6344440964
 21
23.4475779274
 31
0.0
  0
LINE
  5
260
330
1F
100
AcDbEntity
  8
0
  6
Continuous
 62
   144
370
    18
100
AcDbLine
 10
35.2928093887
 20
23.4187309235
 30
0.0
 11
35.2958420441
 21
23.3700881996
 31
0.0
  0
LINE
  5
261
330
1F
100
AcDbEntity
  8
0
  6
Continuous
 62
   144
370
    18
100
AcDbLine
 10
35.3263934987
 20
23.3916092887
 30
0.0
 11
35.3229683337
 21
23.4475779274
 31
0.0
  0
LINE
  5
262
330
1F
100
AcDbEntity
  8
0
  6
Continuous
 62
   144
370
    18
100
AcDbLine
 10
35.2928093826
 20
23.4187309235
 30
0.0
 11
35.3229683337
 21
23.4475779274
 31
0.0
  0
LINE
  5
263
330
1F
100
AcDbEntity
  8
0
  6
Continuous
 62
   144
370
    18
100
AcDbLine
 10
33.4604433443
 20
23.3916092887
 30
0.0
 11
33.4638685094
 21
23.4475779274
 31
0.0
  0
LINE
  5
264
330
1F
100
AcDbEntity
  8
0
  6
Continuous
 62
   144
370
    18
100
AcDbLine
 10
33.4910099259
 20
23.3700868776
 30
0.0
 11
33.4940274605
 21
23.4187309235
 31
0.0
  0
LINE
  5
265
330
1F
100
AcDbEntity
  8
0
  6
Continuous
 62
   144
370
    18
100
AcDbLine
 10
33.4638685094
 20
23.4475779274
 30
0.0
 11
33.4940274605
 21
23.4187309235
 31
0.0
  0
LINE
  5
266
330
1F
100
AcDbEntity
  8
0
  6
Continuous
 62
     7
370
    25
100
AcDbLine
 10
33.3729642961
 20
23.3700868776
 30
0.0
 11
33.3763765596
 21
23.4187309235
 31
0.0
  0
LINE
  5
267
330
1F
100
AcDbEntity
  8
0
  6
Continuous
 62
   144
370
    18
100
AcDbLine
 10
33.3810811488
 20
23.3916092887
 30
0.0
 11
33.3847976706
 21
23.4475779274
 31
0.0
  0
LINE
  5
268
330
1F
100
AcDbEntity
  8
0
  6
Continuous
 62
   144
370
    18
100
AcDbLine
 10
33.3763765562
 20
23.4187309235
 30
0.0
 11
33.3847976706
 21
23.4475779274
 31
0.0
  0
LINE
  5
269
330
1F
100
AcDbEntity
  8
0
  6
Continuous
 62
   144
370
    18
100
AcDbLine
 10
35.4104602868
 20
23.4187309235
 30
0.0
 11
35.4138896492
 21
23.3700881996
 31
0.0
  0
LINE
  5
26A
330
1F
100
AcDbEntity
  8
0
  6
Continuous
 62
   144
370
    18
100
AcDbLine
 10
35.4340169056
 20
23.3916092887
 30
0.0
 11
35.4301966304
 21
23.4475779274
 31
0.0
  0
LINE
  5
26B
330
1F
100
AcDbEntity
  8
0
  6
Continuous
 62
   144
370
    18
100
AcDbLine
 10
35.4104602834
 20
23.4187309235
 30
0.0
 11
35.4301966304
 21
23.4475779274
 31
0.0
  0
LINE
  5
26C
330
1F
100
AcDbEntity
  8
0
  6
Continuous
 62
   144
370
    18
100
AcDbLine
 10
33.3528199375
 20
23.3916092887
 30
0.0
 11
33.3566402127
 21
23.4475779274
 31
0.0
  0
LINE
  5
26D
330
1F
100
AcDbEntity
  8
0
  6
Continuous
 62
   144
370
    18
100
AcDbLine
 10
33.3566402127
 20
23.4475779274
 30
0.0
 11
33.3763765596
 21
23.4187309235
 31
0.0
  0
LINE
  5
26E
330
1F
100
AcDbEntity
  8
0
  6
Continuous
 62
     7
370
    25
100
AcDbLine
 10
35.4543585341
 20
23.3916092887
 30
0.0
 11
35.4504635801
 21
23.4475779274
 31
0.0
  0
LINE
  5
26F
330
1F
100
AcDbEntity
  8
0
  6
Continuous
 62
   144
370
    18
100
AcDbLine
 10
35.4345385473
 20
23.4187309235
 30
0.0
 11
35.4380490991
 21
23.3700881996
 31
0.0
  0
LINE
  5
270
330
1F
100
AcDbEntity
  8
0
  6
Continuous
 62
   144
370
    18
100
AcDbLine
 10
35.4345385448
 20
23.4187309235
 30
0.0
 11
35.4504635801
 21
23.4475779274
 31
0.0
  0
LINE
  5
271
330
1F
100
AcDbEntity
  8
0
  6
Continuous
 62
     7
370
    25
100
AcDbLine
 10
33.332478309
 20
23.3916092887
 30
0.0
 11
33.3363732629
 21
23.4475779274
 31
0.0
  0
LINE
  5
272
330
1F
100
AcDbEntity
  8
0
  6
Continuous
 62
   144
370
    18
100
AcDbLine
 10
33.3488052501
 20
23.3700868776
 30
0.0
 11
33.3522982982
 21
23.4187309235
 31
0.0
  0
LINE
  5
273
330
1F
100
AcDbEntity
  8
0
  6
Continuous
 62
   144
370
    18
100
AcDbLine
 10
33.3363732629
 20
23.4475779274
 30
0.0
 11
33.3522982982
 21
23.4187309235
 31
0.0
  0
LINE
  5
274
330
1F
100
AcDbEntity
  8
0
  6
Continuous
 62
   144
370
    18
100
AcDbLine
 10
33.3202110753
 20
23.3916092887
 30
0.0
 11
33.3241510651
 21
23.4475779274
 31
0.0
  0
LINE
  5
275
330
1F
100
AcDbEntity
  8
0
  6
Continuous
 62
   144
370
    18
100
AcDbLine
 10
33.3241510651
 20
23.4475779274
 30
0.0
 11
33.3346206806
 21
23.4223941523
 31
0.0
  0
LINE
  5
276
330
1F
100
AcDbEntity
  8
0
  6
Continuous
 62
     7
370
    25
100
AcDbLine
 10
33.3200666375
 20
23.4475779274
 30
0.0
 11
33.3233215862
 21
23.4357949509
 31
0.0
  0
LINE
  5
277
330
1F
100
AcDbEntity
  8
0
  6
Continuous
 62
   144
370
    18
100
AcDbLine
 10
33.3200666375
 20
23.4475779274
 30
0.0
 11
33.3141792367
 21
23.4744316448
 31
0.0
  0
LINE
  5
278
330
1F
100
AcDbEntity
  8
0
  6
Continuous
 62
   144
370
    18
100
AcDbLine
 10
33.3161115976
 20
23.3916092888
 30
0.0
 11
33.3200666375
 21
23.4475779274
 31
0.0
  0
LINE
  5
279
330
1F
100
AcDbEntity
  8
0
  6
Continuous
 62
   144
370
    18
100
AcDbLine
 10
33.3244609286
 20
23.3700868776
 30
0.0
 11
33.3258278203
 21
23.3886886483
 31
0.0
  0
LINE
  5
27A
330
1F
100
AcDbEntity
  8
0
  6
Continuous
 62
   144
370
    18
100
AcDbLine
 10
35.4345385473
 20
23.4187309235
 30
0.0
 11
35.4301966304
 21
23.4475779274
 31
0.0
  0
LINE
  5
27B
330
1F
100
AcDbEntity
  8
0
  6
Continuous
 62
   144
370
    18
100
AcDbLine
 10
33.3566402127
 20
23.4475779274
 30
0.0
 11
33.3522982958
 21
23.4187309235
 31
0.0
  0
LINE
  5
27C
330
1F
100
AcDbEntity
  8
0
  6
Continuous
 62
   144
370
    18
100
AcDbLine
 10
35.4057556943
 20
23.3916092887
 30
0.0
 11
35.4020391725
 21
23.4475779274
 31
0.0
  0
LINE
  5
27D
330
1F
100
AcDbEntity
  8
0
  6
Continuous
 62
   144
370
    18
100
AcDbLine
 10
35.4104602868
 20
23.4187309235
 30
0.0
 11
35.4020391725
 21
23.4475779274
 31
0.0
  0
LINE
  5
27E
330
1F
100
AcDbEntity
  8
0
  6
Continuous
 62
   144
370
    18
100
AcDbLine
 10
33.4443382283
 20
23.3700868776
 30
0.0
 11
33.4475118267
 21
23.4187309235
 31
0.0
  0
LINE
  5
27F
330
1F
100
AcDbEntity
  8
0
  6
Continuous
 62
   144
370
    18
100
AcDbLine
 10
35.2928093826
 20
23.4187309235
 30
0.0
 11
35.295826917
 21
23.3700868809
 31
0.0
  0
LINE
  5
280
330
1F
100
AcDbEntity
  8
0
  6
Continuous
 62
   144
370
    18
100
AcDbLine
 10
33.7755006126
 20
23.3916092887
 30
0.0
 11
33.7777691303
 21
23.4475779274
 31
0.0
  0
LINE
  5
281
330
1F
100
AcDbEntity
  8
0
  6
Continuous
 62
   144
370
    18
100
AcDbLine
 10
33.7420583756
 20
23.3700868776
 30
0.0
 11
33.7442364372
 21
23.4187309235
 31
0.0
  0
LINE
  5
282
330
1F
100
AcDbEntity
  8
0
  6
Continuous
 62
   144
370
    18
100
AcDbLine
 10
33.7777691303
 20
23.4475779274
 30
0.0
 11
33.7442364372
 21
23.4187309235
 31
0.0
  0
LINE
  5
283
330
1F
100
AcDbEntity
  8
0
  6
Continuous
 62
   144
370
    18
100
AcDbLine
 10
34.9663936528
 20
23.4187309235
 30
0.0
 11
34.9683256674
 21
23.3700881996
 31
0.0
  0
LINE
  5
284
330
1F
100
AcDbEntity
  8
0
  6
Continuous
 62
   144
370
    18
100
AcDbLine
 10
34.9663936624
 20
23.4187309235
 30
0.0
 11
34.9300943135
 21
23.4475779274
 31
0.0
  0
LINE
  5
285
330
1F
100
AcDbEntity
  8
0
  6
Continuous
 62
   144
370
    18
100
AcDbLine
 10
33.8185207993
 20
23.3700868776
 30
0.0
 11
33.8204431807
 21
23.4187309235
 31
0.0
  0
LINE
  5
286
330
1F
100
AcDbEntity
  8
0
  6
Continuous
 62
   144
370
    18
100
AcDbLine
 10
33.8567425295
 20
23.4475779274
 30
0.0
 11
33.8204431807
 21
23.4187309235
 31
0.0
  0
LINE
  5
287
330
1F
100
AcDbEntity
  8
0
  6
Continuous
 62
     7
370
    25
100
AcDbLine
 10
33.9853255739
 20
23.4187309235
 30
0.0
 11
33.9398003563
 21
23.4475779274
 31
0.0
  0
LINE
  5
288
330
1F
100
AcDbEntity
  8
0
  6
Continuous
 62
   144
370
    18
100
AcDbLine
 10
33.9839495157
 20
23.3700882029
 30
0.0
 11
33.9853255635
 21
23.4187309235
 31
0.0
  0
LINE
  5
289
330
1F
100
AcDbEntity
  8
0
  6
Continuous
 62
   144
370
    18
100
AcDbLine
 10
33.9381288842
 20
23.3916092887
 30
0.0
 11
33.9398003563
 21
23.4475779274
 31
0.0
  0
LINE
  5
28A
330
1F
100
AcDbEntity
  8
0
  6
Continuous
 62
     7
370
    25
100
AcDbLine
 10
34.8470364867
 20
23.4475779274
 30
0.0
 11
34.8015112691
 21
23.4187309235
 31
0.0
  0
LINE
  5
28B
330
1F
100
AcDbEntity
  8
0
  6
Continuous
 62
   144
370
    18
100
AcDbLine
 10
34.8487079588
 20
23.3916092887
 30
0.0
 11
34.8470364867
 21
23.4475779274
 31
0.0
  0
LINE
  5
28C
330
1F
100
AcDbEntity
  8
0
  6
Continuous
 62
   144
370
    18
100
AcDbLine
 10
34.8015112691
 20
23.4187309235
 30
0.0
 11
34.802880456
 21
23.3700868809
 31
0.0
  0
LINE
  5
28D
330
1F
100
AcDbEntity
  8
0
  6
Continuous
 62
   144
370
    18
100
AcDbLine
 10
34.8068188375
 20
23.4744316448
 30
0.0
 11
34.8015112691
 21
23.4187309235
 31
0.0
  0
LINE
  5
28E
330
1F
100
AcDbEntity
  8
0
  6
Continuous
 62
   144
370
    18
100
AcDbLine
 10
34.8470364867
 20
23.4475779274
 30
0.0
 11
34.8068188375
 21
23.4744316448
 31
0.0
  0
LINE
  5
28F
330
1F
100
AcDbEntity
  8
0
  6
Continuous
 62
   144
370
    18
100
AcDbLine
 10
33.9853255739
 20
23.4187309235
 30
0.0
 11
33.9800180055
 21
23.4744316448
 31
0.0
  0
LINE
  5
290
330
1F
100
AcDbEntity
  8
0
  6
Continuous
 62
   144
370
    18
100
AcDbLine
 10
34.534421601
 20
23.4744316448
 30
0.0
 11
34.4869671935
 21
23.4475779274
 31
0.0
  0
LINE
  5
291
330
1F
100
AcDbEntity
  8
0
  6
Continuous
 62
   144
370
    18
100
AcDbLine
 10
34.5344216123
 20
23.4744316431
 30
0.0
 11
34.5326112995
 21
23.4187309249
 31
0.0
  0
LINE
  5
292
330
1F
100
AcDbEntity
  8
0
  6
Continuous
 62
   144
370
    18
100
AcDbLine
 10
34.2542255436
 20
23.4187309235
 30
0.0
 11
34.2524152307
 21
23.4744316448
 31
0.0
  0
LINE
  5
293
330
1F
100
AcDbEntity
  8
0
  6
Continuous
 62
   144
370
    18
100
AcDbLine
 10
34.2998696496
 20
23.4475779274
 30
0.0
 11
34.2524152307
 21
23.4744316448
 31
0.0
  0
LINE
  5
294
330
1F
100
AcDbEntity
  8
0
  6
Continuous
 62
     7
370
    25
100
AcDbLine
 10
34.3934184215
 20
23.3916092887
 30
0.0
 11
34.3934184215
 21
23.4475779274
 31
0.0
  0
LINE
  5
295
330
1F
100
AcDbEntity
  8
0
  6
Continuous
 62
   144
370
    18
100
AcDbLine
 10
34.439934044
 20
23.4187309235
 30
0.0
 11
34.44009089
 21
23.3700881996
 31
0.0
  0
LINE
  5
296
330
1F
100
AcDbEntity
  8
0
  6
Continuous
 62
   144
370
    18
100
AcDbLine
 10
34.3469027878
 20
23.4187309235
 30
0.0
 11
34.346746724
 21
23.3700868809
 31
0.0
  0
LINE
  5
297
330
1F
100
AcDbEntity
  8
0
  6
Continuous
 62
   144
370
    18
100
AcDbLine
 10
35.3011460883
 20
23.5304252494
 30
0.0
 11
35.3315201586
 21
23.5574014823
 31
0.0
  0
LINE
  5
298
330
1F
100
AcDbEntity
  8
0
  6
Continuous
 62
   144
370
    18
100
AcDbLine
 10
35.3315201586
 20
23.5574014823
 30
0.0
 11
35.3280821219
 21
23.6133161479
 31
0.0
  0
LINE
  5
299
330
1F
100
AcDbEntity
  8
0
  6
Continuous
 62
     7
370
    25
100
AcDbLine
 10
35.35335577
 20
23.6961823391
 30
0.0
 11
35.3366527358
 21
23.7232161723
 31
0.0
  0
LINE
  5
29A
330
1F
100
AcDbEntity
  8
0
  6
Continuous
 62
   144
370
    18
100
AcDbLine
 10
35.3246301439
 20
23.6673733604
 30
0.0
 11
35.3533654536
 21
23.6961920507
 31
0.0
  0
LINE
  5
29B
330
1F
100
AcDbEntity
  8
0
  6
Continuous
 62
   144
370
    18
100
AcDbLine
 10
35.3061501701
 20
23.6961823391
 30
0.0
 11
35.3366527358
 21
23.7232161723
 31
0.0
  0
LINE
  5
29C
330
1F
100
AcDbEntity
  8
0
  6
Continuous
 62
   144
370
    18
100
AcDbLine
 10
35.3061439404
 20
23.6961920507
 30
0.0
 11
35.3246301439
 21
23.6673733604
 31
0.0
  0
LINE
  5
29D
330
1F
100
AcDbEntity
  8
0
  6
Continuous
 62
   144
370
    18
100
AcDbLine
 10
35.3366517791
 20
23.7232318778
 30
0.0
 11
35.3332334292
 21
23.7792070456
 31
0.0
  0
LINE
  5
29E
330
1F
100
AcDbEntity
  8
0
  6
Continuous
 62
   144
370
    18
100
AcDbLine
 10
35.3498286869
 20
23.7503032092
 30
0.0
 11
35.3533853558
 21
23.6962392152
 31
0.0
  0
LINE
  5
29F
330
1F
100
AcDbEntity
  8
0
  6
Continuous
 62
   144
370
    18
100
AcDbLine
 10
35.3498286869
 20
23.7503032092
 30
0.0
 11
35.3332334292
 21
23.7792070456
 31
0.0
  0
LINE
  5
2A0
330
1F
100
AcDbEntity
  8
0
  6
Continuous
 62
     7
370
    25
100
AcDbLine
 10
33.4773381874
 20
23.6402209287
 30
0.0
 11
33.4806886471
 21
23.6962152285
 31
0.0
  0
LINE
  5
2A1
330
1F
100
AcDbEntity
  8
0
  6
Continuous
 62
   144
370
    18
100
AcDbLine
 10
33.5093431074
 20
23.6133161479
 30
0.0
 11
33.5126082481
 21
23.6673733604
 31
0.0
  0
LINE
  5
2A2
330
1F
100
AcDbEntity
  8
0
  6
Continuous
 62
   144
370
    18
100
AcDbLine
 10
33.4587547211
 20
23.6133161479
 30
0.0
 11
33.4622066991
 21
23.6673733604
 31
0.0
  0
LINE
  5
2A3
330
1F
100
AcDbEntity
  8
0
  6
Continuous
 62
   144
370
    18
100
AcDbLine
 10
33.4773381874
 20
23.6402209287
 30
0.0
 11
33.4587547211
 21
23.6133161479
 31
0.0
  0
LINE
  5
2A4
330
1F
100
AcDbEntity
  8
0
  6
Continuous
 62
   144
370
    18
100
AcDbLine
 10
33.4622066991
 20
23.6673733604
 30
0.0
 11
33.4806929088
 21
23.6961920507
 31
0.0
  0
LINE
  5
2A5
330
1F
100
AcDbEntity
  8
0
  6
Continuous
 62
   144
370
    18
100
AcDbLine
 10
33.4856848487
 20
23.5303686765
 30
0.0
 11
33.5060911534
 21
23.5574014823
 31
0.0
  0
LINE
  5
2A6
330
1F
100
AcDbEntity
  8
0
  6
Continuous
 62
   144
370
    18
100
AcDbLine
 10
33.5395403496
 20
23.5303686765
 30
0.0
 11
33.5060911534
 21
23.5574014823
 31
0.0
  0
LINE
  5
2A7
330
1F
100
AcDbEntity
  8
0
  6
Continuous
 62
   144
370
    18
100
AcDbLine
 10
33.5174659771
 20
23.5017916667
 30
0.0
 11
33.5395477936
 21
23.5303783134
 31
0.0
  0
LINE
  5
2A8
330
1F
100
AcDbEntity
  8
0
  6
Continuous
 62
   144
370
    18
100
AcDbLine
 10
33.4856741314
 20
23.5303783134
 30
0.0
 11
33.5174659771
 21
23.5017916667
 31
0.0
  0
LINE
  5
2A9
330
1F
100
AcDbEntity
  8
0
  6
Continuous
 62
   144
370
    18
100
AcDbLine
 10
35.371557153
 20
23.6133161479
 30
0.0
 11
35.3445723053
 21
23.584490979
 31
0.0
  0
LINE
  5
2AA
330
1F
100
AcDbEntity
  8
0
  6
Continuous
 62
   144
370
    18
100
AcDbLine
 10
35.3568774425
 20
23.6402209287
 30
0.0
 11
35.371557153
 21
23.6133161479
 31
0.0
  0
LINE
  5
2AB
330
1F
100
AcDbEntity
  8
0
  6
Continuous
 62
   144
370
    18
100
AcDbLine
 10
35.3877783514
 20
23.5304014284
 30
0.0
 11
35.3914553275
 21
23.4744316448
 31
0.0
  0
LINE
  5
2AC
330
1F
100
AcDbEntity
  8
0
  6
Continuous
 62
   144
370
    18
100
AcDbLine
 10
35.3662055016
 20
23.4475779274
 30
0.0
 11
35.3914553275
 21
23.4744316448
 31
0.0
  0
LINE
  5
2AD
330
1F
100
AcDbEntity
  8
0
  6
Continuous
 62
   144
370
    18
100
AcDbLine
 10
35.3625700302
 20
23.5017916667
 30
0.0
 11
35.3877890046
 21
23.5303783134
 31
0.0
  0
LINE
  5
2AE
330
1F
100
AcDbEntity
  8
0
  6
Continuous
 62
   144
370
    18
100
AcDbLine
 10
35.3625700302
 20
23.5017916667
 30
0.0
 11
35.3662055016
 21
23.4475779274
 31
0.0
  0
LINE
  5
2AF
330
1F
100
AcDbEntity
  8
0
  6
Continuous
 62
     7
370
    25
100
AcDbLine
 10
35.3877769658
 20
23.5303783134
 30
0.0
 11
35.3982697845
 21
23.5017916667
 31
0.0
  0
LINE
  5
2B0
330
1F
100
AcDbEntity
  8
0
  6
Continuous
 62
   144
370
    18
100
AcDbLine
 10
35.3982697845
 20
23.5017916667
 30
0.0
 11
35.4020391725
 21
23.4475779274
 31
0.0
  0
LINE
  5
2B1
330
1F
100
AcDbEntity
  8
0
  6
Continuous
 62
   144
370
    18
100
AcDbLine
 10
35.3914553275
 20
23.4744316448
 30
0.0
 11
35.4020391725
 21
23.4475779274
 31
0.0
  0
LINE
  5
2B2
330
1F
100
AcDbEntity
  8
0
  6
Continuous
 62
   144
370
    18
100
AcDbLine
 10
35.3982697845
 20
23.5017916667
 30
0.0
 11
35.4199014995
 21
23.5303783094
 31
0.0
  0
LINE
  5
2B3
330
1F
100
AcDbEntity
  8
0
  6
Continuous
 62
   144
370
    18
100
AcDbLine
 10
35.4198942102
 20
23.5303686765
 30
0.0
 11
35.4113184462
 21
23.5574014823
 31
0.0
  0
LINE
  5
2B4
330
1F
100
AcDbEntity
  8
0
  6
Continuous
 62
   144
370
    18
100
AcDbLine
 10
35.387780503
 20
23.5303686765
 30
0.0
 11
35.4113184462
 21
23.5574014823
 31
0.0
  0
LINE
  5
2B5
330
1F
100
AcDbEntity
  8
0
  6
Continuous
 62
   144
370
    18
100
AcDbLine
 10
35.3895819804
 20
23.7503032092
 30
0.0
 11
35.3769480687
 21
23.7792070456
 31
0.0
  0
LINE
  5
2B6
330
1F
100
AcDbEntity
  8
0
  6
Continuous
 62
   144
370
    18
100
AcDbLine
 10
35.3895819804
 20
23.7503032092
 30
0.0
 11
35.3932830663
 21
23.6962392152
 31
0.0
  0
LINE
  5
2B7
330
1F
100
AcDbEntity
  8
0
  6
Continuous
 62
   144
370
    18
100
AcDbLine
 10
35.3932830663
 20
23.6962392152
 30
0.0
 11
35.3805254201
 21
23.7232318778
 31
0.0
  0
LINE
  5
2B8
330
1F
100
AcDbEntity
  8
0
  6
Continuous
 62
   144
370
    18
100
AcDbLine
 10
35.3805254201
 20
23.7232318778
 30
0.0
 11
35.3769480687
 21
23.7792070456
 31
0.0
  0
LINE
  5
2B9
330
1F
100
AcDbEntity
  8
0
  6
Continuous
 62
   144
370
    18
100
AcDbLine
 10
33.4890382108
 20
23.584490979
 30
0.0
 11
33.4587547211
 21
23.6133161479
 31
0.0
  0
LINE
  5
2BA
330
1F
100
AcDbEntity
  8
0
  6
Continuous
 62
   144
370
    18
100
AcDbLine
 10
33.4856907609
 20
23.5304252494
 30
0.0
 11
33.4553166844
 21
23.5574014823
 31
0.0
  0
LINE
  5
2BB
330
1F
100
AcDbEntity
  8
0
  6
Continuous
 62
   144
370
    18
100
AcDbLine
 10
33.4553166844
 20
23.5574014823
 30
0.0
 11
33.4587547211
 21
23.6133161479
 31
0.0
  0
LINE
  5
2BC
330
1F
100
AcDbEntity
  8
0
  6
Continuous
 62
   144
370
    18
100
AcDbLine
 10
33.4352095729
 20
23.4744316448
 30
0.0
 11
33.4638685094
 21
23.4475779274
 31
0.0
  0
LINE
  5
2BD
330
1F
100
AcDbEntity
  8
0
  6
Continuous
 62
   144
370
    18
100
AcDbLine
 10
33.4475118267
 20
23.4187309235
 30
0.0
 11
33.4638685094
 21
23.4475779274
 31
0.0
  0
LINE
  5
2BE
330
1F
100
AcDbEntity
  8
0
  6
Continuous
 62
   144
370
    18
100
AcDbLine
 10
33.4334514926
 20
23.6962392152
 30
0.0
 11
33.4501841072
 21
23.7232161723
 31
0.0
  0
LINE
  5
2BF
330
1F
100
AcDbEntity
  8
0
  6
Continuous
 62
   144
370
    18
100
AcDbLine
 10
33.4501841072
 20
23.7232161723
 30
0.0
 11
33.4536043011
 21
23.7792214746
 31
0.0
  0
LINE
  5
2C0
330
1F
100
AcDbEntity
  8
0
  6
Continuous
 62
   144
370
    18
100
AcDbLine
 10
35.3969237183
 20
23.6402209287
 30
0.0
 11
35.4075879578
 21
23.6133161479
 31
0.0
  0
LINE
  5
2C1
330
1F
100
AcDbEntity
  8
0
  6
Continuous
 62
   144
370
    18
100
AcDbLine
 10
35.3932535114
 20
23.6962152285
 30
0.0
 11
35.3969237183
 21
23.6402209287
 31
0.0
  0
LINE
  5
2C2
330
1F
100
AcDbEntity
  8
0
  6
Continuous
 62
   144
370
    18
100
AcDbLine
 10
35.3932520983
 20
23.6961920507
 30
0.0
 11
35.4038423422
 21
23.6673733604
 31
0.0
  0
LINE
  5
2C3
330
1F
100
AcDbEntity
  8
0
  6
Continuous
 62
   144
370
    18
100
AcDbLine
 10
35.4075879578
 20
23.6133161479
 30
0.0
 11
35.4038423422
 21
23.6673733604
 31
0.0
  0
LINE
  5
2C4
330
1F
100
AcDbEntity
  8
0
  6
Continuous
 62
   144
370
    18
100
AcDbLine
 10
33.4116817362
 20
23.5574014823
 30
0.0
 11
33.41527969
 21
23.6133161479
 31
0.0
  0
LINE
  5
2C5
330
1F
100
AcDbEntity
  8
0
  6
Continuous
 62
   144
370
    18
100
AcDbLine
 10
33.4387403734
 20
23.5304252494
 30
0.0
 11
33.4116817362
 21
23.5574014823
 31
0.0
  0
LINE
  5
2C6
330
1F
100
AcDbEntity
  8
0
  6
Continuous
 62
   144
370
    18
100
AcDbLine
 10
33.4387403734
 20
23.5304252494
 30
0.0
 11
33.442264543
 21
23.584490979
 31
0.0
  0
LINE
  5
2C7
330
1F
100
AcDbEntity
  8
0
  6
Continuous
 62
   144
370
    18
100
AcDbLine
 10
33.442264543
 20
23.584490979
 30
0.0
 11
33.41527969
 21
23.6133161479
 31
0.0
  0
LINE
  5
2C8
330
1F
100
AcDbEntity
  8
0
  6
Continuous
 62
   144
370
    18
100
AcDbLine
 10
33.39538152
 20
23.4744316448
 30
0.0
 11
33.4206313414
 21
23.4475779274
 31
0.0
  0
LINE
  5
2C9
330
1F
100
AcDbEntity
  8
0
  6
Continuous
 62
     7
370
    25
100
AcDbLine
 10
33.39538152
 20
23.4744316448
 30
0.0
 11
33.3990584961
 21
23.5304014284
 31
0.0
  0
LINE
  5
2CA
330
1F
100
AcDbEntity
  8
0
  6
Continuous
 62
   144
370
    18
100
AcDbLine
 10
33.3990478428
 20
23.5303783134
 30
0.0
 11
33.4242668129
 21
23.5017916667
 31
0.0
  0
LINE
  5
2CB
330
1F
100
AcDbEntity
  8
0
  6
Continuous
 62
   144
370
    18
100
AcDbLine
 10
33.4242668129
 20
23.5017916667
 30
0.0
 11
33.4206313414
 21
23.4475779274
 31
0.0
  0
LINE
  5
2CC
330
1F
100
AcDbEntity
  8
0
  6
Continuous
 62
     7
370
    25
100
AcDbLine
 10
33.3885670586
 20
23.5017916667
 30
0.0
 11
33.3990598816
 21
23.5303783134
 31
0.0
  0
LINE
  5
2CD
330
1F
100
AcDbEntity
  8
0
  6
Continuous
 62
   144
370
    18
100
AcDbLine
 10
33.3847976706
 20
23.4475779274
 30
0.0
 11
33.39538152
 21
23.4744316448
 31
0.0
  0
LINE
  5
2CE
330
1F
100
AcDbEntity
  8
0
  6
Continuous
 62
   144
370
    18
100
AcDbLine
 10
33.3885670586
 20
23.5017916667
 30
0.0
 11
33.3847976706
 21
23.4475779274
 31
0.0
  0
LINE
  5
2CF
330
1F
100
AcDbEntity
  8
0
  6
Continuous
 62
   144
370
    18
100
AcDbLine
 10
33.366935344
 20
23.5303783134
 30
0.0
 11
33.3885670586
 21
23.5017916667
 31
0.0
  0
LINE
  5
2D0
330
1F
100
AcDbEntity
  8
0
  6
Continuous
 62
   144
370
    18
100
AcDbLine
 10
33.3990563444
 20
23.5303686765
 30
0.0
 11
33.3755183969
 21
23.5574014823
 31
0.0
  0
LINE
  5
2D1
330
1F
100
AcDbEntity
  8
0
  6
Continuous
 62
   144
370
    18
100
AcDbLine
 10
33.3669426362
 20
23.5303686765
 30
0.0
 11
33.3755183969
 21
23.5574014823
 31
0.0
  0
LINE
  5
2D2
330
1F
100
AcDbEntity
  8
0
  6
Continuous
 62
   144
370
    18
100
AcDbLine
 10
33.3935537811
 20
23.6962392152
 30
0.0
 11
33.397254867
 21
23.7503032092
 31
0.0
  0
LINE
  5
2D3
330
1F
100
AcDbEntity
  8
0
  6
Continuous
 62
   144
370
    18
100
AcDbLine
 10
33.3935537811
 20
23.6962392152
 30
0.0
 11
33.4063104218
 21
23.7232161723
 31
0.0
  0
LINE
  5
2D4
330
1F
100
AcDbEntity
  8
0
  6
Continuous
 62
   144
370
    18
100
AcDbLine
 10
33.4063104218
 20
23.7232161723
 30
0.0
 11
33.4098897028
 21
23.7792214746
 31
0.0
  0
LINE
  5
2D5
330
1F
100
AcDbEntity
  8
0
  6
Continuous
 62
   144
370
    18
100
AcDbLine
 10
33.4098887744
 20
23.7792070456
 30
0.0
 11
33.397254867
 21
23.7503032092
 31
0.0
  0
LINE
  5
2D6
330
1F
100
AcDbEntity
  8
0
  6
Continuous
 62
     7
370
    25
100
AcDbLine
 10
35.4403140204
 20
23.584490979
 30
0.0
 11
35.4442030727
 21
23.5304252494
 31
0.0
  0
LINE
  5
2D7
330
1F
100
AcDbEntity
  8
0
  6
Continuous
 62
   144
370
    18
100
AcDbLine
 10
35.4397349517
 20
23.5574014823
 30
0.0
 11
35.43590032
 21
23.6133161479
 31
0.0
  0
LINE
  5
2D8
330
1F
100
AcDbEntity
  8
0
  6
Continuous
 62
   144
370
    18
100
AcDbLine
 10
35.4442181233
 20
23.5304252494
 30
0.0
 11
35.4397349517
 21
23.5574014823
 31
0.0
  0
LINE
  5
2D9
330
1F
100
AcDbEntity
  8
0
  6
Continuous
 62
   144
370
    18
100
AcDbLine
 10
35.4403140204
 20
23.584490979
 30
0.0
 11
35.43590032
 21
23.6133161479
 31
0.0
  0
LINE
  5
2DA
330
1F
100
AcDbEntity
  8
0
  6
Continuous
 62
     7
370
    25
100
AcDbLine
 10
35.4601883566
 20
23.5574014823
 30
0.0
 11
35.4562787655
 21
23.6133161479
 31
0.0
  0
LINE
  5
2DB
330
1F
100
AcDbEntity
  8
0
  6
Continuous
 62
   144
370
    18
100
AcDbLine
 10
35.4442030727
 20
23.5304252494
 30
0.0
 11
35.4601883566
 21
23.5574014823
 31
0.0
  0
LINE
  5
2DC
330
1F
100
AcDbEntity
  8
0
  6
Continuous
 62
   144
370
    18
100
AcDbLine
 10
35.4562787655
 20
23.6133161479
 30
0.0
 11
35.4403140204
 21
23.584490979
 31
0.0
  0
LINE
  5
2DD
330
1F
100
AcDbEntity
  8
0
  6
Continuous
 62
   144
370
    18
100
AcDbLine
 10
35.4605199218
 20
23.5304252494
 30
0.0
 11
35.4601883566
 21
23.5574014823
 31
0.0
  0
LINE
  5
2DE
330
1F
100
AcDbEntity
  8
0
  6
Continuous
 62
   144
370
    18
100
AcDbLine
 10
35.4587243165
 20
23.5549308173
 30
0.0
 11
35.4605199218
 21
23.5304252494
 31
0.0
  0
LINE
  5
2DF
330
1F
100
AcDbEntity
  8
0
  6
Continuous
 62
     7
370
    25
100
AcDbLine
 10
35.4255440066
 20
23.6961920507
 30
0.0
 11
35.4320501389
 21
23.6673733604
 31
0.0
  0
LINE
  5
2E0
330
1F
100
AcDbEntity
  8
0
  6
Continuous
 62
   144
370
    18
100
AcDbLine
 10
35.43590032
 20
23.6133161479
 30
0.0
 11
35.4320501389
 21
23.6673733604
 31
0.0
  0
LINE
  5
2E1
330
1F
100
AcDbEntity
  8
0
  6
Continuous
 62
   144
370
    18
100
AcDbLine
 10
35.4255439737
 20
23.6962152285
 30
0.0
 11
35.4293327129
 21
23.6402209287
 31
0.0
  0
LINE
  5
2E2
330
1F
100
AcDbEntity
  8
0
  6
Continuous
 62
   144
370
    18
100
AcDbLine
 10
35.4320501389
 20
23.6673733604
 30
0.0
 11
35.4499876602
 21
23.6961920507
 31
0.0
  0
LINE
  5
2E3
330
1F
100
AcDbEntity
  8
0
  6
Continuous
 62
   144
370
    18
100
AcDbLine
 10
35.4499816154
 20
23.6961823391
 30
0.0
 11
35.4454595977
 21
23.7232161723
 31
0.0
  0
LINE
  5
2E4
330
1F
100
AcDbEntity
  8
0
  6
Continuous
 62
   144
370
    18
100
AcDbLine
 10
35.4255461991
 20
23.6961823391
 30
0.0
 11
35.4454595977
 21
23.7232161723
 31
0.0
  0
LINE
  5
2E5
330
1F
100
AcDbEntity
  8
0
  6
Continuous
 62
   144
370
    18
100
AcDbLine
 10
33.3829945008
 20
23.6673733604
 30
0.0
 11
33.3935847491
 21
23.6961920507
 31
0.0
  0
LINE
  5
2E6
330
1F
100
AcDbEntity
  8
0
  6
Continuous
 62
   144
370
    18
100
AcDbLine
 10
33.3899131291
 20
23.6402209287
 30
0.0
 11
33.3935833361
 21
23.6962152285
 31
0.0
  0
LINE
  5
2E7
330
1F
100
AcDbEntity
  8
0
  6
Continuous
 62
   144
370
    18
100
AcDbLine
 10
33.3899131291
 20
23.6402209287
 30
0.0
 11
33.3792488852
 21
23.6133161479
 31
0.0
  0
LINE
  5
2E8
330
1F
100
AcDbEntity
  8
0
  6
Continuous
 62
   144
370
    18
100
AcDbLine
 10
33.3792488852
 20
23.6133161479
 30
0.0
 11
33.3829945008
 21
23.6673733604
 31
0.0
  0
LINE
  5
2E9
330
1F
100
AcDbEntity
  8
0
  6
Continuous
 62
   144
370
    18
100
AcDbLine
 10
35.4538577742
 20
23.6402209287
 30
0.0
 11
35.4562787655
 21
23.6133161479
 31
0.0
  0
LINE
  5
2EA
330
1F
100
AcDbEntity
  8
0
  6
Continuous
 62
   144
370
    18
100
AcDbLine
 10
35.4499793374
 20
23.6962152285
 30
0.0
 11
35.4538577742
 21
23.6402209287
 31
0.0
  0
LINE
  5
2EB
330
1F
100
AcDbEntity
  8
0
  6
Continuous
 62
   144
370
    18
100
AcDbLine
 10
35.4499808159
 20
23.6961920507
 30
0.0
 11
35.452353321
 21
23.6673733604
 31
0.0
  0
LINE
  5
2EC
330
1F
100
AcDbEntity
  8
0
  6
Continuous
 62
   144
370
    18
100
AcDbLine
 10
35.4562787655
 20
23.6133161479
 30
0.0
 11
35.452353321
 21
23.6673733604
 31
0.0
  0
LINE
  5
2ED
330
1F
100
AcDbEntity
  8
0
  6
Continuous
 62
   144
370
    18
100
AcDbLine
 10
33.350936523
 20
23.6133161479
 30
0.0
 11
33.3547867042
 21
23.6673733604
 31
0.0
  0
LINE
  5
2EE
330
1F
100
AcDbEntity
  8
0
  6
Continuous
 62
   144
370
    18
100
AcDbLine
 10
33.3575041336
 20
23.6402209287
 30
0.0
 11
33.350936523
 21
23.6133161479
 31
0.0
  0
LINE
  5
2EF
330
1F
100
AcDbEntity
  8
0
  6
Continuous
 62
   144
370
    18
100
AcDbLine
 10
33.3575041336
 20
23.6402209287
 30
0.0
 11
33.3612928728
 21
23.6962152285
 31
0.0
  0
LINE
  5
2F0
330
1F
100
AcDbEntity
  8
0
  6
Continuous
 62
   144
370
    18
100
AcDbLine
 10
33.3547867042
 20
23.6673733604
 30
0.0
 11
33.3612928399
 21
23.6961920507
 31
0.0
  0
LINE
  5
2F1
330
1F
100
AcDbEntity
  8
0
  6
Continuous
 62
     7
370
    25
100
AcDbLine
 10
33.3426337728
 20
23.5304252494
 30
0.0
 11
33.3465228252
 21
23.584490979
 31
0.0
  0
LINE
  5
2F2
330
1F
100
AcDbEntity
  8
0
  6
Continuous
 62
   144
370
    18
100
AcDbLine
 10
33.3426187222
 20
23.5304252494
 30
0.0
 11
33.3471018914
 21
23.5574014823
 31
0.0
  0
LINE
  5
2F3
330
1F
100
AcDbEntity
  8
0
  6
Continuous
 62
   144
370
    18
100
AcDbLine
 10
33.3471018914
 20
23.5574014823
 30
0.0
 11
33.350936523
 21
23.6133161479
 31
0.0
  0
LINE
  5
2F4
330
1F
100
AcDbEntity
  8
0
  6
Continuous
 62
   144
370
    18
100
AcDbLine
 10
33.350936523
 20
23.6133161479
 30
0.0
 11
33.3465228252
 21
23.584490979
 31
0.0
  0
LINE
  5
2F5
330
1F
100
AcDbEntity
  8
0
  6
Continuous
 62
     7
370
    25
100
AcDbLine
 10
33.3266484864
 20
23.5574014823
 30
0.0
 11
33.3305580775
 21
23.6133161479
 31
0.0
  0
LINE
  5
2F6
330
1F
100
AcDbEntity
  8
0
  6
Continuous
 62
   144
370
    18
100
AcDbLine
 10
33.3426337728
 20
23.5304252494
 30
0.0
 11
33.3266484864
 21
23.5574014823
 31
0.0
  0
LINE
  5
2F7
330
1F
100
AcDbEntity
  8
0
  6
Continuous
 62
   144
370
    18
100
AcDbLine
 10
33.3465228252
 20
23.584490979
 30
0.0
 11
33.3305580775
 21
23.6133161479
 31
0.0
  0
LINE
  5
2F8
330
1F
100
AcDbEntity
  8
0
  6
Continuous
 62
   144
370
    18
100
AcDbLine
 10
33.3263169227
 20
23.5304252494
 30
0.0
 11
33.3281125279
 21
23.554930815
 31
0.0
  0
LINE
  5
2F9
330
1F
100
AcDbEntity
  8
0
  6
Continuous
 62
   144
370
    18
100
AcDbLine
 10
33.3263169227
 20
23.5304252494
 30
0.0
 11
33.3266484864
 21
23.5574014823
 31
0.0
  0
LINE
  5
2FA
330
1F
100
AcDbEntity
  8
0
  6
Continuous
 62
   144
370
    18
100
AcDbLine
 10
35.4725229982
 20
23.5574014823
 30
0.0
 11
35.4685682021
 21
23.6133161479
 31
0.0
  0
LINE
  5
2FB
330
1F
100
AcDbEntity
  8
0
  6
Continuous
 62
   144
370
    18
100
AcDbLine
 10
35.4687004335
 20
23.5304252494
 30
0.0
 11
35.4725229982
 21
23.5574014823
 31
0.0
  0
LINE
  5
2FC
330
1F
100
AcDbEntity
  8
0
  6
Continuous
 62
   144
370
    18
100
AcDbLine
 10
35.464711531
 20
23.584490979
 30
0.0
 11
35.4687004335
 21
23.5304252494
 31
0.0
  0
LINE
  5
2FD
330
1F
100
AcDbEntity
  8
0
  6
Continuous
 62
   144
370
    18
100
AcDbLine
 10
35.464711531
 20
23.584490979
 30
0.0
 11
35.4685682021
 21
23.6133161479
 31
0.0
  0
LINE
  5
2FE
330
1F
100
AcDbEntity
  8
0
  6
Continuous
 62
   144
370
    18
100
AcDbLine
 10
35.4644439455
 20
23.4744316448
 30
0.0
 11
35.462685778
 21
23.4475779274
 31
0.0
  0
LINE
  5
2FF
330
1F
100
AcDbEntity
  8
0
  6
Continuous
 62
   144
370
    18
100
AcDbLine
 10
35.4522161624
 20
23.4223941523
 30
0.0
 11
35.462685778
 21
23.4475779274
 31
0.0
  0
LINE
  5
300
330
1F
100
AcDbEntity
  8
0
  6
Continuous
 62
   144
370
    18
100
AcDbLine
 10
35.4624335965
 20
23.7503032092
 30
0.0
 11
35.4663865342
 21
23.6962392152
 31
0.0
  0
LINE
  5
301
330
1F
100
AcDbEntity
  8
0
  6
Continuous
 62
   144
370
    18
100
AcDbLine
 10
35.4663865342
 20
23.6962392152
 30
0.0
 11
35.4784270354
 21
23.7232161723
 31
0.0
  0
LINE
  5
302
330
1F
100
AcDbEntity
  8
0
  6
Continuous
 62
   144
370
    18
100
AcDbLine
 10
35.4784270354
 20
23.7232161723
 30
0.0
 11
35.474492764
 21
23.7792214746
 31
0.0
  0
LINE
  5
303
330
1F
100
AcDbEntity
  8
0
  6
Continuous
 62
   144
370
    18
100
AcDbLine
 10
35.4744937846
 20
23.7792070456
 30
0.0
 11
35.4624335965
 21
23.7503032092
 31
0.0
  0
LINE
  5
304
330
1F
100
AcDbEntity
  8
0
  6
Continuous
 62
   144
370
    18
100
AcDbLine
 10
33.3305580775
 20
23.6133161479
 30
0.0
 11
33.334483522
 21
23.6673733604
 31
0.0
  0
LINE
  5
305
330
1F
100
AcDbEntity
  8
0
  6
Continuous
 62
   144
370
    18
100
AcDbLine
 10
33.3329790713
 20
23.6402209287
 30
0.0
 11
33.3305580775
 21
23.6133161479
 31
0.0
  0
LINE
  5
306
330
1F
100
AcDbEntity
  8
0
  6
Continuous
 62
   144
370
    18
100
AcDbLine
 10
33.3329790713
 20
23.6402209287
 30
0.0
 11
33.3368575082
 21
23.6962152285
 31
0.0
  0
LINE
  5
307
330
1F
100
AcDbEntity
  8
0
  6
Continuous
 62
   144
370
    18
100
AcDbLine
 10
33.334483522
 20
23.6673733604
 30
0.0
 11
33.3368560296
 21
23.6961920507
 31
0.0
  0
LINE
  5
308
330
1F
100
AcDbEntity
  8
0
  6
Continuous
 62
   144
370
    18
100
AcDbLine
 10
35.4726576068
 20
23.4744316448
 30
0.0
 11
35.4667702055
 21
23.4475779274
 31
0.0
  0
LINE
  5
309
330
1F
100
AcDbEntity
  8
0
  6
Continuous
 62
   144
370
    18
100
AcDbLine
 10
35.4726576058
 20
23.4744316431
 30
0.0
 11
35.4588014624
 21
23.4187309249
 31
0.0
  0
LINE
  5
30A
330
1F
100
AcDbEntity
  8
0
  6
Continuous
 62
   144
370
    18
100
AcDbLine
 10
35.4588014622
 20
23.4187309235
 30
0.0
 11
35.4667702055
 21
23.4475779274
 31
0.0
  0
LINE
  5
30B
330
1F
100
AcDbEntity
  8
0
  6
Continuous
 62
   144
370
    18
100
AcDbLine
 10
35.4825715921
 20
23.7232161723
 30
0.0
 11
35.4786222924
 21
23.7792214746
 31
0.0
  0
LINE
  5
30C
330
1F
100
AcDbEntity
  8
0
  6
Continuous
 62
   144
370
    18
100
AcDbLine
 10
35.4746181497
 20
23.6962392152
 30
0.0
 11
35.4825715921
 21
23.7232161723
 31
0.0
  0
LINE
  5
30D
330
1F
100
AcDbEntity
  8
0
  6
Continuous
 62
   144
370
    18
100
AcDbLine
 10
35.4706318405
 20
23.7503032092
 30
0.0
 11
35.4746181497
 21
23.6962392152
 31
0.0
  0
LINE
  5
30E
330
1F
100
AcDbEntity
  8
0
  6
Continuous
 62
   144
370
    18
100
AcDbLine
 10
33.318268641
 20
23.6133161479
 30
0.0
 11
33.3221253126
 21
23.584490979
 31
0.0
  0
LINE
  5
30F
330
1F
100
AcDbEntity
  8
0
  6
Continuous
 62
   144
370
    18
100
AcDbLine
 10
33.3143138448
 20
23.5574014823
 30
0.0
 11
33.318268641
 21
23.6133161479
 31
0.0
  0
LINE
  5
310
330
1F
100
AcDbEntity
  8
0
  6
Continuous
 62
   144
370
    18
100
AcDbLine
 10
33.31813641
 20
23.5304252494
 30
0.0
 11
33.3143138448
 21
23.5574014823
 31
0.0
  0
LINE
  5
311
330
1F
100
AcDbEntity
  8
0
  6
Continuous
 62
   144
370
    18
100
AcDbLine
 10
33.31813641
 20
23.5304252494
 30
0.0
 11
33.3221253126
 21
23.584490979
 31
0.0
  0
LINE
  5
312
330
1F
100
AcDbEntity
  8
0
  6
Continuous
 62
   144
370
    18
100
AcDbLine
 10
33.3084109081
 20
23.7232318778
 30
0.0
 11
33.3123430585
 21
23.7792070456
 31
0.0
  0
LINE
  5
313
330
1F
100
AcDbEntity
  8
0
  6
Continuous
 62
   144
370
    18
100
AcDbLine
 10
33.3204503103
 20
23.6962392152
 30
0.0
 11
33.3084109081
 21
23.7232318778
 31
0.0
  0
LINE
  5
314
330
1F
100
AcDbEntity
  8
0
  6
Continuous
 62
   144
370
    18
100
AcDbLine
 10
33.3204503103
 20
23.6962392152
 30
0.0
 11
33.3244032481
 21
23.7503032092
 31
0.0
  0
LINE
  5
315
330
1F
100
AcDbEntity
  8
0
  6
Continuous
 62
   144
370
    18
100
AcDbLine
 10
33.3082135262
 20
23.7792070456
 30
0.0
 11
33.3042663557
 21
23.7232318778
 31
0.0
  0
LINE
  5
316
330
1F
100
AcDbEntity
  8
0
  6
Continuous
 62
   144
370
    18
100
AcDbLine
 10
33.3122186939
 20
23.6962392152
 30
0.0
 11
33.3042663557
 21
23.7232318778
 31
0.0
  0
LINE
  5
317
330
1F
100
AcDbEntity
  8
0
  6
Continuous
 62
   144
370
    18
100
AcDbLine
 10
33.3122186939
 20
23.6962392152
 30
0.0
 11
33.316205003
 21
23.7503032092
 31
0.0
  0
LINE
  5
318
330
1F
100
AcDbEntity
  8
0
  6
Continuous
 62
   144
370
    18
100
AcDbLine
 10
33.4387082594
 20
23.5304252494
 30
0.0
 11
33.4422645378
 21
23.584490979
 31
0.0
  0
LINE
  5
319
330
1F
100
AcDbEntity
  8
0
  6
Continuous
 62
   144
370
    18
100
AcDbLine
 10
33.4387082594
 20
23.5304252494
 30
0.0
 11
33.4553166844
 21
23.5574014823
 31
0.0
  0
LINE
  5
31A
330
1F
100
AcDbEntity
  8
0
  6
Continuous
 62
   144
370
    18
100
AcDbLine
 10
33.5999066975
 20
23.5304252494
 30
0.0
 11
33.6028258182
 21
23.584490979
 31
0.0
  0
LINE
  5
31B
330
1F
100
AcDbEntity
  8
0
  6
Continuous
 62
   144
370
    18
100
AcDbLine
 10
33.7743822222
 20
23.6133161479
 30
0.0
 11
33.817264678
 21
23.584490979
 31
0.0
  0
LINE
  5
31C
330
1F
100
AcDbEntity
  8
0
  6
Continuous
 62
   144
370
    18
100
AcDbLine
 10
33.8151495396
 20
23.5304252494
 30
0.0
 11
33.7721051795
 21
23.5574014823
 31
0.0
  0
LINE
  5
31D
330
1F
100
AcDbEntity
  8
0
  6
Continuous
 62
   144
370
    18
100
AcDbLine
 10
33.6971337969
 20
23.5574014823
 30
0.0
 11
33.6996856012
 21
23.6133161479
 31
0.0
  0
LINE
  5
31E
330
1F
100
AcDbEntity
  8
0
  6
Continuous
 62
   144
370
    18
100
AcDbLine
 10
33.7382330925
 20
23.5304252494
 30
0.0
 11
33.6971337969
 21
23.5574014823
 31
0.0
  0
LINE
  5
31F
330
1F
100
AcDbEntity
  8
0
  6
Continuous
 62
   144
370
    18
100
AcDbLine
 10
34.1604973436
 20
23.5304252494
 30
0.0
 11
34.1613272496
 21
23.584490979
 31
0.0
  0
LINE
  5
320
330
1F
100
AcDbEntity
  8
0
  6
Continuous
 62
   144
370
    18
100
AcDbLine
 10
34.1604973436
 20
23.5304252494
 30
0.0
 11
34.1130587522
 21
23.5574014823
 31
0.0
  0
LINE
  5
321
330
1F
100
AcDbEntity
  8
0
  6
Continuous
 62
   144
370
    18
100
AcDbLine
 10
34.1140862387
 20
23.6133161479
 30
0.0
 11
34.1613272496
 21
23.584490979
 31
0.0
  0
LINE
  5
322
330
1F
100
AcDbEntity
  8
0
  6
Continuous
 62
   144
370
    18
100
AcDbLine
 10
34.0698004504
 20
23.5304252494
 30
0.0
 11
34.0229331111
 21
23.5574014823
 31
0.0
  0
LINE
  5
323
330
1F
100
AcDbEntity
  8
0
  6
Continuous
 62
   144
370
    18
100
AcDbLine
 10
33.9815401571
 20
23.5303686765
 30
0.0
 11
34.0229331111
 21
23.5574014823
 31
0.0
  0
LINE
  5
324
330
1F
100
AcDbEntity
  8
0
  6
Continuous
 62
   144
370
    18
100
AcDbLine
 10
34.0276824355
 20
23.5017916667
 30
0.0
 11
33.9815245969
 21
23.5303783134
 31
0.0
  0
LINE
  5
325
330
1F
100
AcDbEntity
  8
0
  6
Continuous
 62
     7
370
    25
100
AcDbLine
 10
34.0242908978
 20
23.6133161479
 30
0.0
 11
34.0709674633
 21
23.584490979
 31
0.0
  0
LINE
  5
326
330
1F
100
AcDbEntity
  8
0
  6
Continuous
 62
   144
370
    18
100
AcDbLine
 10
34.0667958951
 20
23.6402209287
 30
0.0
 11
34.0242908978
 21
23.6133161479
 31
0.0
  0
LINE
  5
327
330
1F
100
AcDbEntity
  8
0
  6
Continuous
 62
   144
370
    18
100
AcDbLine
 10
34.0709674633
 20
23.584490979
 30
0.0
 11
34.0667958951
 21
23.6402209287
 31
0.0
  0
LINE
  5
328
330
1F
100
AcDbEntity
  8
0
  6
Continuous
 62
   144
370
    18
100
AcDbLine
 10
34.0229331111
 20
23.5574014823
 30
0.0
 11
34.0242908978
 21
23.6133161479
 31
0.0
  0
LINE
  5
329
330
1F
100
AcDbEntity
  8
0
  6
Continuous
 62
   144
370
    18
100
AcDbLine
 10
34.2529669069
 20
23.5304252494
 30
0.0
 11
34.2534533899
 21
23.584490979
 31
0.0
  0
LINE
  5
32A
330
1F
100
AcDbEntity
  8
0
  6
Continuous
 62
   144
370
    18
100
AcDbLine
 10
34.5333834419
 20
23.584490979
 30
0.0
 11
34.5338699248
 21
23.5304252494
 31
0.0
  0
LINE
  5
32B
330
1F
100
AcDbEntity
  8
0
  6
Continuous
 62
   144
370
    18
100
AcDbLine
 10
34.3466447486
 20
23.584490979
 30
0.0
 11
34.3934184215
 21
23.6133161479
 31
0.0
  0
LINE
  5
32C
330
1F
100
AcDbEntity
  8
0
  6
Continuous
 62
   144
370
    18
100
AcDbLine
 10
34.3466447486
 20
23.584490979
 30
0.0
 11
34.34643592
 21
23.5304252494
 31
0.0
  0
LINE
  5
32D
330
1F
100
AcDbEntity
  8
0
  6
Continuous
 62
     7
370
    25
100
AcDbLine
 10
34.3934184215
 20
23.5574014823
 30
0.0
 11
34.3934184215
 21
23.6133161479
 31
0.0
  0
LINE
  5
32E
330
1F
100
AcDbEntity
  8
0
  6
Continuous
 62
   144
370
    18
100
AcDbLine
 10
34.4401920831
 20
23.584490979
 30
0.0
 11
34.4404009117
 21
23.5304252494
 31
0.0
  0
LINE
  5
32F
330
1F
100
AcDbEntity
  8
0
  6
Continuous
 62
   144
370
    18
100
AcDbLine
 10
34.3934184215
 20
23.6133161479
 30
0.0
 11
34.4401920831
 21
23.584490979
 31
0.0
  0
LINE
  5
330
330
1F
100
AcDbEntity
  8
0
  6
Continuous
 62
   144
370
    18
100
AcDbLine
 10
34.8052966754
 20
23.5303686765
 30
0.0
 11
34.763903732
 21
23.5574014823
 31
0.0
  0
LINE
  5
331
330
1F
100
AcDbEntity
  8
0
  6
Continuous
 62
     7
370
    25
100
AcDbLine
 10
34.7170649885
 20
23.5303686765
 30
0.0
 11
34.763903732
 21
23.5574014823
 31
0.0
  0
LINE
  5
332
330
1F
100
AcDbEntity
  8
0
  6
Continuous
 62
   144
370
    18
100
AcDbLine
 10
34.8053122356
 20
23.5303783134
 30
0.0
 11
34.7591544075
 21
23.5017916667
 31
0.0
  0
LINE
  5
333
330
1F
100
AcDbEntity
  8
0
  6
Continuous
 62
     7
370
    25
100
AcDbLine
 10
34.7158693689
 20
23.584490979
 30
0.0
 11
34.7625459452
 21
23.6133161479
 31
0.0
  0
LINE
  5
334
330
1F
100
AcDbEntity
  8
0
  6
Continuous
 62
   144
370
    18
100
AcDbLine
 10
34.7200409369
 20
23.6402209287
 30
0.0
 11
34.7625459452
 21
23.6133161479
 31
0.0
  0
LINE
  5
335
330
1F
100
AcDbEntity
  8
0
  6
Continuous
 62
   144
370
    18
100
AcDbLine
 10
34.7200409369
 20
23.6402209287
 30
0.0
 11
34.7158693689
 21
23.584490979
 31
0.0
  0
LINE
  5
336
330
1F
100
AcDbEntity
  8
0
  6
Continuous
 62
   144
370
    18
100
AcDbLine
 10
34.763903732
 20
23.5574014823
 30
0.0
 11
34.7625459452
 21
23.6133161479
 31
0.0
  0
LINE
  5
337
330
1F
100
AcDbEntity
  8
0
  6
Continuous
 62
   144
370
    18
100
AcDbLine
 10
34.7158693689
 20
23.584490979
 30
0.0
 11
34.7170363818
 21
23.5304252494
 31
0.0
  0
LINE
  5
338
330
1F
100
AcDbEntity
  8
0
  6
Continuous
 62
   144
370
    18
100
AcDbLine
 10
34.6255095823
 20
23.584490979
 30
0.0
 11
34.6727506044
 21
23.6133161479
 31
0.0
  0
LINE
  5
339
330
1F
100
AcDbEntity
  8
0
  6
Continuous
 62
   144
370
    18
100
AcDbLine
 10
34.6255095823
 20
23.584490979
 30
0.0
 11
34.6263394883
 21
23.5304252494
 31
0.0
  0
LINE
  5
33A
330
1F
100
AcDbEntity
  8
0
  6
Continuous
 62
   144
370
    18
100
AcDbLine
 10
34.6263394883
 20
23.5304252494
 30
0.0
 11
34.6737780908
 21
23.5574014823
 31
0.0
  0
LINE
  5
33B
330
1F
100
AcDbEntity
  8
0
  6
Continuous
 62
   144
370
    18
100
AcDbLine
 10
34.9695721554
 20
23.584490979
 30
0.0
 11
35.0124546208
 21
23.6133161479
 31
0.0
  0
LINE
  5
33C
330
1F
100
AcDbEntity
  8
0
  6
Continuous
 62
   144
370
    18
100
AcDbLine
 10
34.9695721554
 20
23.584490979
 30
0.0
 11
34.9716872938
 21
23.5304252494
 31
0.0
  0
LINE
  5
33D
330
1F
100
AcDbEntity
  8
0
  6
Continuous
 62
   144
370
    18
100
AcDbLine
 10
34.9716872938
 20
23.5304252494
 30
0.0
 11
35.0147316635
 21
23.5574014823
 31
0.0
  0
LINE
  5
33E
330
1F
100
AcDbEntity
  8
0
  6
Continuous
 62
   144
370
    18
100
AcDbLine
 10
35.1840110172
 20
23.584490979
 30
0.0
 11
35.1869301378
 21
23.5304252494
 31
0.0
  0
LINE
  5
33F
330
1F
100
AcDbEntity
  8
0
  6
Continuous
 62
   144
370
    18
100
AcDbLine
 10
35.1840110172
 20
23.584490979
 30
0.0
 11
35.2201770024
 21
23.6133161479
 31
0.0
  0
LINE
  5
340
330
1F
100
AcDbEntity
  8
0
  6
Continuous
 62
   144
370
    18
100
AcDbLine
 10
35.046201646
 20
23.584490979
 30
0.0
 11
35.0871512418
 21
23.6133161479
 31
0.0
  0
LINE
  5
341
330
1F
100
AcDbEntity
  8
0
  6
Continuous
 62
   144
370
    18
100
AcDbLine
 10
35.046201646
 20
23.584490979
 30
0.0
 11
35.0486037415
 21
23.5304252494
 31
0.0
  0
LINE
  5
342
330
1F
100
AcDbEntity
  8
0
  6
Continuous
 62
   144
370
    18
100
AcDbLine
 10
35.0486037415
 20
23.5304252494
 30
0.0
 11
35.0897030462
 21
23.5574014823
 31
0.0
  0
LINE
  5
343
330
1F
100
AcDbEntity
  8
0
  6
Continuous
 62
   144
370
    18
100
AcDbLine
 10
35.0897030462
 20
23.5574014823
 30
0.0
 11
35.0871512418
 21
23.6133161479
 31
0.0
  0
LINE
  5
344
330
1F
100
AcDbEntity
  8
0
  6
Continuous
 62
   144
370
    18
100
AcDbLine
 10
35.3481285784
 20
23.5304252494
 30
0.0
 11
35.3315201586
 21
23.5574014823
 31
0.0
  0
LINE
  5
345
330
1F
100
AcDbEntity
  8
0
  6
Continuous
 62
     7
370
    25
100
AcDbLine
 10
35.4198942068
 20
23.5303686765
 30
0.0
 11
35.4397349517
 21
23.5574014823
 31
0.0
  0
LINE
  5
346
330
1F
100
AcDbEntity
  8
0
  6
Continuous
 62
   144
370
    18
100
AcDbLine
 10
35.4263220132
 20
23.5017916667
 30
0.0
 11
35.4198920392
 21
23.5303783134
 31
0.0
  0
LINE
  5
347
330
1F
100
AcDbEntity
  8
0
  6
Continuous
 62
   144
370
    18
100
AcDbLine
 10
35.4442018374
 20
23.5303783063
 30
0.0
 11
35.4263220132
 21
23.5017916667
 31
0.0
  0
LINE
  5
348
330
1F
100
AcDbEntity
  8
0
  6
Continuous
 62
   144
370
    18
100
AcDbLine
 10
35.4161021856
 20
23.584490979
 30
0.0
 11
35.419898191
 21
23.5304252494
 31
0.0
  0
LINE
  5
349
330
1F
100
AcDbEntity
  8
0
  6
Continuous
 62
   144
370
    18
100
AcDbLine
 10
35.4161021856
 20
23.584490979
 30
0.0
 11
35.43590032
 21
23.6133161479
 31
0.0
  0
LINE
  5
34A
330
1F
100
AcDbEntity
  8
0
  6
Continuous
 62
   144
370
    18
100
AcDbLine
 10
35.1869550722
 20
23.5303783134
 30
0.0
 11
35.1495563299
 21
23.5017916667
 31
0.0
  0
LINE
  5
34B
330
1F
100
AcDbEntity
  8
0
  6
Continuous
 62
   144
370
    18
100
AcDbLine
 10
35.120549239
 20
23.5303686765
 30
0.0
 11
35.1593752824
 21
23.5574014823
 31
0.0
  0
LINE
  5
34C
330
1F
100
AcDbEntity
  8
0
  6
Continuous
 62
   144
370
    18
100
AcDbLine
 10
35.1869424648
 20
23.5303686765
 30
0.0
 11
35.1593752824
 21
23.5574014823
 31
0.0
  0
LINE
  5
34D
330
1F
100
AcDbEntity
  8
0
  6
Continuous
 62
     7
370
    25
100
AcDbLine
 10
35.2472946457
 20
23.5304014284
 30
0.0
 11
35.2504521367
 21
23.4744316448
 31
0.0
  0
LINE
  5
34E
330
1F
100
AcDbEntity
  8
0
  6
Continuous
 62
   144
370
    18
100
AcDbLine
 10
35.2726567296
 20
23.4475779274
 30
0.0
 11
35.2504521367
 21
23.4744316448
 31
0.0
  0
LINE
  5
34F
330
1F
100
AcDbEntity
  8
0
  6
Continuous
 62
   144
370
    18
100
AcDbLine
 10
35.269370866
 20
23.5017916667
 30
0.0
 11
35.2726567296
 21
23.4475779274
 31
0.0
  0
LINE
  5
350
330
1F
100
AcDbEntity
  8
0
  6
Continuous
 62
   144
370
    18
100
AcDbLine
 10
35.2473082003
 20
23.5303783134
 30
0.0
 11
35.212580758
 21
23.5017916667
 31
0.0
  0
LINE
  5
351
330
1F
100
AcDbEntity
  8
0
  6
Continuous
 62
   144
370
    18
100
AcDbLine
 10
33.5363846994
 20
23.4744316448
 30
0.0
 11
33.5395421904
 21
23.5304014284
 31
0.0
  0
LINE
  5
352
330
1F
100
AcDbEntity
  8
0
  6
Continuous
 62
   144
370
    18
100
AcDbLine
 10
33.5174659771
 20
23.5017916667
 30
0.0
 11
33.5141801134
 21
23.4475779274
 31
0.0
  0
LINE
  5
353
330
1F
100
AcDbEntity
  8
0
  6
Continuous
 62
   144
370
    18
100
AcDbLine
 10
33.5363846994
 20
23.4744316448
 30
0.0
 11
33.5141801134
 21
23.4475779274
 31
0.0
  0
LINE
  5
354
330
1F
100
AcDbEntity
  8
0
  6
Continuous
 62
   144
370
    18
100
AcDbLine
 10
33.5711832519
 20
23.4475779274
 30
0.0
 11
33.5363846994
 21
23.4744316448
 31
0.0
  0
LINE
  5
355
330
1F
100
AcDbEntity
  8
0
  6
Continuous
 62
   144
370
    18
100
AcDbLine
 10
33.6662875956
 20
23.5303686765
 30
0.0
 11
33.6274615606
 21
23.5574014823
 31
0.0
  0
LINE
  5
356
330
1F
100
AcDbEntity
  8
0
  6
Continuous
 62
   144
370
    18
100
AcDbLine
 10
33.5998943706
 20
23.5303686765
 30
0.0
 11
33.6274615606
 21
23.5574014823
 31
0.0
  0
LINE
  5
357
330
1F
100
AcDbEntity
  8
0
  6
Continuous
 62
   144
370
    18
100
AcDbLine
 10
33.6372805131
 20
23.5017916667
 30
0.0
 11
33.5998817631
 21
23.5303783134
 31
0.0
  0
LINE
  5
358
330
1F
100
AcDbEntity
  8
0
  6
Continuous
 62
   144
370
    18
100
AcDbLine
 10
33.3669448004
 20
23.5303783134
 30
0.0
 11
33.3605148299
 21
23.5017916667
 31
0.0
  0
LINE
  5
359
330
1F
100
AcDbEntity
  8
0
  6
Continuous
 62
   144
370
    18
100
AcDbLine
 10
33.3605148299
 20
23.5017916667
 30
0.0
 11
33.3426349987
 21
23.5303783134
 31
0.0
  0
LINE
  5
35A
330
1F
100
AcDbEntity
  8
0
  6
Continuous
 62
   144
370
    18
100
AcDbLine
 10
33.3669426328
 20
23.5303686765
 30
0.0
 11
33.3471018914
 21
23.5574014823
 31
0.0
  0
LINE
  5
35B
330
1F
100
AcDbEntity
  8
0
  6
Continuous
 62
   144
370
    18
100
AcDbLine
 10
33.3899131247
 20
23.6402209287
 30
0.0
 11
33.41527969
 21
23.6133161479
 31
0.0
  0
LINE
  5
35C
330
1F
100
AcDbEntity
  8
0
  6
Continuous
 62
   144
370
    18
100
AcDbLine
 10
33.4027297263
 20
23.584490979
 30
0.0
 11
33.41527969
 21
23.6133161479
 31
0.0
  0
LINE
  5
35D
330
1F
100
AcDbEntity
  8
0
  6
Continuous
 62
   144
370
    18
100
AcDbLine
 10
33.4027297263
 20
23.584490979
 30
0.0
 11
33.3899131247
 21
23.6402209287
 31
0.0
  0
LINE
  5
35E
330
1F
100
AcDbEntity
  8
0
  6
Continuous
 62
   144
370
    18
100
AcDbLine
 10
33.809810941
 20
23.6402209287
 30
0.0
 11
33.8537900825
 21
23.6133161479
 31
0.0
  0
LINE
  5
35F
330
1F
100
AcDbEntity
  8
0
  6
Continuous
 62
   144
370
    18
100
AcDbLine
 10
33.8918733969
 20
23.6402209287
 30
0.0
 11
33.9373048403
 21
23.6133161479
 31
0.0
  0
LINE
  5
360
330
1F
100
AcDbEntity
  8
0
  6
Continuous
 62
   144
370
    18
100
AcDbLine
 10
33.898279046
 20
23.584490979
 30
0.0
 11
33.9373048403
 21
23.6133161479
 31
0.0
  0
LINE
  5
361
330
1F
100
AcDbEntity
  8
0
  6
Continuous
 62
   144
370
    18
100
AcDbLine
 10
33.898279046
 20
23.584490979
 30
0.0
 11
33.8918733969
 21
23.6402209287
 31
0.0
  0
LINE
  5
362
330
1F
100
AcDbEntity
  8
0
  6
Continuous
 62
   144
370
    18
100
AcDbLine
 10
34.9770258923
 20
23.6402209287
 30
0.0
 11
34.9695721554
 21
23.584490979
 31
0.0
  0
LINE
  5
363
330
1F
100
AcDbEntity
  8
0
  6
Continuous
 62
   144
370
    18
100
AcDbLine
 10
34.9770258923
 20
23.6402209287
 30
0.0
 11
34.9330467605
 21
23.6133161479
 31
0.0
  0
LINE
  5
364
330
1F
100
AcDbEntity
  8
0
  6
Continuous
 62
   144
370
    18
100
AcDbLine
 10
35.3625700302
 20
23.5017916667
 30
0.0
 11
35.3480942148
 21
23.5303783134
 31
0.0
  0
LINE
  5
365
330
1F
100
AcDbEntity
  8
0
  6
Continuous
 62
   144
370
    18
100
AcDbLine
 10
35.3480970289
 20
23.5304014284
 30
0.0
 11
35.3516272701
 21
23.4744316448
 31
0.0
  0
LINE
  5
366
330
1F
100
AcDbEntity
  8
0
  6
Continuous
 62
   144
370
    18
100
AcDbLine
 10
35.3662055016
 20
23.4475779274
 30
0.0
 11
35.3516272701
 21
23.4744316448
 31
0.0
  0
LINE
  5
367
330
1F
100
AcDbEntity
  8
0
  6
Continuous
 62
   144
370
    18
100
AcDbLine
 10
35.0807772359
 20
23.5017916667
 30
0.0
 11
35.0833556491
 21
23.4475779274
 31
0.0
  0
LINE
  5
368
330
1F
100
AcDbEntity
  8
0
  6
Continuous
 62
   144
370
    18
100
AcDbLine
 10
34.9280886641
 20
23.5017916667
 30
0.0
 11
34.8903810085
 21
23.5303783134
 31
0.0
  0
LINE
  5
369
330
1F
100
AcDbEntity
  8
0
  6
Continuous
 62
   144
370
    18
100
AcDbLine
 10
34.8903926447
 20
23.5304014284
 30
0.0
 11
34.8922303719
 21
23.4744316448
 31
0.0
  0
LINE
  5
36A
330
1F
100
AcDbEntity
  8
0
  6
Continuous
 62
   144
370
    18
100
AcDbLine
 10
34.9300943135
 20
23.4475779274
 30
0.0
 11
34.8922303719
 21
23.4744316448
 31
0.0
  0
LINE
  5
36B
330
1F
100
AcDbEntity
  8
0
  6
Continuous
 62
   144
370
    18
100
AcDbLine
 10
34.6712223053
 20
23.4475779274
 30
0.0
 11
34.6272310663
 21
23.4744316448
 31
0.0
  0
LINE
  5
36C
330
1F
100
AcDbEntity
  8
0
  6
Continuous
 62
   144
370
    18
100
AcDbLine
 10
34.6263696518
 20
23.5304014284
 30
0.0
 11
34.6272310663
 21
23.4744316448
 31
0.0
  0
LINE
  5
36D
330
1F
100
AcDbEntity
  8
0
  6
Continuous
 62
   144
370
    18
100
AcDbLine
 10
34.6701841048
 20
23.5017916667
 30
0.0
 11
34.6263553808
 21
23.5303783134
 31
0.0
  0
LINE
  5
36E
330
1F
100
AcDbEntity
  8
0
  6
Continuous
 62
   144
370
    18
100
AcDbLine
 10
34.4866175858
 20
23.5017916667
 30
0.0
 11
34.4869671935
 21
23.4475779274
 31
0.0
  0
LINE
  5
36F
330
1F
100
AcDbEntity
  8
0
  6
Continuous
 62
   144
370
    18
100
AcDbLine
 10
34.4866175858
 20
23.5017916667
 30
0.0
 11
34.4403499185
 21
23.5303783134
 31
0.0
  0
LINE
  5
370
330
1F
100
AcDbEntity
  8
0
  6
Continuous
 62
   144
370
    18
100
AcDbLine
 10
34.4403654141
 20
23.5304014284
 30
0.0
 11
34.4405390162
 21
23.4744316448
 31
0.0
  0
LINE
  5
371
330
1F
100
AcDbEntity
  8
0
  6
Continuous
 62
   144
370
    18
100
AcDbLine
 10
34.4869671935
 20
23.4475779274
 30
0.0
 11
34.4405390162
 21
23.4744316448
 31
0.0
  0
LINE
  5
372
330
1F
100
AcDbEntity
  8
0
  6
Continuous
 62
   144
370
    18
100
AcDbLine
 10
34.5791074481
 20
23.5017916667
 30
0.0
 11
34.5338871757
 21
23.5303783134
 31
0.0
  0
LINE
  5
373
330
1F
100
AcDbEntity
  8
0
  6
Continuous
 62
   144
370
    18
100
AcDbLine
 10
34.5339021158
 20
23.5304014284
 30
0.0
 11
34.534421601
 21
23.4744316448
 31
0.0
  0
LINE
  5
374
330
1F
100
AcDbEntity
  8
0
  6
Continuous
 62
   144
370
    18
100
AcDbLine
 10
34.5798040028
 20
23.4475779274
 30
0.0
 11
34.534421601
 21
23.4744316448
 31
0.0
  0
LINE
  5
375
330
1F
100
AcDbEntity
  8
0
  6
Continuous
 62
   144
370
    18
100
AcDbLine
 10
34.1604814511
 20
23.5303783134
 30
0.0
 11
34.1166527383
 21
23.5017916667
 31
0.0
  0
LINE
  5
376
330
1F
100
AcDbEntity
  8
0
  6
Continuous
 62
   144
370
    18
100
AcDbLine
 10
34.1596057655
 20
23.4744316448
 30
0.0
 11
34.1604671801
 21
23.5304014284
 31
0.0
  0
LINE
  5
377
330
1F
100
AcDbEntity
  8
0
  6
Continuous
 62
   144
370
    18
100
AcDbLine
 10
34.1596057655
 20
23.4744316448
 30
0.0
 11
34.1156145377
 21
23.4475779274
 31
0.0
  0
LINE
  5
378
330
1F
100
AcDbEntity
  8
0
  6
Continuous
 62
   144
370
    18
100
AcDbLine
 10
34.2524152307
 20
23.4744316448
 30
0.0
 11
34.2070328402
 21
23.4475779274
 31
0.0
  0
LINE
  5
379
330
1F
100
AcDbEntity
  8
0
  6
Continuous
 62
   144
370
    18
100
AcDbLine
 10
34.2524152307
 20
23.4744316448
 30
0.0
 11
34.2529347159
 21
23.5304014284
 31
0.0
  0
LINE
  5
37A
330
1F
100
AcDbEntity
  8
0
  6
Continuous
 62
   144
370
    18
100
AcDbLine
 10
34.2529496561
 20
23.5303783134
 30
0.0
 11
34.207729395
 21
23.5017916667
 31
0.0
  0
LINE
  5
37B
330
1F
100
AcDbEntity
  8
0
  6
Continuous
 62
   144
370
    18
100
AcDbLine
 10
34.3462978154
 20
23.4744316448
 30
0.0
 11
34.2998696496
 21
23.4475779274
 31
0.0
  0
LINE
  5
37C
330
1F
100
AcDbEntity
  8
0
  6
Continuous
 62
   144
370
    18
100
AcDbLine
 10
34.3464714175
 20
23.5304014284
 30
0.0
 11
34.3462978154
 21
23.4744316448
 31
0.0
  0
LINE
  5
37D
330
1F
100
AcDbEntity
  8
0
  6
Continuous
 62
   144
370
    18
100
AcDbLine
 10
34.3464869132
 20
23.5303783134
 30
0.0
 11
34.3002192573
 21
23.5017916667
 31
0.0
  0
LINE
  5
37E
330
1F
100
AcDbEntity
  8
0
  6
Continuous
 62
   144
370
    18
100
AcDbLine
 10
34.3002192573
 20
23.5017916667
 30
0.0
 11
34.2998696496
 21
23.4475779274
 31
0.0
  0
LINE
  5
37F
330
1F
100
AcDbEntity
  8
0
  6
Continuous
 62
   144
370
    18
100
AcDbLine
 10
33.8946064609
 20
23.4744316448
 30
0.0
 11
33.8567425295
 21
23.4475779274
 31
0.0
  0
LINE
  5
380
330
1F
100
AcDbEntity
  8
0
  6
Continuous
 62
   144
370
    18
100
AcDbLine
 10
33.8946064609
 20
23.4744316448
 30
0.0
 11
33.8964441882
 21
23.5304014284
 31
0.0
  0
LINE
  5
381
330
1F
100
AcDbEntity
  8
0
  6
Continuous
 62
   144
370
    18
100
AcDbLine
 10
33.8964558244
 20
23.5303783134
 30
0.0
 11
33.858748179
 21
23.5017916667
 31
0.0
  0
LINE
  5
382
330
1F
100
AcDbEntity
  8
0
  6
Continuous
 62
   144
370
    18
100
AcDbLine
 10
33.7034811939
 20
23.4475779274
 30
0.0
 11
33.6636003671
 21
23.4744316448
 31
0.0
  0
LINE
  5
383
330
1F
100
AcDbEntity
  8
0
  6
Continuous
 62
   144
370
    18
100
AcDbLine
 10
33.6636003671
 20
23.4744316448
 30
0.0
 11
33.666289169
 21
23.5304014284
 31
0.0
  0
LINE
  5
384
330
1F
100
AcDbEntity
  8
0
  6
Continuous
 62
   144
370
    18
100
AcDbLine
 10
33.7060596072
 20
23.5017916667
 30
0.0
 11
33.7034811939
 21
23.4475779274
 31
0.0
  0
LINE
  5
385
330
1F
100
AcDbEntity
  8
0
  6
Continuous
 62
   144
370
    18
100
AcDbLine
 10
33.438742623
 20
23.5303783134
 30
0.0
 11
33.4242668129
 21
23.5017916667
 31
0.0
  0
LINE
  5
386
330
1F
100
AcDbEntity
  8
0
  6
Continuous
 62
   144
370
    18
100
AcDbLine
 10
33.4352095676
 20
23.4744316448
 30
0.0
 11
33.4387398089
 21
23.5304014284
 31
0.0
  0
LINE
  5
387
330
1F
100
AcDbEntity
  8
0
  6
Continuous
 62
     7
370
    25
100
AcDbLine
 10
35.4587243151
 20
23.554930815
 30
0.0
 11
35.4605199203
 21
23.5304252494
 31
0.0
  0
LINE
  5
388
330
1F
100
AcDbEntity
  8
0
  6
Continuous
 62
   144
370
    18
100
AcDbLine
 10
35.4580447879
 20
23.5880586343
 30
0.0
 11
35.4685682021
 21
23.6133161479
 31
0.0
  0
LINE
  5
389
330
1F
100
AcDbEntity
  8
0
  6
Continuous
 62
   144
370
    18
100
AcDbLine
 10
33.3141617435
 20
23.6133161479
 30
0.0
 11
33.3174315317
 21
23.6014807254
 31
0.0
  0
LINE
  5
38A
330
1F
100
AcDbEntity
  8
0
  6
Continuous
 62
   144
370
    18
100
AcDbLine
 10
33.3141617435
 20
23.6133161479
 30
0.0
 11
33.3101918407
 21
23.5574014823
 31
0.0
  0
LINE
  5
38B
330
1F
100
AcDbEntity
  8
0
  6
Continuous
 62
     7
370
    25
100
AcDbLine
 10
33.3181364095
 20
23.5304252494
 30
0.0
 11
33.3221253121
 21
23.584490979
 31
0.0
  0
LINE
  5
38C
330
1F
100
AcDbEntity
  8
0
  6
Continuous
 62
     7
370
    25
100
AcDbLine
 10
33.3263169212
 20
23.5304252494
 30
0.0
 11
33.3281125266
 21
23.5549308169
 31
0.0
  0
LINE
  5
38D
330
1F
100
AcDbEntity
  8
0
  6
Continuous
 62
   144
370
    18
100
AcDbLine
 10
33.318268641
 20
23.6133161479
 30
0.0
 11
33.328792055
 21
23.5880586316
 31
0.0
  0
LINE
  5
38E
330
1F
100
AcDbEntity
  8
0
  6
Continuous
 62
   144
370
    18
100
AcDbLine
 10
33.3829945008
 20
23.6673733604
 30
0.0
 11
33.3612833275
 21
23.6961920507
 31
0.0
  0
LINE
  5
38F
330
1F
100
AcDbEntity
  8
0
  6
Continuous
 62
   144
370
    18
100
AcDbLine
 10
33.3575041301
 20
23.6402209287
 30
0.0
 11
33.3792488852
 21
23.6133161479
 31
0.0
  0
LINE
  5
390
330
1F
100
AcDbEntity
  8
0
  6
Continuous
 62
   144
370
    18
100
AcDbLine
 10
33.5348462067
 20
23.6961920507
 30
0.0
 11
33.5126082481
 21
23.6673733604
 31
0.0
  0
LINE
  5
391
330
1F
100
AcDbEntity
  8
0
  6
Continuous
 62
   144
370
    18
100
AcDbLine
 10
33.5925978723
 20
23.6402209287
 30
0.0
 11
33.5955267827
 21
23.6962152285
 31
0.0
  0
LINE
  5
392
330
1F
100
AcDbEntity
  8
0
  6
Continuous
 62
   144
370
    18
100
AcDbLine
 10
33.5925978723
 20
23.6402209287
 30
0.0
 11
33.6302687058
 21
23.6133161479
 31
0.0
  0
LINE
  5
393
330
1F
100
AcDbEntity
  8
0
  6
Continuous
 62
   144
370
    18
100
AcDbLine
 10
33.6622937046
 20
23.6961920507
 30
0.0
 11
33.6330872341
 21
23.6673733604
 31
0.0
  0
LINE
  5
394
330
1F
100
AcDbEntity
  8
0
  6
Continuous
 62
   144
370
    18
100
AcDbLine
 10
33.6596015868
 20
23.6402209287
 30
0.0
 11
33.6622854387
 21
23.6962152285
 31
0.0
  0
LINE
  5
395
330
1F
100
AcDbEntity
  8
0
  6
Continuous
 62
   144
370
    18
100
AcDbLine
 10
33.6596015868
 20
23.6402209287
 30
0.0
 11
33.6302687058
 21
23.6133161479
 31
0.0
  0
LINE
  5
396
330
1F
100
AcDbEntity
  8
0
  6
Continuous
 62
   144
370
    18
100
AcDbLine
 10
33.7321900905
 20
23.6402209287
 30
0.0
 11
33.7743822222
 21
23.6133161479
 31
0.0
  0
LINE
  5
397
330
1F
100
AcDbEntity
  8
0
  6
Continuous
 62
   144
370
    18
100
AcDbLine
 10
33.7321900905
 20
23.6402209287
 30
0.0
 11
33.7346084582
 21
23.6962152285
 31
0.0
  0
LINE
  5
398
330
1F
100
AcDbEntity
  8
0
  6
Continuous
 62
   144
370
    18
100
AcDbLine
 10
33.7766684984
 20
23.6673733604
 30
0.0
 11
33.7345928586
 21
23.6961920507
 31
0.0
  0
LINE
  5
399
330
1F
100
AcDbEntity
  8
0
  6
Continuous
 62
   144
370
    18
100
AcDbLine
 10
33.9373048403
 20
23.6133161479
 30
0.0
 11
33.938989397
 21
23.6673733604
 31
0.0
  0
LINE
  5
39A
330
1F
100
AcDbEntity
  8
0
  6
Continuous
 62
   144
370
    18
100
AcDbLine
 10
33.9792858494
 20
23.6961920507
 30
0.0
 11
33.938989397
 21
23.6673733604
 31
0.0
  0
LINE
  5
39B
330
1F
100
AcDbEntity
  8
0
  6
Continuous
 62
   144
370
    18
100
AcDbLine
 10
33.9777529133
 20
23.6402209287
 30
0.0
 11
33.9792731628
 21
23.6962152285
 31
0.0
  0
LINE
  5
39C
330
1F
100
AcDbEntity
  8
0
  6
Continuous
 62
   144
370
    18
100
AcDbLine
 10
33.9777529133
 20
23.6402209287
 30
0.0
 11
33.9373048403
 21
23.6133161479
 31
0.0
  0
LINE
  5
39D
330
1F
100
AcDbEntity
  8
0
  6
Continuous
 62
   144
370
    18
100
AcDbLine
 10
34.3934184215
 20
23.6673733604
 30
0.0
 11
34.3461969022
 21
23.6961920507
 31
0.0
  0
LINE
  5
39E
330
1F
100
AcDbEntity
  8
0
  6
Continuous
 62
   144
370
    18
100
AcDbLine
 10
34.3462129172
 20
23.6962152285
 30
0.0
 11
34.3460396346
 21
23.6402209287
 31
0.0
  0
LINE
  5
39F
330
1F
100
AcDbEntity
  8
0
  6
Continuous
 62
   144
370
    18
100
AcDbLine
 10
34.3460396346
 20
23.6402209287
 30
0.0
 11
34.3934184215
 21
23.6133161479
 31
0.0
  0
LINE
  5
3A0
330
1F
100
AcDbEntity
  8
0
  6
Continuous
 62
     7
370
    25
100
AcDbLine
 10
34.3934184215
 20
23.6133161479
 30
0.0
 11
34.3934184215
 21
23.6673733604
 31
0.0
  0
LINE
  5
3A1
330
1F
100
AcDbEntity
  8
0
  6
Continuous
 62
   144
370
    18
100
AcDbLine
 10
34.4406399294
 20
23.6961920507
 30
0.0
 11
34.3934184215
 21
23.6673733604
 31
0.0
  0
LINE
  5
3A2
330
1F
100
AcDbEntity
  8
0
  6
Continuous
 62
   144
370
    18
100
AcDbLine
 10
34.4406239144
 20
23.6962152285
 30
0.0
 11
34.4407971969
 21
23.6402209287
 31
0.0
  0
LINE
  5
3A3
330
1F
100
AcDbEntity
  8
0
  6
Continuous
 62
   144
370
    18
100
AcDbLine
 10
34.4407971969
 20
23.6402209287
 30
0.0
 11
34.3934184215
 21
23.6133161479
 31
0.0
  0
LINE
  5
3A4
330
1F
100
AcDbEntity
  8
0
  6
Continuous
 62
     7
370
    25
100
AcDbLine
 10
34.3462468855
 20
23.6962392152
 30
0.0
 11
34.298492468
 21
23.7232161723
 31
0.0
  0
LINE
  5
3A5
330
1F
100
AcDbEntity
  8
0
  6
Continuous
 62
   144
370
    18
100
AcDbLine
 10
34.2521608778
 20
23.6961823391
 30
0.0
 11
34.298492468
 21
23.7232161723
 31
0.0
  0
LINE
  5
3A6
330
1F
100
AcDbEntity
  8
0
  6
Continuous
 62
     7
370
    25
100
AcDbLine
 10
34.299702407
 20
23.6673733604
 30
0.0
 11
34.2521448513
 21
23.6961920507
 31
0.0
  0
LINE
  5
3A7
330
1F
100
AcDbEntity
  8
0
  6
Continuous
 62
   144
370
    18
100
AcDbLine
 10
34.2516426535
 20
23.6402209287
 30
0.0
 11
34.2993550041
 21
23.6133161479
 31
0.0
  0
LINE
  5
3A8
330
1F
100
AcDbEntity
  8
0
  6
Continuous
 62
   144
370
    18
100
AcDbLine
 10
34.2516426535
 20
23.6402209287
 30
0.0
 11
34.2521611823
 21
23.6962152285
 31
0.0
  0
LINE
  5
3A9
330
1F
100
AcDbEntity
  8
0
  6
Continuous
 62
   144
370
    18
100
AcDbLine
 10
34.298492468
 20
23.7232161723
 30
0.0
 11
34.2988366721
 21
23.7792214746
 31
0.0
  0
LINE
  5
3AA
330
1F
100
AcDbEntity
  8
0
  6
Continuous
 62
   144
370
    18
100
AcDbLine
 10
34.2988365828
 20
23.7792070456
 30
0.0
 11
34.3463862622
 21
23.7503032092
 31
0.0
  0
LINE
  5
3AB
330
1F
100
AcDbEntity
  8
0
  6
Continuous
 62
   144
370
    18
100
AcDbLine
 10
34.5351941781
 20
23.6402209287
 30
0.0
 11
34.4874818389
 21
23.6133161479
 31
0.0
  0
LINE
  5
3AC
330
1F
100
AcDbEntity
  8
0
  6
Continuous
 62
   144
370
    18
100
AcDbLine
 10
34.5346756493
 20
23.6962152285
 30
0.0
 11
34.5351941781
 21
23.6402209287
 31
0.0
  0
LINE
  5
3AD
330
1F
100
AcDbEntity
  8
0
  6
Continuous
 62
     7
370
    25
100
AcDbLine
 10
34.5346919804
 20
23.6961920507
 30
0.0
 11
34.4871344361
 21
23.6673733604
 31
0.0
  0
LINE
  5
3AE
330
1F
100
AcDbEntity
  8
0
  6
Continuous
 62
   144
370
    18
100
AcDbLine
 10
34.5346759539
 20
23.6961823391
 30
0.0
 11
34.4883443751
 21
23.7232161723
 31
0.0
  0
LINE
  5
3AF
330
1F
100
AcDbEntity
  8
0
  6
Continuous
 62
     7
370
    25
100
AcDbLine
 10
34.4406240162
 20
23.6961823391
 30
0.0
 11
34.4883443751
 21
23.7232161723
 31
0.0
  0
LINE
  5
3B0
330
1F
100
AcDbEntity
  8
0
  6
Continuous
 62
   144
370
    18
100
AcDbLine
 10
34.4883442788
 20
23.7232318778
 30
0.0
 11
34.4880002602
 21
23.7792070456
 31
0.0
  0
LINE
  5
3B1
330
1F
100
AcDbEntity
  8
0
  6
Continuous
 62
   144
370
    18
100
AcDbLine
 10
34.4404505694
 20
23.7503032092
 30
0.0
 11
34.4405899461
 21
23.6962392152
 31
0.0
  0
LINE
  5
3B2
330
1F
100
AcDbEntity
  8
0
  6
Continuous
 62
   144
370
    18
100
AcDbLine
 10
34.4404505694
 20
23.7503032092
 30
0.0
 11
34.4880002602
 21
23.7792070456
 31
0.0
  0
LINE
  5
3B3
330
1F
100
AcDbEntity
  8
0
  6
Continuous
 62
     7
370
    25
100
AcDbLine
 10
34.8495320028
 20
23.6133161479
 30
0.0
 11
34.847847446
 21
23.6673733604
 31
0.0
  0
LINE
  5
3B4
330
1F
100
AcDbEntity
  8
0
  6
Continuous
 62
   144
370
    18
100
AcDbLine
 10
34.8931454343
 20
23.6961920507
 30
0.0
 11
34.847847446
 21
23.6673733604
 31
0.0
  0
LINE
  5
3B5
330
1F
100
AcDbEntity
  8
0
  6
Continuous
 62
   144
370
    18
100
AcDbLine
 10
34.8931290918
 20
23.6962152285
 30
0.0
 11
34.8949634359
 21
23.6402209287
 31
0.0
  0
LINE
  5
3B6
330
1F
100
AcDbEntity
  8
0
  6
Continuous
 62
   144
370
    18
100
AcDbLine
 10
34.8949634359
 20
23.6402209287
 30
0.0
 11
34.8495320028
 21
23.6133161479
 31
0.0
  0
LINE
  5
3B7
330
1F
100
AcDbEntity
  8
0
  6
Continuous
 62
   144
370
    18
100
AcDbLine
 10
34.8090839191
 20
23.6402209287
 30
0.0
 11
34.8495320028
 21
23.6133161479
 31
0.0
  0
LINE
  5
3B8
330
1F
100
AcDbEntity
  8
0
  6
Continuous
 62
   144
370
    18
100
AcDbLine
 10
34.8075636697
 20
23.6962152285
 30
0.0
 11
34.8090839191
 21
23.6402209287
 31
0.0
  0
LINE
  5
3B9
330
1F
100
AcDbEntity
  8
0
  6
Continuous
 62
   144
370
    18
100
AcDbLine
 10
34.847847446
 20
23.6673733604
 30
0.0
 11
34.8075509831
 21
23.6961920507
 31
0.0
  0
LINE
  5
3BA
330
1F
100
AcDbEntity
  8
0
  6
Continuous
 62
   144
370
    18
100
AcDbLine
 10
35.0522439753
 20
23.6961920507
 30
0.0
 11
35.0101683447
 21
23.6673733604
 31
0.0
  0
LINE
  5
3BB
330
1F
100
AcDbEntity
  8
0
  6
Continuous
 62
   144
370
    18
100
AcDbLine
 10
35.1272352478
 20
23.6402209287
 30
0.0
 11
35.1565681372
 21
23.6133161479
 31
0.0
  0
LINE
  5
3BC
330
1F
100
AcDbEntity
  8
0
  6
Continuous
 62
   144
370
    18
100
AcDbLine
 10
35.153749609
 20
23.6673733604
 30
0.0
 11
35.12454313
 21
23.6961920507
 31
0.0
  0
LINE
  5
3BD
330
1F
100
AcDbEntity
  8
0
  6
Continuous
 62
   144
370
    18
100
AcDbLine
 10
35.425553509
 20
23.6961920466
 30
0.0
 11
35.4038423422
 21
23.6673733604
 31
0.0
  0
LINE
  5
3BE
330
1F
100
AcDbEntity
  8
0
  6
Continuous
 62
   144
370
    18
100
AcDbLine
 10
35.4273490777
 20
23.6695372958
 30
0.0
 11
35.4293327094
 21
23.6402209287
 31
0.0
  0
LINE
  5
3BF
330
1F
100
AcDbEntity
  8
0
  6
Continuous
 62
   144
370
    18
100
AcDbLine
 10
35.4293327094
 20
23.6402209287
 30
0.0
 11
35.4075879578
 21
23.6133161479
 31
0.0
  0
LINE
  5
3C0
330
1F
100
AcDbEntity
  8
0
  6
Continuous
 62
     7
370
    25
100
AcDbLine
 10
35.393253507
 20
23.6962152285
 30
0.0
 11
35.3969237139
 21
23.6402209287
 31
0.0
  0
LINE
  5
3C1
330
1F
100
AcDbEntity
  8
0
  6
Continuous
 62
   144
370
    18
100
AcDbLine
 10
35.371557153
 20
23.6133161479
 30
0.0
 11
35.3679446094
 21
23.6673733604
 31
0.0
  0
LINE
  5
3C2
330
1F
100
AcDbEntity
  8
0
  6
Continuous
 62
   144
370
    18
100
AcDbLine
 10
35.3932641952
 20
23.6961920507
 30
0.0
 11
35.3679446094
 21
23.6673733604
 31
0.0
  0
LINE
  5
3C3
330
1F
100
AcDbEntity
  8
0
  6
Continuous
 62
   144
370
    18
100
AcDbLine
 10
35.3969237139
 20
23.6402209287
 30
0.0
 11
35.371557153
 21
23.6133161479
 31
0.0
  0
LINE
  5
3C4
330
1F
100
AcDbEntity
  8
0
  6
Continuous
 62
   144
370
    18
100
AcDbLine
 10
35.3061481959
 20
23.6962152285
 30
0.0
 11
35.3094986557
 21
23.6402209287
 31
0.0
  0
LINE
  5
3C5
330
1F
100
AcDbEntity
  8
0
  6
Continuous
 62
   144
370
    18
100
AcDbLine
 10
35.3094986557
 20
23.6402209287
 30
0.0
 11
35.3280821219
 21
23.6133161479
 31
0.0
  0
LINE
  5
3C6
330
1F
100
AcDbEntity
  8
0
  6
Continuous
 62
   144
370
    18
100
AcDbLine
 10
35.3280821219
 20
23.6133161479
 30
0.0
 11
35.3246301439
 21
23.6673733604
 31
0.0
  0
LINE
  5
3C7
330
1F
100
AcDbEntity
  8
0
  6
Continuous
 62
   144
370
    18
100
AcDbLine
 10
35.2742285949
 20
23.6673733604
 30
0.0
 11
35.2519906294
 21
23.6961920507
 31
0.0
  0
LINE
  5
3C8
330
1F
100
AcDbEntity
  8
0
  6
Continuous
 62
   144
370
    18
100
AcDbLine
 10
35.2519962722
 20
23.6962152285
 30
0.0
 11
35.2551479504
 21
23.6402209287
 31
0.0
  0
LINE
  5
3C9
330
1F
100
AcDbEntity
  8
0
  6
Continuous
 62
   144
370
    18
100
AcDbLine
 10
35.2551479504
 20
23.6402209287
 30
0.0
 11
35.2774937357
 21
23.6133161479
 31
0.0
  0
LINE
  5
3CA
330
1F
100
AcDbEntity
  8
0
  6
Continuous
 62
   144
370
    18
100
AcDbLine
 10
35.4726576063
 20
23.4744316448
 30
0.0
 11
35.462685778
 21
23.4475779274
 31
0.0
  0
LINE
  5
3CB
330
1F
100
AcDbEntity
  8
0
  6
Continuous
 62
   144
370
    18
100
AcDbLine
 10
35.0181303821
 20
23.7232318778
 30
0.0
 11
35.0158663781
 21
23.7792070456
 31
0.0
  0
LINE
  5
3CC
330
1F
100
AcDbEntity
  8
0
  6
Continuous
 62
   144
370
    18
100
AcDbLine
 10
34.9748715408
 20
23.6962392152
 30
0.0
 11
35.0181303821
 21
23.7232318778
 31
0.0
  0
LINE
  5
3CD
330
1F
100
AcDbEntity
  8
0
  6
Continuous
 62
   144
370
    18
100
AcDbLine
 10
34.3934184215
 20
23.4475779274
 30
0.0
 11
34.4405390277
 21
23.4744316448
 31
0.0
  0
LINE
  5
3CE
330
1F
100
AcDbEntity
  8
0
  6
Continuous
 62
   144
370
    18
100
AcDbLine
 10
34.4399340553
 20
23.4187309235
 30
0.0
 11
34.4405390277
 21
23.4744316448
 31
0.0
  0
LINE
  5
3CF
330
1F
100
AcDbEntity
  8
0
  6
Continuous
 62
   144
370
    18
100
AcDbLine
 10
34.3934184215
 20
23.4475779274
 30
0.0
 11
34.4399340553
 21
23.4187309235
 31
0.0
  0
LINE
  5
3D0
330
1F
100
AcDbEntity
  8
0
  6
Continuous
 62
   144
370
    18
100
AcDbLine
 10
34.2053180998
 20
23.5574014823
 30
0.0
 11
34.2060074661
 21
23.6133161479
 31
0.0
  0
LINE
  5
3D1
330
1F
100
AcDbEntity
  8
0
  6
Continuous
 62
   144
370
    18
100
AcDbLine
 10
34.2529669183
 20
23.5304252494
 30
0.0
 11
34.2053180998
 21
23.5574014823
 31
0.0
  0
LINE
  5
3D2
330
1F
100
AcDbEntity
  8
0
  6
Continuous
 62
   144
370
    18
100
AcDbLine
 10
34.2529669183
 20
23.5304252494
 30
0.0
 11
34.2534534012
 21
23.584490979
 31
0.0
  0
LINE
  5
3D3
330
1F
100
AcDbEntity
  8
0
  6
Continuous
 62
   144
370
    18
100
AcDbLine
 10
34.2534534012
 20
23.584490979
 30
0.0
 11
34.2060074661
 21
23.6133161479
 31
0.0
  0
LINE
  5
3D4
330
1F
100
AcDbEntity
  8
0
  6
Continuous
 62
   144
370
    18
100
AcDbLine
 10
34.8037751195
 20
23.584490979
 30
0.0
 11
34.8052703578
 21
23.5304252494
 31
0.0
  0
LINE
  5
3D5
330
1F
100
AcDbEntity
  8
0
  6
Continuous
 62
   144
370
    18
100
AcDbLine
 10
34.8052703578
 20
23.5304252494
 30
0.0
 11
34.8512097562
 21
23.5574014823
 31
0.0
  0
LINE
  5
3D6
330
1F
100
AcDbEntity
  8
0
  6
Continuous
 62
   144
370
    18
100
AcDbLine
 10
34.8512097562
 20
23.5574014823
 30
0.0
 11
34.8495320028
 21
23.6133161479
 31
0.0
  0
LINE
  5
3D7
330
1F
100
AcDbEntity
  8
0
  6
Continuous
 62
   144
370
    18
100
AcDbLine
 10
34.8495320028
 20
23.6133161479
 30
0.0
 11
34.8037751195
 21
23.584490979
 31
0.0
  0
LINE
  5
3D8
330
1F
100
AcDbEntity
  8
0
  6
Continuous
 62
   144
370
    18
100
AcDbLine
 10
33.934791015
 20
23.7792070456
 30
0.0
 11
33.895542757
 21
23.7503032092
 31
0.0
  0
LINE
  5
3D9
330
1F
100
AcDbEntity
  8
0
  6
Continuous
 62
   144
370
    18
100
AcDbLine
 10
33.9331224018
 20
23.7232161723
 30
0.0
 11
33.934791448
 21
23.7792214746
 31
0.0
  0
LINE
  5
3DA
330
1F
100
AcDbEntity
  8
0
  6
Continuous
 62
   144
370
    18
100
AcDbLine
 10
33.8936687896
 20
23.6962392152
 30
0.0
 11
33.9331224018
 21
23.7232161723
 31
0.0
  0
LINE
  5
3DB
330
1F
100
AcDbEntity
  8
0
  6
Continuous
 62
   144
370
    18
100
AcDbLine
 10
33.8936687896
 20
23.6962392152
 30
0.0
 11
33.895542757
 21
23.7503032092
 31
0.0
  0
LINE
  5
3DC
330
1F
100
AcDbEntity
  8
0
  6
Continuous
 62
   144
370
    18
100
AcDbLine
 10
33.7766684984
 20
23.6673733604
 30
0.0
 11
33.8119560668
 21
23.6961920507
 31
0.0
  0
LINE
  5
3DD
330
1F
100
AcDbEntity
  8
0
  6
Continuous
 62
   144
370
    18
100
AcDbLine
 10
33.8098109507
 20
23.6402209287
 30
0.0
 11
33.811945429
 21
23.6962152285
 31
0.0
  0
LINE
  5
3DE
330
1F
100
AcDbEntity
  8
0
  6
Continuous
 62
   144
370
    18
100
AcDbLine
 10
33.8098109507
 20
23.6402209287
 30
0.0
 11
33.7743822222
 21
23.6133161479
 31
0.0
  0
LINE
  5
3DF
330
1F
100
AcDbEntity
  8
0
  6
Continuous
 62
   144
370
    18
100
AcDbLine
 10
33.7743822222
 20
23.6133161479
 30
0.0
 11
33.7766684984
 21
23.6673733604
 31
0.0
  0
LINE
  5
3E0
330
1F
100
AcDbEntity
  8
0
  6
Continuous
 62
   144
370
    18
100
AcDbLine
 10
35.3841071167
 20
23.584490979
 30
0.0
 11
35.371557153
 21
23.6133161479
 31
0.0
  0
LINE
  5
3E1
330
1F
100
AcDbEntity
  8
0
  6
Continuous
 62
   144
370
    18
100
AcDbLine
 10
35.3969237183
 20
23.6402209287
 30
0.0
 11
35.3841071167
 21
23.584490979
 31
0.0
  0
LINE
  5
3E2
330
1F
100
AcDbEntity
  8
0
  6
Continuous
 62
   144
370
    18
100
AcDbLine
 10
33.6028258182
 20
23.584490979
 30
0.0
 11
33.6302687058
 21
23.6133161479
 31
0.0
  0
LINE
  5
3E3
330
1F
100
AcDbEntity
  8
0
  6
Continuous
 62
   144
370
    18
100
AcDbLine
 10
33.666251733
 20
23.5304252494
 30
0.0
 11
33.6689737725
 21
23.584490979
 31
0.0
  0
LINE
  5
3E4
330
1F
100
AcDbEntity
  8
0
  6
Continuous
 62
   144
370
    18
100
AcDbLine
 10
33.666251733
 20
23.5304252494
 30
0.0
 11
33.6971337969
 21
23.5574014823
 31
0.0
  0
LINE
  5
3E5
330
1F
100
AcDbEntity
  8
0
  6
Continuous
 62
   144
370
    18
100
AcDbLine
 10
35.1205851016
 20
23.5304252494
 30
0.0
 11
35.0897030462
 21
23.5574014823
 31
0.0
  0
LINE
  5
3E6
330
1F
100
AcDbEntity
  8
0
  6
Continuous
 62
   144
370
    18
100
AcDbLine
 10
33.4422645378
 20
23.584490979
 30
0.0
 11
33.4299594005
 21
23.6402209287
 31
0.0
  0
LINE
  5
3E7
330
1F
100
AcDbEntity
  8
0
  6
Continuous
 62
   144
370
    18
100
AcDbLine
 10
33.4299594005
 20
23.6402209287
 30
0.0
 11
33.41527969
 21
23.6133161479
 31
0.0
  0
LINE
  5
3E8
330
1F
100
AcDbEntity
  8
0
  6
Continuous
 62
   144
370
    18
100
AcDbLine
 10
34.1613272496
 20
23.584490979
 30
0.0
 11
34.1583246716
 21
23.6402209287
 31
0.0
  0
LINE
  5
3E9
330
1F
100
AcDbEntity
  8
0
  6
Continuous
 62
   144
370
    18
100
AcDbLine
 10
34.1613272496
 20
23.584490979
 30
0.0
 11
34.2060074661
 21
23.6133161479
 31
0.0
  0
LINE
  5
3EA
330
1F
100
AcDbEntity
  8
0
  6
Continuous
 62
     7
370
    25
100
AcDbLine
 10
34.1583246716
 20
23.6402209287
 30
0.0
 11
34.2060074661
 21
23.6133161479
 31
0.0
  0
LINE
  5
3EB
330
1F
100
AcDbEntity
  8
0
  6
Continuous
 62
   144
370
    18
100
AcDbLine
 10
34.2066996279
 20
23.6673733604
 30
0.0
 11
34.1591679776
 21
23.6961920507
 31
0.0
  0
LINE
  5
3EC
330
1F
100
AcDbEntity
  8
0
  6
Continuous
 62
   144
370
    18
100
AcDbLine
 10
34.6285121602
 20
23.6402209287
 30
0.0
 11
34.6255095823
 21
23.584490979
 31
0.0
  0
LINE
  5
3ED
330
1F
100
AcDbEntity
  8
0
  6
Continuous
 62
   144
370
    18
100
AcDbLine
 10
33.9792722698
 20
23.6961823391
 30
0.0
 11
34.020906098
 21
23.7232161723
 31
0.0
  0
LINE
  5
3EE
330
1F
100
AcDbEntity
  8
0
  6
Continuous
 62
   144
370
    18
100
AcDbLine
 10
34.0667958951
 20
23.6402209287
 30
0.0
 11
34.1140862387
 21
23.6133161479
 31
0.0
  0
LINE
  5
3EF
330
1F
100
AcDbEntity
  8
0
  6
Continuous
 62
   144
370
    18
100
AcDbLine
 10
35.0871512418
 20
23.6133161479
 30
0.0
 11
35.0845890899
 21
23.6673733604
 31
0.0
  0
LINE
  5
3F0
330
1F
100
AcDbEntity
  8
0
  6
Continuous
 62
   144
370
    18
100
AcDbLine
 10
35.0546467435
 20
23.6402209287
 30
0.0
 11
35.0871512418
 21
23.6133161479
 31
0.0
  0
LINE
  5
3F1
330
1F
100
AcDbEntity
  8
0
  6
Continuous
 62
   144
370
    18
100
AcDbLine
 10
34.9738456556
 20
23.4744316431
 30
0.0
 11
34.9663936625
 21
23.4187309249
 31
0.0
  0
LINE
  5
3F2
330
1F
100
AcDbEntity
  8
0
  6
Continuous
 62
   144
370
    18
100
AcDbLine
 10
34.7182610763
 20
23.4744316448
 30
0.0
 11
34.714090484
 21
23.4187309235
 31
0.0
  0
LINE
  5
3F3
330
1F
100
AcDbEntity
  8
0
  6
Continuous
 62
   144
370
    18
100
AcDbLine
 10
34.0727463591
 20
23.4187309235
 30
0.0
 11
34.0685757668
 21
23.4744316448
 31
0.0
  0
LINE
  5
3F4
330
1F
100
AcDbEntity
  8
0
  6
Continuous
 62
   144
370
    18
100
AcDbLine
 10
34.0727463591
 20
23.4187309235
 30
0.0
 11
34.0263104905
 21
23.4475779274
 31
0.0
  0
LINE
  5
3F5
330
1F
100
AcDbEntity
  8
0
  6
Continuous
 62
     7
370
    25
100
AcDbLine
 10
34.0667959061
 20
23.6402209287
 30
0.0
 11
34.067990491
 21
23.6962152285
 31
0.0
  0
LINE
  5
3F6
330
1F
100
AcDbEntity
  8
0
  6
Continuous
 62
   144
370
    18
100
AcDbLine
 10
34.0256541904
 20
23.6673733604
 30
0.0
 11
34.0680040608
 21
23.6961920507
 31
0.0
  0
LINE
  5
3F7
330
1F
100
AcDbEntity
  8
0
  6
Continuous
 62
   144
370
    18
100
AcDbLine
 10
34.6272310663
 20
23.4744316448
 30
0.0
 11
34.6242291908
 21
23.4187309235
 31
0.0
  0
LINE
  5
3F8
330
1F
100
AcDbEntity
  8
0
  6
Continuous
 62
   144
370
    18
100
AcDbLine
 10
34.1626076523
 20
23.4187309235
 30
0.0
 11
34.1596057767
 21
23.4744316448
 31
0.0
  0
LINE
  5
3F9
330
1F
100
AcDbEntity
  8
0
  6
Continuous
 62
   144
370
    18
100
AcDbLine
 10
33.4334836013
 20
23.6962392152
 30
0.0
 11
33.406311423
 21
23.7232318778
 31
0.0
  0
LINE
  5
3FA
330
1F
100
AcDbEntity
  8
0
  6
Continuous
 62
   144
370
    18
100
AcDbLine
 10
35.353353247
 20
23.6962392152
 30
0.0
 11
35.3805264213
 21
23.7232161723
 31
0.0
  0
LINE
  5
3FB
330
1F
100
AcDbEntity
  8
0
  6
Continuous
 62
   144
370
    18
100
AcDbLine
 10
35.3769480687
 20
23.7792070456
 30
0.0
 11
35.3498286869
 21
23.7503032092
 31
0.0
  0
LINE
  5
3FC
330
1F
100
AcDbEntity
  8
0
  6
Continuous
 62
   144
370
    18
100
AcDbLine
 10
33.397254867
 20
23.7503032092
 30
0.0
 11
33.3908161464
 21
23.7792214746
 31
0.0
  0
LINE
  5
3FD
330
1F
100
AcDbEntity
  8
0
  6
Continuous
 62
   144
370
    18
100
AcDbLine
 10
35.3960207011
 20
23.7792214746
 30
0.0
 11
35.3895819804
 21
23.7503032092
 31
0.0
  0
LINE
  5
3FE
330
1F
100
AcDbEntity
  8
0
  6
Continuous
 62
   144
370
    18
100
AcDbLine
 10
33.5044706131
 20
23.7792070456
 30
0.0
 11
33.537993379
 21
23.7503032092
 31
0.0
  0
LINE
  5
3FF
330
1F
100
AcDbEntity
  8
0
  6
Continuous
 62
   144
370
    18
100
AcDbLine
 10
33.537993379
 20
23.7503032092
 30
0.0
 11
33.5324643239
 21
23.7792214746
 31
0.0
  0
LINE
  5
400
330
1F
100
AcDbEntity
  8
0
  6
Continuous
 62
   144
370
    18
100
AcDbLine
 10
35.2543725117
 20
23.7792214746
 30
0.0
 11
35.2488434571
 21
23.7503032092
 31
0.0
  0
LINE
  5
401
330
1F
100
AcDbEntity
  8
0
  6
Continuous
 62
   144
370
    18
100
AcDbLine
 10
33.6649702589
 20
23.7503032092
 30
0.0
 11
33.6602619214
 21
23.7792214746
 31
0.0
  0
LINE
  5
402
330
1F
100
AcDbEntity
  8
0
  6
Continuous
 62
   144
370
    18
100
AcDbLine
 10
35.1218665758
 20
23.7503032092
 30
0.0
 11
35.160774162
 21
23.7792070456
 31
0.0
  0
LINE
  5
403
330
1F
100
AcDbEntity
  8
0
  6
Continuous
 62
   144
370
    18
100
AcDbLine
 10
35.1265749132
 20
23.7792214746
 30
0.0
 11
35.1218665758
 21
23.7503032092
 31
0.0
  0
LINE
  5
404
330
1F
100
AcDbEntity
  8
0
  6
Continuous
 62
   144
370
    18
100
AcDbLine
 10
34.346082269
 20
23.7792214746
 30
0.0
 11
34.3463862622
 21
23.7503032092
 31
0.0
  0
LINE
  5
405
330
1F
100
AcDbEntity
  8
0
  6
Continuous
 62
   144
370
    18
100
AcDbLine
 10
34.4407545624
 20
23.7792214746
 30
0.0
 11
34.4404505694
 21
23.7503032092
 31
0.0
  0
LINE
  5
406
330
1F
100
AcDbEntity
  8
0
  6
Continuous
 62
   144
370
    18
100
AcDbLine
 10
33.4334713948
 20
23.6961920507
 30
0.0
 11
33.4622066991
 21
23.6673733604
 31
0.0
  0
LINE
  5
407
330
1F
100
AcDbEntity
  8
0
  6
Continuous
 62
   144
370
    18
100
AcDbLine
 10
33.4806866791
 20
23.6961823391
 30
0.0
 11
33.4501841072
 21
23.7232161723
 31
0.0
  0
LINE
  5
408
330
1F
100
AcDbEntity
  8
0
  6
Continuous
 62
   144
370
    18
100
AcDbLine
 10
35.4726576068
 20
23.4744316448
 30
0.0
 11
35.4634118236
 21
23.4372642491
 31
0.0
  0
LINE
  5
409
330
1F
100
AcDbEntity
  8
0
  6
Continuous
 62
   144
370
    18
100
AcDbLine
 10
33.740635188
 20
23.584490979
 30
0.0
 11
33.7743822222
 21
23.6133161479
 31
0.0
  0
LINE
  5
40A
330
1F
100
AcDbEntity
  8
0
  6
Continuous
 62
   144
370
    18
100
AcDbLine
 10
34.2528979645
 20
23.5304252494
 30
0.0
 11
34.2990090043
 21
23.5574014823
 31
0.0
  0
LINE
  5
40B
330
1F
100
AcDbEntity
  8
0
  6
Continuous
 62
   144
370
    18
100
AcDbLine
 10
34.2534533899
 20
23.584490979
 30
0.0
 11
34.2993550041
 21
23.6133161479
 31
0.0
  0
LINE
  5
40C
330
1F
100
AcDbEntity
  8
0
  6
Continuous
 62
   144
370
    18
100
AcDbLine
 10
34.4874818389
 20
23.6133161479
 30
0.0
 11
34.5333834419
 21
23.584490979
 31
0.0
  0
LINE
  5
40D
330
1F
100
AcDbEntity
  8
0
  6
Continuous
 62
   144
370
    18
100
AcDbLine
 10
34.5339388672
 20
23.5304252494
 30
0.0
 11
34.4878278387
 21
23.5574014823
 31
0.0
  0
LINE
  5
40E
330
1F
100
AcDbEntity
  8
0
  6
Continuous
 62
   144
370
    18
100
AcDbLine
 10
33.542694751
 20
23.584490979
 30
0.0
 11
33.5666598406
 21
23.6133161479
 31
0.0
  0
LINE
  5
40F
330
1F
100
AcDbEntity
  8
0
  6
Continuous
 62
   144
370
    18
100
AcDbLine
 10
33.5316888857
 20
23.6402209287
 30
0.0
 11
33.5666598406
 21
23.6133161479
 31
0.0
  0
LINE
  5
410
330
1F
100
AcDbEntity
  8
0
  6
Continuous
 62
   144
370
    18
100
AcDbLine
 10
34.8052957842
 20
23.5304014284
 30
0.0
 11
34.8068188375
 21
23.4744316448
 31
0.0
  0
LINE
  5
411
330
1F
100
AcDbEntity
  8
0
  6
Continuous
 62
   144
370
    18
100
AcDbLine
 10
34.7605263525
 20
23.4475779274
 30
0.0
 11
34.7182610763
 21
23.4744316448
 31
0.0
  0
LINE
  5
412
330
1F
100
AcDbEntity
  8
0
  6
Continuous
 62
     7
370
    25
100
AcDbLine
 10
34.3934184215
 20
23.4475779274
 30
0.0
 11
34.3462978154
 21
23.4744316448
 31
0.0
  0
LINE
  5
413
330
1F
100
AcDbEntity
  8
0
  6
Continuous
 62
     7
370
    25
100
AcDbLine
 10
34.4405390162
 20
23.4744316448
 30
0.0
 11
34.3934184215
 21
23.4475779274
 31
0.0
  0
LINE
  5
414
330
1F
100
AcDbEntity
  8
0
  6
Continuous
 62
     7
370
    25
100
AcDbLine
 10
34.3934184215
 20
23.5017916667
 30
0.0
 11
34.3934184215
 21
23.4475779274
 31
0.0
  0
LINE
  5
415
330
1F
100
AcDbEntity
  8
0
  6
Continuous
 62
   144
370
    18
100
AcDbLine
 10
33.980017995
 20
23.4744316448
 30
0.0
 11
33.9815410483
 21
23.5304014284
 31
0.0
  0
LINE
  5
416
330
1F
100
AcDbEntity
  8
0
  6
Continuous
 62
   144
370
    18
100
AcDbLine
 10
33.858748179
 20
23.5017916667
 30
0.0
 11
33.8212762044
 21
23.5263409836
 31
0.0
  0
LINE
  5
417
330
1F
100
AcDbEntity
  8
0
  6
Continuous
 62
   144
370
    18
100
AcDbLine
 10
34.252176203
 20
23.6961920507
 30
0.0
 11
34.2066996279
 21
23.6673733604
 31
0.0
  0
LINE
  5
418
330
1F
100
AcDbEntity
  8
0
  6
Continuous
 62
   144
370
    18
100
AcDbLine
 10
34.5801372151
 20
23.6673733604
 30
0.0
 11
34.5346606287
 21
23.6961920507
 31
0.0
  0
LINE
  5
419
330
1F
100
AcDbEntity
  8
0
  6
Continuous
 62
   144
370
    18
100
AcDbLine
 10
33.8488423886
 20
23.7232318778
 30
0.0
 11
33.8508159739
 21
23.7792070456
 31
0.0
  0
LINE
  5
41A
330
1F
100
AcDbEntity
  8
0
  6
Continuous
 62
   144
370
    18
100
AcDbLine
 10
33.8119066455
 20
23.6962392152
 30
0.0
 11
33.8488423886
 21
23.7232318778
 31
0.0
  0
LINE
  5
41B
330
1F
100
AcDbEntity
  8
0
  6
Continuous
 62
   144
370
    18
100
AcDbLine
 10
35.4638998131
 20
23.7538171946
 30
0.0
 11
35.4621356072
 21
23.7792214746
 31
0.0
  0
LINE
  5
41C
330
1F
100
AcDbEntity
  8
0
  6
Continuous
 62
     7
370
    25
100
AcDbLine
 10
34.5339021272
 20
23.5304014284
 30
0.0
 11
34.5344216123
 21
23.4744316448
 31
0.0
  0
LINE
  5
41D
330
1F
100
AcDbEntity
  8
0
  6
Continuous
 62
   144
370
    18
100
AcDbLine
 10
34.4866175858
 20
23.5017916667
 30
0.0
 11
34.5339183767
 21
23.5303783134
 31
0.0
  0
LINE
  5
41E
330
1F
100
AcDbEntity
  8
0
  6
Continuous
 62
   144
370
    18
100
AcDbLine
 10
34.2521933691
 20
23.6962392152
 30
0.0
 11
34.2042891501
 21
23.7232318778
 31
0.0
  0
LINE
  5
41F
330
1F
100
AcDbEntity
  8
0
  6
Continuous
 62
   144
370
    18
100
AcDbLine
 10
34.2521933691
 20
23.6962392152
 30
0.0
 11
34.2526799096
 21
23.7503032092
 31
0.0
  0
LINE
  5
420
330
1F
100
AcDbEntity
  8
0
  6
Continuous
 62
   144
370
    18
100
AcDbLine
 10
34.2526799096
 20
23.7503032092
 30
0.0
 11
34.2049745691
 21
23.7792070456
 31
0.0
  0
LINE
  5
421
330
1F
100
AcDbEntity
  8
0
  6
Continuous
 62
   144
370
    18
100
AcDbLine
 10
33.9792985646
 20
23.6962392152
 30
0.0
 11
33.9331228687
 21
23.7232318778
 31
0.0
  0
LINE
  5
422
330
1F
100
AcDbEntity
  8
0
  6
Continuous
 62
   144
370
    18
100
AcDbLine
 10
33.9792985646
 20
23.6962392152
 30
0.0
 11
33.9807939713
 21
23.7503032092
 31
0.0
  0
LINE
  5
423
330
1F
100
AcDbEntity
  8
0
  6
Continuous
 62
   144
370
    18
100
AcDbLine
 10
34.6285121602
 20
23.6402209287
 30
0.0
 11
34.6727506044
 21
23.6133161479
 31
0.0
  0
LINE
  5
424
330
1F
100
AcDbEntity
  8
0
  6
Continuous
 62
   144
370
    18
100
AcDbLine
 10
34.6276523314
 20
23.6962152285
 30
0.0
 11
34.6285121602
 21
23.6402209287
 31
0.0
  0
LINE
  5
425
330
1F
100
AcDbEntity
  8
0
  6
Continuous
 62
   144
370
    18
100
AcDbLine
 10
34.7200409479
 20
23.6402209287
 30
0.0
 11
34.7158693797
 21
23.584490979
 31
0.0
  0
LINE
  5
426
330
1F
100
AcDbEntity
  8
0
  6
Continuous
 62
   144
370
    18
100
AcDbLine
 10
34.7200409479
 20
23.6402209287
 30
0.0
 11
34.6727506044
 21
23.6133161479
 31
0.0
  0
LINE
  5
427
330
1F
100
AcDbEntity
  8
0
  6
Continuous
 62
   144
370
    18
100
AcDbLine
 10
33.6071873365
 20
23.4187309235
 30
0.0
 11
33.5711832519
 21
23.4475779274
 31
0.0
  0
LINE
  5
428
330
1F
100
AcDbEntity
  8
0
  6
Continuous
 62
   144
370
    18
100
AcDbLine
 10
33.6071873365
 20
23.4187309235
 30
0.0
 11
33.596961783
 21
23.4744316448
 31
0.0
  0
LINE
  5
429
330
1F
100
AcDbEntity
  8
0
  6
Continuous
 62
   144
370
    18
100
AcDbLine
 10
33.5969617753
 20
23.4744316448
 30
0.0
 11
33.5711832519
 21
23.4475779274
 31
0.0
  0
LINE
  5
42A
330
1F
100
AcDbEntity
  8
0
  6
Continuous
 62
   144
370
    18
100
AcDbLine
 10
34.8060428718
 20
23.7503032092
 30
0.0
 11
34.8076025225
 21
23.6962392152
 31
0.0
  0
LINE
  5
42B
330
1F
100
AcDbEntity
  8
0
  6
Continuous
 62
   144
370
    18
100
AcDbLine
 10
34.8076025225
 20
23.6962392152
 30
0.0
 11
34.765930745
 21
23.7232161723
 31
0.0
  0
LINE
  5
42C
330
1F
100
AcDbEntity
  8
0
  6
Continuous
 62
   144
370
    18
100
AcDbLine
 10
34.7645803554
 20
23.7792070456
 30
0.0
 11
34.8060428718
 21
23.7503032092
 31
0.0
  0
LINE
  5
42D
330
1F
100
AcDbEntity
  8
0
  6
Continuous
 62
   144
370
    18
100
AcDbLine
 10
34.3462978268
 20
23.4744316448
 30
0.0
 11
34.3934184215
 21
23.4475779274
 31
0.0
  0
LINE
  5
42E
330
1F
100
AcDbEntity
  8
0
  6
Continuous
 62
   144
370
    18
100
AcDbLine
 10
34.3469027878
 20
23.4187309235
 30
0.0
 11
34.3462978154
 21
23.4744316448
 31
0.0
  0
LINE
  5
42F
330
1F
100
AcDbEntity
  8
0
  6
Continuous
 62
   144
370
    18
100
AcDbLine
 10
34.3469027878
 20
23.4187309235
 30
0.0
 11
34.3934184215
 21
23.4475779274
 31
0.0
  0
LINE
  5
430
330
1F
100
AcDbEntity
  8
0
  6
Continuous
 62
   144
370
    18
100
AcDbLine
 10
34.6727506044
 20
23.6133161479
 30
0.0
 11
34.6717189514
 21
23.6673733604
 31
0.0
  0
LINE
  5
431
330
1F
100
AcDbEntity
  8
0
  6
Continuous
 62
   144
370
    18
100
AcDbLine
 10
34.6276379928
 20
23.6961920507
 30
0.0
 11
34.6717189514
 21
23.6673733604
 31
0.0
  0
LINE
  5
432
330
1F
100
AcDbEntity
  8
0
  6
Continuous
 62
   144
370
    18
100
AcDbLine
 10
34.6276523427
 20
23.6962152285
 30
0.0
 11
34.6285121714
 21
23.6402209287
 31
0.0
  0
LINE
  5
433
330
1F
100
AcDbEntity
  8
0
  6
Continuous
 62
   144
370
    18
100
AcDbLine
 10
34.6285121714
 20
23.6402209287
 30
0.0
 11
34.6727506044
 21
23.6133161479
 31
0.0
  0
LINE
  5
434
330
1F
100
AcDbEntity
  8
0
  6
Continuous
 62
     7
370
    25
100
AcDbLine
 10
34.8453412386
 20
23.5017916667
 30
0.0
 11
34.8470364867
 21
23.4475779274
 31
0.0
  0
LINE
  5
435
330
1F
100
AcDbEntity
  8
0
  6
Continuous
 62
   144
370
    18
100
AcDbLine
 10
34.805283182
 20
23.5303783134
 30
0.0
 11
34.8453412386
 21
23.5017916667
 31
0.0
  0
LINE
  5
436
330
1F
100
AcDbEntity
  8
0
  6
Continuous
 62
   144
370
    18
100
AcDbLine
 10
34.8052957947
 20
23.5304014284
 30
0.0
 11
34.8068188481
 21
23.4744316448
 31
0.0
  0
LINE
  5
437
330
1F
100
AcDbEntity
  8
0
  6
Continuous
 62
   144
370
    18
100
AcDbLine
 10
34.8068188481
 20
23.4744316448
 30
0.0
 11
34.8470364867
 21
23.4475779274
 31
0.0
  0
LINE
  5
438
330
1F
100
AcDbEntity
  8
0
  6
Continuous
 62
   144
370
    18
100
AcDbLine
 10
34.8470364867
 20
23.4475779274
 30
0.0
 11
34.8922303821
 21
23.4744316448
 31
0.0
  0
LINE
  5
439
330
1F
100
AcDbEntity
  8
0
  6
Continuous
 62
   144
370
    18
100
AcDbLine
 10
34.8903926548
 20
23.5304014284
 30
0.0
 11
34.8922303821
 21
23.4744316448
 31
0.0
  0
LINE
  5
43A
330
1F
100
AcDbEntity
  8
0
  6
Continuous
 62
   144
370
    18
100
AcDbLine
 10
34.8453412386
 20
23.5017916667
 30
0.0
 11
34.8904089229
 21
23.5303783134
 31
0.0
  0
LINE
  5
43B
330
1F
100
AcDbEntity
  8
0
  6
Continuous
 62
   144
370
    18
100
AcDbLine
 10
33.9356270869
 20
23.5574014823
 30
0.0
 11
33.9373048403
 21
23.6133161479
 31
0.0
  0
LINE
  5
43C
330
1F
100
AcDbEntity
  8
0
  6
Continuous
 62
   144
370
    18
100
AcDbLine
 10
33.9815664958
 20
23.5304252494
 30
0.0
 11
33.9356270869
 21
23.5574014823
 31
0.0
  0
LINE
  5
43D
330
1F
100
AcDbEntity
  8
0
  6
Continuous
 62
   144
370
    18
100
AcDbLine
 10
33.9815664958
 20
23.5304252494
 30
0.0
 11
33.983061734
 21
23.584490979
 31
0.0
  0
LINE
  5
43E
330
1F
100
AcDbEntity
  8
0
  6
Continuous
 62
   144
370
    18
100
AcDbLine
 10
33.983061734
 20
23.584490979
 30
0.0
 11
33.9373048403
 21
23.6133161479
 31
0.0
  0
LINE
  5
43F
330
1F
100
AcDbEntity
  8
0
  6
Continuous
 62
   144
370
    18
100
AcDbLine
 10
33.7381779339
 20
23.5304252494
 30
0.0
 11
33.740635197
 21
23.584490979
 31
0.0
  0
LINE
  5
440
330
1F
100
AcDbEntity
  8
0
  6
Continuous
 62
   144
370
    18
100
AcDbLine
 10
33.7381779339
 20
23.5304252494
 30
0.0
 11
33.7721051795
 21
23.5574014823
 31
0.0
  0
LINE
  5
441
330
1F
100
AcDbEntity
  8
0
  6
Continuous
 62
   144
370
    18
100
AcDbLine
 10
33.7721051795
 20
23.5574014823
 30
0.0
 11
33.7743822222
 21
23.6133161479
 31
0.0
  0
LINE
  5
442
330
1F
100
AcDbEntity
  8
0
  6
Continuous
 62
     7
370
    25
100
AcDbLine
 10
35.2277581555
 20
23.7232161723
 30
0.0
 11
35.2247328165
 21
23.7792214746
 31
0.0
  0
LINE
  5
443
330
1F
100
AcDbEntity
  8
0
  6
Continuous
 62
   144
370
    18
100
AcDbLine
 10
35.1883800933
 20
23.7503032092
 30
0.0
 11
35.1912995385
 21
23.6962392152
 31
0.0
  0
LINE
  5
444
330
1F
100
AcDbEntity
  8
0
  6
Continuous
 62
   144
370
    18
100
AcDbLine
 10
35.1912995385
 20
23.6962392152
 30
0.0
 11
35.2277581555
 21
23.7232161723
 31
0.0
  0
LINE
  5
445
330
1F
100
AcDbEntity
  8
0
  6
Continuous
 62
   144
370
    18
100
AcDbLine
 10
35.2247336012
 20
23.7792070456
 30
0.0
 11
35.1883800933
 21
23.7503032092
 31
0.0
  0
LINE
  5
446
330
1F
100
AcDbEntity
  8
0
  6
Continuous
 62
   144
370
    18
100
AcDbLine
 10
35.2520313988
 20
23.6962392152
 30
0.0
 11
35.2277573093
 21
23.7232318778
 31
0.0
  0
LINE
  5
447
330
1F
100
AcDbEntity
  8
0
  6
Continuous
 62
   144
370
    18
100
AcDbLine
 10
33.5955373045
 20
23.6962392152
 30
0.0
 11
33.5590786875
 21
23.7232161723
 31
0.0
  0
LINE
  5
448
330
1F
100
AcDbEntity
  8
0
  6
Continuous
 62
   144
370
    18
100
AcDbLine
 10
33.5955373045
 20
23.6962392152
 30
0.0
 11
33.5984567498
 21
23.7503032092
 31
0.0
  0
LINE
  5
449
330
1F
100
AcDbEntity
  8
0
  6
Continuous
 62
   144
370
    18
100
AcDbLine
 10
34.2060074661
 20
23.6133161479
 30
0.0
 11
34.1613272607
 21
23.584490979
 31
0.0
  0
LINE
  5
44A
330
1F
100
AcDbEntity
  8
0
  6
Continuous
 62
   144
370
    18
100
AcDbLine
 10
34.1604294658
 20
23.5304252494
 30
0.0
 11
34.2053180998
 21
23.5574014823
 31
0.0
  0
LINE
  5
44B
330
1F
100
AcDbEntity
  8
0
  6
Continuous
 62
     7
370
    25
100
AcDbLine
 10
34.1604973548
 20
23.5304252494
 30
0.0
 11
34.1613272607
 21
23.584490979
 31
0.0
  0
LINE
  5
44C
330
1F
100
AcDbEntity
  8
0
  6
Continuous
 62
   144
370
    18
100
AcDbLine
 10
35.124588921
 20
23.6962392152
 30
0.0
 11
35.0935118745
 21
23.7232318778
 31
0.0
  0
LINE
  5
44D
330
1F
100
AcDbEntity
  8
0
  6
Continuous
 62
   144
370
    18
100
AcDbLine
 10
33.8936687795
 20
23.6962392152
 30
0.0
 11
33.8955427469
 21
23.7503032092
 31
0.0
  0
LINE
  5
44E
330
1F
100
AcDbEntity
  8
0
  6
Continuous
 62
   144
370
    18
100
AcDbLine
 10
33.8936687795
 20
23.6962392152
 30
0.0
 11
33.9331228687
 21
23.7232318778
 31
0.0
  0
LINE
  5
44F
330
1F
100
AcDbEntity
  8
0
  6
Continuous
 62
   144
370
    18
100
AcDbLine
 10
33.9331228687
 20
23.7232318778
 30
0.0
 11
33.934791015
 21
23.7792070456
 31
0.0
  0
LINE
  5
450
330
1F
100
AcDbEntity
  8
0
  6
Continuous
 62
   144
370
    18
100
AcDbLine
 10
34.4403499299
 20
23.5303783134
 30
0.0
 11
34.4866175858
 21
23.5017916667
 31
0.0
  0
LINE
  5
451
330
1F
100
AcDbEntity
  8
0
  6
Continuous
 62
   144
370
    18
100
AcDbLine
 10
34.4405390277
 20
23.4744316448
 30
0.0
 11
34.4403654256
 21
23.5304014284
 31
0.0
  0
LINE
  5
452
330
1F
100
AcDbEntity
  8
0
  6
Continuous
 62
   144
370
    18
100
AcDbLine
 10
34.2984925643
 20
23.7232318778
 30
0.0
 11
34.2988365828
 21
23.7792070456
 31
0.0
  0
LINE
  5
453
330
1F
100
AcDbEntity
  8
0
  6
Continuous
 62
   144
370
    18
100
AcDbLine
 10
34.1156145377
 20
23.4475779274
 30
0.0
 11
34.0727463483
 21
23.4187309235
 31
0.0
  0
LINE
  5
454
330
1F
100
AcDbEntity
  8
0
  6
Continuous
 62
   144
370
    18
100
AcDbLine
 10
34.0727463483
 20
23.4187309235
 30
0.0
 11
34.0685757558
 21
23.4744316448
 31
0.0
  0
LINE
  5
455
330
1F
100
AcDbEntity
  8
0
  6
Continuous
 62
   144
370
    18
100
AcDbLine
 10
34.1156145377
 20
23.4475779274
 30
0.0
 11
34.0685757558
 21
23.4744316448
 31
0.0
  0
LINE
  5
456
330
1F
100
AcDbEntity
  8
0
  6
Continuous
 62
   144
370
    18
100
AcDbLine
 10
35.4663806735
 20
23.6961920507
 30
0.0
 11
35.452353321
 21
23.6673733604
 31
0.0
  0
LINE
  5
457
330
1F
100
AcDbEntity
  8
0
  6
Continuous
 62
   144
370
    18
100
AcDbLine
 10
35.449981613
 20
23.6961823391
 30
0.0
 11
35.4660249081
 21
23.7232161723
 31
0.0
  0
LINE
  5
458
330
1F
100
AcDbEntity
  8
0
  6
Continuous
 62
   144
370
    18
100
AcDbLine
 10
34.5341569335
 20
23.7503032092
 30
0.0
 11
34.581862274
 21
23.7792070456
 31
0.0
  0
LINE
  5
459
330
1F
100
AcDbEntity
  8
0
  6
Continuous
 62
   144
370
    18
100
AcDbLine
 10
34.5341569335
 20
23.7503032092
 30
0.0
 11
34.5346434739
 21
23.6962392152
 31
0.0
  0
LINE
  5
45A
330
1F
100
AcDbEntity
  8
0
  6
Continuous
 62
   144
370
    18
100
AcDbLine
 10
34.5346434739
 20
23.6962392152
 30
0.0
 11
34.582547693
 21
23.7232318778
 31
0.0
  0
LINE
  5
45B
330
1F
100
AcDbEntity
  8
0
  6
Continuous
 62
   144
370
    18
100
AcDbLine
 10
34.4407972084
 20
23.6402209287
 30
0.0
 11
34.4874818389
 21
23.6133161479
 31
0.0
  0
LINE
  5
45C
330
1F
100
AcDbEntity
  8
0
  6
Continuous
 62
   144
370
    18
100
AcDbLine
 10
34.4407972084
 20
23.6402209287
 30
0.0
 11
34.4406239259
 21
23.6962152285
 31
0.0
  0
LINE
  5
45D
330
1F
100
AcDbEntity
  8
0
  6
Continuous
 62
   144
370
    18
100
AcDbLine
 10
34.4406083488
 20
23.6961920507
 30
0.0
 11
34.4871344361
 21
23.6673733604
 31
0.0
  0
LINE
  5
45E
330
1F
100
AcDbEntity
  8
0
  6
Continuous
 62
   144
370
    18
100
AcDbLine
 10
34.4874818389
 20
23.6133161479
 30
0.0
 11
34.4871344361
 21
23.6673733604
 31
0.0
  0
LINE
  5
45F
330
1F
100
AcDbEntity
  8
0
  6
Continuous
 62
   144
370
    18
100
AcDbLine
 10
34.6737780908
 20
23.5574014823
 30
0.0
 11
34.6727506044
 21
23.6133161479
 31
0.0
  0
LINE
  5
460
330
1F
100
AcDbEntity
  8
0
  6
Continuous
 62
   144
370
    18
100
AcDbLine
 10
34.7171027116
 20
23.5304252494
 30
0.0
 11
34.6737780908
 21
23.5574014823
 31
0.0
  0
LINE
  5
461
330
1F
100
AcDbEntity
  8
0
  6
Continuous
 62
   144
370
    18
100
AcDbLine
 10
34.7158693797
 20
23.584490979
 30
0.0
 11
34.7171027116
 21
23.5304252494
 31
0.0
  0
LINE
  5
462
330
1F
100
AcDbEntity
  8
0
  6
Continuous
 62
   144
370
    18
100
AcDbLine
 10
34.7158693797
 20
23.584490979
 30
0.0
 11
34.6727506044
 21
23.6133161479
 31
0.0
  0
LINE
  5
463
330
1F
100
AcDbEntity
  8
0
  6
Continuous
 62
   144
370
    18
100
AcDbLine
 10
34.1140862387
 20
23.6133161479
 30
0.0
 11
34.1151178916
 21
23.6673733604
 31
0.0
  0
LINE
  5
464
330
1F
100
AcDbEntity
  8
0
  6
Continuous
 62
   144
370
    18
100
AcDbLine
 10
34.1583246829
 20
23.6402209287
 30
0.0
 11
34.1140862387
 21
23.6133161479
 31
0.0
  0
LINE
  5
465
330
1F
100
AcDbEntity
  8
0
  6
Continuous
 62
   144
370
    18
100
AcDbLine
 10
34.1583246829
 20
23.6402209287
 30
0.0
 11
34.1591845116
 21
23.6962152285
 31
0.0
  0
LINE
  5
466
330
1F
100
AcDbEntity
  8
0
  6
Continuous
 62
   144
370
    18
100
AcDbLine
 10
34.1151178916
 20
23.6673733604
 30
0.0
 11
34.1591988615
 21
23.6961920507
 31
0.0
  0
LINE
  5
467
330
1F
100
AcDbEntity
  8
0
  6
Continuous
 62
     7
370
    25
100
AcDbLine
 10
33.9414956045
 20
23.5017916667
 30
0.0
 11
33.9398003563
 21
23.4475779274
 31
0.0
  0
LINE
  5
468
330
1F
100
AcDbEntity
  8
0
  6
Continuous
 62
   144
370
    18
100
AcDbLine
 10
33.9414956045
 20
23.5017916667
 30
0.0
 11
33.9815536716
 21
23.5303783134
 31
0.0
  0
LINE
  5
469
330
1F
100
AcDbEntity
  8
0
  6
Continuous
 62
   144
370
    18
100
AcDbLine
 10
33.9800180055
 20
23.4744316448
 30
0.0
 11
33.9815410589
 21
23.5304014284
 31
0.0
  0
LINE
  5
46A
330
1F
100
AcDbEntity
  8
0
  6
Continuous
 62
   144
370
    18
100
AcDbLine
 10
33.9398003563
 20
23.4475779274
 30
0.0
 11
33.9800180055
 21
23.4744316448
 31
0.0
  0
LINE
  5
46B
330
1F
100
AcDbEntity
  8
0
  6
Continuous
 62
   144
370
    18
100
AcDbLine
 10
33.8964279302
 20
23.5303783134
 30
0.0
 11
33.9414956045
 21
23.5017916667
 31
0.0
  0
LINE
  5
46C
330
1F
100
AcDbEntity
  8
0
  6
Continuous
 62
   144
370
    18
100
AcDbLine
 10
33.8946064711
 20
23.4744316448
 30
0.0
 11
33.8964441984
 21
23.5304014284
 31
0.0
  0
LINE
  5
46D
330
1F
100
AcDbEntity
  8
0
  6
Continuous
 62
   144
370
    18
100
AcDbLine
 10
33.8946064711
 20
23.4744316448
 30
0.0
 11
33.9398003563
 21
23.4475779274
 31
0.0
  0
LINE
  5
46E
330
1F
100
AcDbEntity
  8
0
  6
Continuous
 62
   144
370
    18
100
AcDbLine
 10
35.1178630706
 20
23.584490979
 30
0.0
 11
35.0871512418
 21
23.6133161479
 31
0.0
  0
LINE
  5
46F
330
1F
100
AcDbEntity
  8
0
  6
Continuous
 62
   144
370
    18
100
AcDbLine
 10
35.1272352563
 20
23.6402209287
 30
0.0
 11
35.0871512418
 21
23.6133161479
 31
0.0
  0
LINE
  5
470
330
1F
100
AcDbEntity
  8
0
  6
Continuous
 62
   144
370
    18
100
AcDbLine
 10
35.212580758
 20
23.5017916667
 30
0.0
 11
35.2156535912
 21
23.4475779274
 31
0.0
  0
LINE
  5
471
330
1F
100
AcDbEntity
  8
0
  6
Continuous
 62
   144
370
    18
100
AcDbLine
 10
35.2472946527
 20
23.5304014284
 30
0.0
 11
35.2504521436
 21
23.4744316448
 31
0.0
  0
LINE
  5
472
330
1F
100
AcDbEntity
  8
0
  6
Continuous
 62
   144
370
    18
100
AcDbLine
 10
35.2156535912
 20
23.4475779274
 30
0.0
 11
35.2504521436
 21
23.4744316448
 31
0.0
  0
LINE
  5
473
330
1F
100
AcDbEntity
  8
0
  6
Continuous
 62
   144
370
    18
100
AcDbLine
 10
35.2473296776
 20
23.5304252494
 30
0.0
 11
35.2232181244
 21
23.5574014823
 31
0.0
  0
LINE
  5
474
330
1F
100
AcDbEntity
  8
0
  6
Continuous
 62
   144
370
    18
100
AcDbLine
 10
35.244142092
 20
23.584490979
 30
0.0
 11
35.2473296776
 21
23.5304252494
 31
0.0
  0
LINE
  5
475
330
1F
100
AcDbEntity
  8
0
  6
Continuous
 62
   144
370
    18
100
AcDbLine
 10
35.0510435189
 20
23.4744316448
 30
0.0
 11
35.0426003968
 21
23.4187309235
 31
0.0
  0
LINE
  5
476
330
1F
100
AcDbEntity
  8
0
  6
Continuous
 62
   144
370
    18
100
AcDbLine
 10
35.0833556491
 20
23.4475779274
 30
0.0
 11
35.0510435189
 21
23.4744316448
 31
0.0
  0
LINE
  5
477
330
1F
100
AcDbEntity
  8
0
  6
Continuous
 62
   144
370
    18
100
AcDbLine
 10
35.1912995308
 20
23.6962392152
 30
0.0
 11
35.2277573093
 21
23.7232318778
 31
0.0
  0
LINE
  5
478
330
1F
100
AcDbEntity
  8
0
  6
Continuous
 62
   144
370
    18
100
AcDbLine
 10
34.7182610872
 20
23.4744316448
 30
0.0
 11
34.7140904948
 21
23.4187309235
 31
0.0
  0
LINE
  5
479
330
1F
100
AcDbEntity
  8
0
  6
Continuous
 62
   144
370
    18
100
AcDbLine
 10
35.1898750597
 20
23.4744316431
 30
0.0
 11
35.1796495068
 21
23.4187309249
 31
0.0
  0
LINE
  5
47A
330
1F
100
AcDbEntity
  8
0
  6
Continuous
 62
   144
370
    18
100
AcDbLine
 10
35.1898750678
 20
23.4744316448
 30
0.0
 11
35.2156535912
 21
23.4475779274
 31
0.0
  0
LINE
  5
47B
330
1F
100
AcDbEntity
  8
0
  6
Continuous
 62
   144
370
    18
100
AcDbLine
 10
33.6958621608
 20
23.7792070456
 30
0.0
 11
33.7370276983
 21
23.7503032092
 31
0.0
  0
LINE
  5
47C
330
1F
100
AcDbEntity
  8
0
  6
Continuous
 62
   144
370
    18
100
AcDbLine
 10
33.6933242584
 20
23.7232161723
 30
0.0
 11
33.6958628193
 21
23.7792214746
 31
0.0
  0
LINE
  5
47D
330
1F
100
AcDbEntity
  8
0
  6
Continuous
 62
   144
370
    18
100
AcDbLine
 10
33.7346253348
 20
23.6962392152
 30
0.0
 11
33.7370276983
 21
23.7503032092
 31
0.0
  0
LINE
  5
47E
330
1F
100
AcDbEntity
  8
0
  6
Continuous
 62
   144
370
    18
100
AcDbLine
 10
34.4401920945
 20
23.584490979
 30
0.0
 11
34.4407972084
 21
23.6402209287
 31
0.0
  0
LINE
  5
47F
330
1F
100
AcDbEntity
  8
0
  6
Continuous
 62
   144
370
    18
100
AcDbLine
 10
34.3466447599
 20
23.584490979
 30
0.0
 11
34.3460396461
 21
23.6402209287
 31
0.0
  0
LINE
  5
480
330
1F
100
AcDbEntity
  8
0
  6
Continuous
 62
   144
370
    18
100
AcDbLine
 10
34.7140904948
 20
23.4187309235
 30
0.0
 11
34.6712223053
 21
23.4475779274
 31
0.0
  0
LINE
  5
481
330
1F
100
AcDbEntity
  8
0
  6
Continuous
 62
   144
370
    18
100
AcDbLine
 10
34.9749074461
 20
23.6961920507
 30
0.0
 11
34.9310537601
 21
23.6673733604
 31
0.0
  0
LINE
  5
482
330
1F
100
AcDbEntity
  8
0
  6
Continuous
 62
   144
370
    18
100
AcDbLine
 10
34.9748926678
 20
23.6961823391
 30
0.0
 11
34.9379950068
 21
23.7232161723
 31
0.0
  0
LINE
  5
483
330
1F
100
AcDbEntity
  8
0
  6
Continuous
 62
   144
370
    18
100
AcDbLine
 10
34.8931301693
 20
23.6961823391
 30
0.0
 11
34.9379950068
 21
23.7232161723
 31
0.0
  0
LINE
  5
484
330
1F
100
AcDbEntity
  8
0
  6
Continuous
 62
   144
370
    18
100
AcDbLine
 10
34.2521933578
 20
23.6962392152
 30
0.0
 11
34.2526798982
 21
23.7503032092
 31
0.0
  0
LINE
  5
485
330
1F
100
AcDbEntity
  8
0
  6
Continuous
 62
   144
370
    18
100
AcDbLine
 10
34.2521933578
 20
23.6962392152
 30
0.0
 11
34.2042889583
 21
23.7232161723
 31
0.0
  0
LINE
  5
486
330
1F
100
AcDbEntity
  8
0
  6
Continuous
 62
   144
370
    18
100
AcDbLine
 10
34.2049745691
 20
23.7792070456
 30
0.0
 11
34.2526798982
 21
23.7503032092
 31
0.0
  0
LINE
  5
487
330
1F
100
AcDbEntity
  8
0
  6
Continuous
 62
   144
370
    18
100
AcDbLine
 10
34.4874818389
 20
23.6133161479
 30
0.0
 11
34.4401920945
 21
23.584490979
 31
0.0
  0
LINE
  5
488
330
1F
100
AcDbEntity
  8
0
  6
Continuous
 62
   144
370
    18
100
AcDbLine
 10
34.4878278387
 20
23.5574014823
 30
0.0
 11
34.4874818389
 21
23.6133161479
 31
0.0
  0
LINE
  5
489
330
1F
100
AcDbEntity
  8
0
  6
Continuous
 62
   144
370
    18
100
AcDbLine
 10
34.440331452
 20
23.5304252494
 30
0.0
 11
34.4878278387
 21
23.5574014823
 31
0.0
  0
LINE
  5
48A
330
1F
100
AcDbEntity
  8
0
  6
Continuous
 62
   144
370
    18
100
AcDbLine
 10
34.440331452
 20
23.5304252494
 30
0.0
 11
34.4401920945
 21
23.584490979
 31
0.0
  0
LINE
  5
48B
330
1F
100
AcDbEntity
  8
0
  6
Continuous
 62
     7
370
    25
100
AcDbLine
 10
34.7170642991
 20
23.5304014284
 30
0.0
 11
34.7182610872
 21
23.4744316448
 31
0.0
  0
LINE
  5
48C
330
1F
100
AcDbEntity
  8
0
  6
Continuous
 62
   144
370
    18
100
AcDbLine
 10
34.6712223053
 20
23.4475779274
 30
0.0
 11
34.7182610872
 21
23.4744316448
 31
0.0
  0
LINE
  5
48D
330
1F
100
AcDbEntity
  8
0
  6
Continuous
 62
   144
370
    18
100
AcDbLine
 10
34.6701841048
 20
23.5017916667
 30
0.0
 11
34.7170808087
 21
23.5303783134
 31
0.0
  0
LINE
  5
48E
330
1F
100
AcDbEntity
  8
0
  6
Continuous
 62
   144
370
    18
100
AcDbLine
 10
34.6701841048
 20
23.5017916667
 30
0.0
 11
34.6712223053
 21
23.4475779274
 31
0.0
  0
LINE
  5
48F
330
1F
100
AcDbEntity
  8
0
  6
Continuous
 62
   144
370
    18
100
AcDbLine
 10
34.7591544075
 20
23.5017916667
 30
0.0
 11
34.7605263525
 21
23.4475779274
 31
0.0
  0
LINE
  5
490
330
1F
100
AcDbEntity
  8
0
  6
Continuous
 62
   144
370
    18
100
AcDbLine
 10
34.7170508059
 20
23.5303783134
 30
0.0
 11
34.7591544075
 21
23.5017916667
 31
0.0
  0
LINE
  5
491
330
1F
100
AcDbEntity
  8
0
  6
Continuous
 62
   144
370
    18
100
AcDbLine
 10
34.7182610872
 20
23.4744316448
 30
0.0
 11
34.7605263525
 21
23.4475779274
 31
0.0
  0
LINE
  5
492
330
1F
100
AcDbEntity
  8
0
  6
Continuous
 62
   144
370
    18
100
AcDbLine
 10
34.0685757668
 20
23.4744316448
 30
0.0
 11
34.1156145377
 21
23.4475779274
 31
0.0
  0
LINE
  5
493
330
1F
100
AcDbEntity
  8
0
  6
Continuous
 62
     7
370
    25
100
AcDbLine
 10
34.0685757668
 20
23.4744316448
 30
0.0
 11
34.0697725548
 21
23.5304014284
 31
0.0
  0
LINE
  5
494
330
1F
100
AcDbEntity
  8
0
  6
Continuous
 62
   144
370
    18
100
AcDbLine
 10
34.0697560452
 20
23.5303783134
 30
0.0
 11
34.1166527383
 21
23.5017916667
 31
0.0
  0
LINE
  5
495
330
1F
100
AcDbEntity
  8
0
  6
Continuous
 62
   144
370
    18
100
AcDbLine
 10
34.1166527383
 20
23.5017916667
 30
0.0
 11
34.1156145377
 21
23.4475779274
 31
0.0
  0
LINE
  5
496
330
1F
100
AcDbEntity
  8
0
  6
Continuous
 62
   144
370
    18
100
AcDbLine
 10
34.0263104905
 20
23.4475779274
 30
0.0
 11
34.0685757668
 21
23.4744316448
 31
0.0
  0
LINE
  5
497
330
1F
100
AcDbEntity
  8
0
  6
Continuous
 62
   144
370
    18
100
AcDbLine
 10
34.0276824355
 20
23.5017916667
 30
0.0
 11
34.069786048
 21
23.5303783134
 31
0.0
  0
LINE
  5
498
330
1F
100
AcDbEntity
  8
0
  6
Continuous
 62
   144
370
    18
100
AcDbLine
 10
34.0276824355
 20
23.5017916667
 30
0.0
 11
34.0263104905
 21
23.4475779274
 31
0.0
  0
LINE
  5
499
330
1F
100
AcDbEntity
  8
0
  6
Continuous
 62
   144
370
    18
100
AcDbLine
 10
34.9727561755
 20
23.7503032092
 30
0.0
 11
34.9360208692
 21
23.7792070456
 31
0.0
  0
LINE
  5
49A
330
1F
100
AcDbEntity
  8
0
  6
Continuous
 62
     7
370
    25
100
AcDbLine
 10
34.9727561755
 20
23.7503032092
 30
0.0
 11
34.9748715505
 21
23.6962392152
 31
0.0
  0
LINE
  5
49B
330
1F
100
AcDbEntity
  8
0
  6
Continuous
 62
   144
370
    18
100
AcDbLine
 10
34.9749301976
 20
23.6962392152
 30
0.0
 11
34.9379944545
 21
23.7232318778
 31
0.0
  0
LINE
  5
49C
330
1F
100
AcDbEntity
  8
0
  6
Continuous
 62
   144
370
    18
100
AcDbLine
 10
34.9379944545
 20
23.7232318778
 30
0.0
 11
34.9360208692
 21
23.7792070456
 31
0.0
  0
LINE
  5
49D
330
1F
100
AcDbEntity
  8
0
  6
Continuous
 62
   144
370
    18
100
AcDbLine
 10
34.9748715505
 20
23.6962392152
 30
0.0
 11
35.0181310157
 21
23.7232161723
 31
0.0
  0
LINE
  5
49E
330
1F
100
AcDbEntity
  8
0
  6
Continuous
 62
   144
370
    18
100
AcDbLine
 10
35.0181310157
 20
23.7232161723
 30
0.0
 11
35.0158657905
 21
23.7792214746
 31
0.0
  0
LINE
  5
49F
330
1F
100
AcDbEntity
  8
0
  6
Continuous
 62
   144
370
    18
100
AcDbLine
 10
35.0158663781
 20
23.7792070456
 30
0.0
 11
34.9727561755
 21
23.7503032092
 31
0.0
  0
LINE
  5
4A0
330
1F
100
AcDbEntity
  8
0
  6
Continuous
 62
   144
370
    18
100
AcDbLine
 10
35.0426003968
 20
23.4187309235
 30
0.0
 11
35.0833556491
 21
23.4475779274
 31
0.0
  0
LINE
  5
4A1
330
1F
100
AcDbEntity
  8
0
  6
Continuous
 62
   144
370
    18
100
AcDbLine
 10
35.2232181244
 20
23.5574014823
 30
0.0
 11
35.2201770024
 21
23.6133161479
 31
0.0
  0
LINE
  5
4A2
330
1F
100
AcDbEntity
  8
0
  6
Continuous
 62
   144
370
    18
100
AcDbLine
 10
35.1869301455
 20
23.5304252494
 30
0.0
 11
35.2232181244
 21
23.5574014823
 31
0.0
  0
LINE
  5
4A3
330
1F
100
AcDbEntity
  8
0
  6
Continuous
 62
   144
370
    18
100
AcDbLine
 10
33.3229370254
 20
23.7538172022
 30
0.0
 11
33.324700227
 21
23.7792070456
 31
0.0
  0
LINE
  5
4A4
330
1F
100
AcDbEntity
  8
0
  6
Continuous
 62
   144
370
    18
100
AcDbLine
 10
34.8075382785
 20
23.6962392152
 30
0.0
 11
34.8537139744
 21
23.7232318778
 31
0.0
  0
LINE
  5
4A5
330
1F
100
AcDbEntity
  8
0
  6
Continuous
 62
   144
370
    18
100
AcDbLine
 10
34.8060428718
 20
23.7503032092
 30
0.0
 11
34.852045828
 21
23.7792070456
 31
0.0
  0
LINE
  5
4A6
330
1F
100
AcDbEntity
  8
0
  6
Continuous
 62
   144
370
    18
100
AcDbLine
 10
33.6622991987
 20
23.6962392152
 30
0.0
 11
33.6649702673
 21
23.7503032092
 31
0.0
  0
LINE
  5
4A7
330
1F
100
AcDbEntity
  8
0
  6
Continuous
 62
   144
370
    18
100
AcDbLine
 10
33.6622991987
 20
23.6962392152
 30
0.0
 11
33.62327161
 21
23.7232318778
 31
0.0
  0
LINE
  5
4A8
330
1F
100
AcDbEntity
  8
0
  6
Continuous
 62
   144
370
    18
100
AcDbLine
 10
33.62327161
 20
23.7232318778
 30
0.0
 11
33.6260626811
 21
23.7792070456
 31
0.0
  0
LINE
  5
4A9
330
1F
100
AcDbEntity
  8
0
  6
Continuous
 62
   144
370
    18
100
AcDbLine
 10
35.2758965087
 20
23.3916092887
 30
0.0
 11
35.2726567296
 21
23.4475779274
 31
0.0
  0
LINE
  5
4AA
330
1F
100
AcDbEntity
  8
0
  6
Continuous
 62
   144
370
    18
100
AcDbLine
 10
35.2726567296
 20
23.4475779274
 30
0.0
 11
35.2928093887
 21
23.4187309235
 31
0.0
  0
LINE
  5
4AB
330
1F
100
AcDbEntity
  8
0
  6
Continuous
 62
   144
370
    18
100
AcDbLine
 10
33.5109403344
 20
23.3916092887
 30
0.0
 11
33.5141801134
 21
23.4475779274
 31
0.0
  0
LINE
  5
4AC
330
1F
100
AcDbEntity
  8
0
  6
Continuous
 62
   144
370
    18
100
AcDbLine
 10
33.4940274544
 20
23.4187309235
 30
0.0
 11
33.5141801134
 21
23.4475779274
 31
0.0
  0
LINE
  5
4AD
330
1F
100
AcDbEntity
  8
0
  6
Continuous
 62
   144
370
    18
100
AcDbLine
 10
35.4666257677
 20
23.3916092887
 30
0.0
 11
35.462685778
 21
23.4475779274
 31
0.0
  0
LINE
  5
4AE
330
1F
100
AcDbEntity
  8
0
  6
Continuous
 62
   144
370
    18
100
AcDbLine
 10
35.4588014626
 20
23.4187309235
 30
0.0
 11
35.4615438249
 21
23.3814106339
 31
0.0
  0
LINE
  5
4AF
330
1F
100
AcDbEntity
  8
0
  6
Continuous
 62
   144
370
    18
100
AcDbLine
 10
34.8858262213
 20
23.4187309235
 30
0.0
 11
34.8874782921
 21
23.3700868809
 31
0.0
  0
LINE
  5
4B0
330
1F
100
AcDbEntity
  8
0
  6
Continuous
 62
   144
370
    18
100
AcDbLine
 10
34.6242291908
 20
23.4187309235
 30
0.0
 11
34.625003581
 21
23.3700868809
 31
0.0
  0
LINE
  5
4B1
330
1F
100
AcDbEntity
  8
0
  6
Continuous
 62
   144
370
    18
100
AcDbLine
 10
35.3366527358
 20
23.7232161723
 30
0.0
 11
35.333232542
 21
23.7792214746
 31
0.0
  0
LINE
  5
4B2
330
1F
100
AcDbEntity
  8
0
  6
Continuous
 62
   144
370
    18
100
AcDbLine
 10
35.478425935
 20
23.7232318778
 30
0.0
 11
35.4744937846
 21
23.7792070456
 31
0.0
  0
LINE
  5
4B3
330
1F
100
AcDbEntity
  8
0
  6
Continuous
 62
   144
370
    18
100
AcDbLine
 10
35.462433595
 20
23.7503032092
 30
0.0
 11
35.464590779
 21
23.720799586
 31
0.0
  0
LINE
  5
4B4
330
1F
100
AcDbEntity
  8
0
  6
Continuous
 62
   144
370
    18
100
AcDbLine
 10
34.0709674742
 20
23.584490979
 30
0.0
 11
34.0667959061
 21
23.6402209287
 31
0.0
  0
LINE
  5
4B5
330
1F
100
AcDbEntity
  8
0
  6
Continuous
 62
   144
370
    18
100
AcDbLine
 10
34.0667959061
 20
23.6402209287
 30
0.0
 11
34.1140862387
 21
23.6133161479
 31
0.0
  0
LINE
  5
4B6
330
1F
100
AcDbEntity
  8
0
  6
Continuous
 62
   144
370
    18
100
AcDbLine
 10
35.0909746822
 20
23.7792070456
 30
0.0
 11
35.0498091447
 21
23.7503032092
 31
0.0
  0
LINE
  5
4B7
330
1F
100
AcDbEntity
  8
0
  6
Continuous
 62
   144
370
    18
100
AcDbLine
 10
33.7346253439
 20
23.6962392152
 30
0.0
 11
33.6933249685
 21
23.7232318778
 31
0.0
  0
LINE
  5
4B8
330
1F
100
AcDbEntity
  8
0
  6
Continuous
 62
   144
370
    18
100
AcDbLine
 10
33.6344440964
 20
23.4475779274
 30
0.0
 11
33.6636003756
 21
23.4744316448
 31
0.0
  0
LINE
  5
4B9
330
1F
100
AcDbEntity
  8
0
  6
Continuous
 62
   144
370
    18
100
AcDbLine
 10
33.6372805131
 20
23.5017916667
 30
0.0
 11
33.6662973859
 21
23.5303783134
 31
0.0
  0
LINE
  5
4BA
330
1F
100
AcDbEntity
  8
0
  6
Continuous
 62
   144
370
    18
100
AcDbLine
 10
33.6372805131
 20
23.5017916667
 30
0.0
 11
33.6344440964
 21
23.4475779274
 31
0.0
  0
LINE
  5
4BB
330
1F
100
AcDbEntity
  8
0
  6
Continuous
 62
   144
370
    18
100
AcDbLine
 10
33.5955124077
 20
23.6961920507
 30
0.0
 11
33.6330872341
 21
23.6673733604
 31
0.0
  0
LINE
  5
4BC
330
1F
100
AcDbEntity
  8
0
  6
Continuous
 62
   144
370
    18
100
AcDbLine
 10
33.6302687058
 20
23.6133161479
 30
0.0
 11
33.6330872341
 21
23.6673733604
 31
0.0
  0
LINE
  5
4BD
330
1F
100
AcDbEntity
  8
0
  6
Continuous
 62
     7
370
    25
100
AcDbLine
 10
34.4404505808
 20
23.7503032092
 30
0.0
 11
34.3934184215
 21
23.7792070456
 31
0.0
  0
LINE
  5
4BE
330
1F
100
AcDbEntity
  8
0
  6
Continuous
 62
     7
370
    25
100
AcDbLine
 10
34.3934184215
 20
23.7232161723
 30
0.0
 11
34.3934184215
 21
23.7792214746
 31
0.0
  0
LINE
  5
4BF
330
1F
100
AcDbEntity
  8
0
  6
Continuous
 62
   144
370
    18
100
AcDbLine
 10
34.4406594286
 20
23.6962392152
 30
0.0
 11
34.3934184215
 21
23.7232318778
 31
0.0
  0
LINE
  5
4C0
330
1F
100
AcDbEntity
  8
0
  6
Continuous
 62
   144
370
    18
100
AcDbLine
 10
34.4406594286
 20
23.6962392152
 30
0.0
 11
34.4404505808
 21
23.7503032092
 31
0.0
  0
LINE
  5
4C1
330
1F
100
AcDbEntity
  8
0
  6
Continuous
 62
   144
370
    18
100
AcDbLine
 10
34.3934184215
 20
23.7792070456
 30
0.0
 11
34.3463862737
 21
23.7503032092
 31
0.0
  0
LINE
  5
4C2
330
1F
100
AcDbEntity
  8
0
  6
Continuous
 62
   144
370
    18
100
AcDbLine
 10
34.3461774259
 20
23.6962392152
 30
0.0
 11
34.3463862737
 21
23.7503032092
 31
0.0
  0
LINE
  5
4C3
330
1F
100
AcDbEntity
  8
0
  6
Continuous
 62
   144
370
    18
100
AcDbLine
 10
34.3461774259
 20
23.6962392152
 30
0.0
 11
34.3934184215
 21
23.7232161723
 31
0.0
  0
LINE
  5
4C4
330
1F
100
AcDbEntity
  8
0
  6
Continuous
 62
     7
370
    25
100
AcDbLine
 10
35.2823694981
 20
23.7792214746
 30
0.0
 11
35.2543725189
 21
23.7792214746
 31
0.0
  0
LINE
  5
4C5
330
1F
100
AcDbEntity
  8
0
  6
Continuous
 62
     7
370
    25
100
AcDbLine
 10
35.1607769831
 20
23.7792214746
 30
0.0
 11
35.1265749217
 21
23.7792214746
 31
0.0
  0
LINE
  5
4C6
330
1F
100
AcDbEntity
  8
0
  6
Continuous
 62
     7
370
    25
100
AcDbLine
 10
34.8520475141
 20
23.7792214746
 30
0.0
 11
34.8087098878
 21
23.7792214746
 31
0.0
  0
LINE
  5
4C7
330
1F
100
AcDbEntity
  8
0
  6
Continuous
 62
     7
370
    25
100
AcDbLine
 10
34.440754574
 20
23.7792214746
 30
0.0
 11
34.3934184215
 21
23.7792214746
 31
0.0
  0
LINE
  5
4C8
330
1F
100
AcDbEntity
  8
0
  6
Continuous
 62
     7
370
    25
100
AcDbLine
 10
34.3934184215
 20
23.7792214746
 30
0.0
 11
34.3460822805
 21
23.7792214746
 31
0.0
  0
LINE
  5
4C9
330
1F
100
AcDbEntity
  8
0
  6
Continuous
 62
     7
370
    25
100
AcDbLine
 10
33.9781269659
 20
23.7792214746
 30
0.0
 11
33.9347893289
 21
23.7792214746
 31
0.0
  0
LINE
  5
4CA
330
1F
100
AcDbEntity
  8
0
  6
Continuous
 62
     7
370
    25
100
AcDbLine
 10
33.6602619299
 20
23.7792214746
 30
0.0
 11
33.6260598599
 21
23.7792214746
 31
0.0
  0
LINE
  5
4CB
330
1F
100
AcDbEntity
  8
0
  6
Continuous
 62
     7
370
    25
100
AcDbLine
 10
33.5324643312
 20
23.7792214746
 30
0.0
 11
33.5044673449
 21
23.7792214746
 31
0.0
  0
LINE
  5
4CC
330
1F
100
AcDbEntity
  8
0
  6
Continuous
 62
   144
370
    18
100
AcDbLine
 10
33.3123390913
 20
23.7792214746
 30
0.0
 11
33.3092424152
 21
23.7792214746
 31
0.0
  0
LINE
  5
4CD
330
1F
100
AcDbEntity
  8
0
  6
Continuous
 62
   144
370
    18
100
AcDbLine
 10
33.3174936497
 20
23.7792214746
 30
0.0
 11
33.3123390913
 21
23.7792214746
 31
0.0
  0
LINE
  5
4CE
330
1F
100
AcDbEntity
  8
0
  6
Continuous
 62
   144
370
    18
100
AcDbLine
 10
33.3246962979
 20
23.7792214746
 30
0.0
 11
33.3174936497
 21
23.7792214746
 31
0.0
  0
LINE
  5
4CF
330
1F
100
AcDbEntity
  8
0
  6
Continuous
 62
   144
370
    18
100
AcDbLine
 10
33.3339333215
 20
23.7792214746
 30
0.0
 11
33.3246962979
 21
23.7792214746
 31
0.0
  0
LINE
  5
4D0
330
1F
100
AcDbEntity
  8
0
  6
Continuous
 62
   144
370
    18
100
AcDbLine
 10
33.3451871326
 20
23.7792214746
 30
0.0
 11
33.3339333215
 21
23.7792214746
 31
0.0
  0
LINE
  5
4D1
330
1F
100
AcDbEntity
  8
0
  6
Continuous
 62
   144
370
    18
100
AcDbLine
 10
33.3584363145
 20
23.7792214746
 30
0.0
 11
33.3451871326
 21
23.7792214746
 31
0.0
  0
LINE
  5
4D2
330
1F
100
AcDbEntity
  8
0
  6
Continuous
 62
   144
370
    18
100
AcDbLine
 10
33.3736556403
 20
23.7792214746
 30
0.0
 11
33.3584363145
 21
23.7792214746
 31
0.0
  0
LINE
  5
4D3
330
1F
100
AcDbEntity
  8
0
  6
Continuous
 62
   144
370
    18
100
AcDbLine
 10
33.3908161464
 20
23.7792214746
 30
0.0
 11
33.3736556403
 21
23.7792214746
 31
0.0
  0
LINE
  5
4D4
330
1F
100
AcDbEntity
  8
0
  6
Continuous
 62
   144
370
    18
100
AcDbLine
 10
33.4098851585
 20
23.7792214746
 30
0.0
 11
33.3908161464
 21
23.7792214746
 31
0.0
  0
LINE
  5
4D5
330
1F
100
AcDbEntity
  8
0
  6
Continuous
 62
   144
370
    18
100
AcDbLine
 10
33.4308263869
 20
23.7792214746
 30
0.0
 11
33.4098851585
 21
23.7792214746
 31
0.0
  0
LINE
  5
4D6
330
1F
100
AcDbEntity
  8
0
  6
Continuous
 62
   144
370
    18
100
AcDbLine
 10
33.4535999587
 20
23.7792214746
 30
0.0
 11
33.4308263869
 21
23.7792214746
 31
0.0
  0
LINE
  5
4D7
330
1F
100
AcDbEntity
  8
0
  6
Continuous
 62
   144
370
    18
100
AcDbLine
 10
33.4781625341
 20
23.7792214746
 30
0.0
 11
33.4535999587
 21
23.7792214746
 31
0.0
  0
LINE
  5
4D8
330
1F
100
AcDbEntity
  8
0
  6
Continuous
 62
   144
370
    18
100
AcDbLine
 10
33.5044673449
 20
23.7792214746
 30
0.0
 11
33.4781625341
 21
23.7792214746
 31
0.0
  0
LINE
  5
4D9
330
1F
100
AcDbEntity
  8
0
  6
Continuous
 62
   144
370
    18
100
AcDbLine
 10
33.5621001856
 20
23.7792214746
 30
0.0
 11
33.5324643312
 21
23.7792214746
 31
0.0
  0
LINE
  5
4DA
330
1F
100
AcDbEntity
  8
0
  6
Continuous
 62
   144
370
    18
100
AcDbLine
 10
33.5933185088
 20
23.7792214746
 30
0.0
 11
33.5621001856
 21
23.7792214746
 31
0.0
  0
LINE
  5
4DB
330
1F
100
AcDbEntity
  8
0
  6
Continuous
 62
   144
370
    18
100
AcDbLine
 10
33.6260598599
 20
23.7792214746
 30
0.0
 11
33.5933185088
 21
23.7792214746
 31
0.0
  0
LINE
  5
4DC
330
1F
100
AcDbEntity
  8
0
  6
Continuous
 62
   144
370
    18
100
AcDbLine
 10
33.6958595963
 20
23.7792214746
 30
0.0
 11
33.6602619299
 21
23.7792214746
 31
0.0
  0
LINE
  5
4DD
330
1F
100
AcDbEntity
  8
0
  6
Continuous
 62
   144
370
    18
100
AcDbLine
 10
33.7327851145
 20
23.7792214746
 30
0.0
 11
33.6958595963
 21
23.7792214746
 31
0.0
  0
LINE
  5
4DE
330
1F
100
AcDbEntity
  8
0
  6
Continuous
 62
   144
370
    18
100
AcDbLine
 10
33.7709681766
 20
23.7792214746
 30
0.0
 11
33.7327851145
 21
23.7792214746
 31
0.0
  0
LINE
  5
4DF
330
1F
100
AcDbEntity
  8
0
  6
Continuous
 62
   144
370
    18
100
AcDbLine
 10
33.8103361175
 20
23.7792214746
 30
0.0
 11
33.7709681766
 21
23.7792214746
 31
0.0
  0
LINE
  5
4E0
330
1F
100
AcDbEntity
  8
0
  6
Continuous
 62
   144
370
    18
100
AcDbLine
 10
33.850813979
 20
23.7792214746
 30
0.0
 11
33.8103361175
 21
23.7792214746
 31
0.0
  0
LINE
  5
4E1
330
1F
100
AcDbEntity
  8
0
  6
Continuous
 62
   144
370
    18
100
AcDbLine
 10
33.8923247289
 20
23.7792214746
 30
0.0
 11
33.850813979
 21
23.7792214746
 31
0.0
  0
LINE
  5
4E2
330
1F
100
AcDbEntity
  8
0
  6
Continuous
 62
   144
370
    18
100
AcDbLine
 10
33.9347893289
 20
23.7792214746
 30
0.0
 11
33.8923247289
 21
23.7792214746
 31
0.0
  0
LINE
  5
4E3
330
1F
100
AcDbEntity
  8
0
  6
Continuous
 62
   144
370
    18
100
AcDbLine
 10
34.0222551231
 20
23.7792214746
 30
0.0
 11
33.9781269659
 21
23.7792214746
 31
0.0
  0
LINE
  5
4E4
330
1F
100
AcDbEntity
  8
0
  6
Continuous
 62
   144
370
    18
100
AcDbLine
 10
34.0670898216
 20
23.7792214746
 30
0.0
 11
34.0222551231
 21
23.7792214746
 31
0.0
  0
LINE
  5
4E5
330
1F
100
AcDbEntity
  8
0
  6
Continuous
 62
   144
370
    18
100
AcDbLine
 10
34.1125456942
 20
23.7792214746
 30
0.0
 11
34.0670898216
 21
23.7792214746
 31
0.0
  0
LINE
  5
4E6
330
1F
100
AcDbEntity
  8
0
  6
Continuous
 62
   144
370
    18
100
AcDbLine
 10
34.158536235
 20
23.7792214746
 30
0.0
 11
34.1125456942
 21
23.7792214746
 31
0.0
  0
LINE
  5
4E7
330
1F
100
AcDbEntity
  8
0
  6
Continuous
 62
   144
370
    18
100
AcDbLine
 10
34.2049738763
 20
23.7792214746
 30
0.0
 11
34.158536235
 21
23.7792214746
 31
0.0
  0
LINE
  5
4E8
330
1F
100
AcDbEntity
  8
0
  6
Continuous
 62
   144
370
    18
100
AcDbLine
 10
34.2517702437
 20
23.7792214746
 30
0.0
 11
34.2049738763
 21
23.7792214746
 31
0.0
  0
LINE
  5
4E9
330
1F
100
AcDbEntity
  8
0
  6
Continuous
 62
   144
370
    18
100
AcDbLine
 10
34.2988361514
 20
23.7792214746
 30
0.0
 11
34.2517702437
 21
23.7792214746
 31
0.0
  0
LINE
  5
4EA
330
1F
100
AcDbEntity
  8
0
  6
Continuous
 62
   144
370
    18
100
AcDbLine
 10
34.3460822805
 20
23.7792214746
 30
0.0
 11
34.2988361514
 21
23.7792214746
 31
0.0
  0
LINE
  5
4EB
330
1F
100
AcDbEntity
  8
0
  6
Continuous
 62
   144
370
    18
100
AcDbLine
 10
34.4880006916
 20
23.7792214746
 30
0.0
 11
34.440754574
 21
23.7792214746
 31
0.0
  0
LINE
  5
4EC
330
1F
100
AcDbEntity
  8
0
  6
Continuous
 62
   144
370
    18
100
AcDbLine
 10
34.5350666108
 20
23.7792214746
 30
0.0
 11
34.4880006916
 21
23.7792214746
 31
0.0
  0
LINE
  5
4ED
330
1F
100
AcDbEntity
  8
0
  6
Continuous
 62
   144
370
    18
100
AcDbLine
 10
34.5818629668
 20
23.7792214746
 30
0.0
 11
34.5350666108
 21
23.7792214746
 31
0.0
  0
LINE
  5
4EE
330
1F
100
AcDbEntity
  8
0
  6
Continuous
 62
   144
370
    18
100
AcDbLine
 10
34.6283006193
 20
23.7792214746
 30
0.0
 11
34.5818629668
 21
23.7792214746
 31
0.0
  0
LINE
  5
4EF
330
1F
100
AcDbEntity
  8
0
  6
Continuous
 62
   144
370
    18
100
AcDbLine
 10
34.6742911489
 20
23.7792214746
 30
0.0
 11
34.6283006193
 21
23.7792214746
 31
0.0
  0
LINE
  5
4F0
330
1F
100
AcDbEntity
  8
0
  6
Continuous
 62
   144
370
    18
100
AcDbLine
 10
34.7197470324
 20
23.7792214746
 30
0.0
 11
34.6742911489
 21
23.7792214746
 31
0.0
  0
LINE
  5
4F1
330
1F
100
AcDbEntity
  8
0
  6
Continuous
 62
   144
370
    18
100
AcDbLine
 10
34.7645817199
 20
23.7792214746
 30
0.0
 11
34.7197470324
 21
23.7792214746
 31
0.0
  0
LINE
  5
4F2
330
1F
100
AcDbEntity
  8
0
  6
Continuous
 62
   144
370
    18
100
AcDbLine
 10
34.8087098878
 20
23.7792214746
 30
0.0
 11
34.7645817199
 21
23.7792214746
 31
0.0
  0
LINE
  5
4F3
330
1F
100
AcDbEntity
  8
0
  6
Continuous
 62
   144
370
    18
100
AcDbLine
 10
34.8945121243
 20
23.7792214746
 30
0.0
 11
34.8520475141
 21
23.7792214746
 31
0.0
  0
LINE
  5
4F4
330
1F
100
AcDbEntity
  8
0
  6
Continuous
 62
   144
370
    18
100
AcDbLine
 10
34.936022864
 20
23.7792214746
 30
0.0
 11
34.8945121243
 21
23.7792214746
 31
0.0
  0
LINE
  5
4F5
330
1F
100
AcDbEntity
  8
0
  6
Continuous
 62
   144
370
    18
100
AcDbLine
 10
34.9765007353
 20
23.7792214746
 30
0.0
 11
34.936022864
 21
23.7792214746
 31
0.0
  0
LINE
  5
4F6
330
1F
100
AcDbEntity
  8
0
  6
Continuous
 62
   144
370
    18
100
AcDbLine
 10
35.0158686665
 20
23.7792214746
 30
0.0
 11
34.9765007353
 21
23.7792214746
 31
0.0
  0
LINE
  5
4F7
330
1F
100
AcDbEntity
  8
0
  6
Continuous
 62
   144
370
    18
100
AcDbLine
 10
35.0540517377
 20
23.7792214746
 30
0.0
 11
35.0158686665
 21
23.7792214746
 31
0.0
  0
LINE
  5
4F8
330
1F
100
AcDbEntity
  8
0
  6
Continuous
 62
   144
370
    18
100
AcDbLine
 10
35.0909772467
 20
23.7792214746
 30
0.0
 11
35.0540517377
 21
23.7792214746
 31
0.0
  0
LINE
  5
4F9
330
1F
100
AcDbEntity
  8
0
  6
Continuous
 62
   144
370
    18
100
AcDbLine
 10
35.1265749217
 20
23.7792214746
 30
0.0
 11
35.0909772467
 21
23.7792214746
 31
0.0
  0
LINE
  5
4FA
330
1F
100
AcDbEntity
  8
0
  6
Continuous
 62
   144
370
    18
100
AcDbLine
 10
35.193518342
 20
23.7792214746
 30
0.0
 11
35.1607769831
 21
23.7792214746
 31
0.0
  0
LINE
  5
4FB
330
1F
100
AcDbEntity
  8
0
  6
Continuous
 62
   144
370
    18
100
AcDbLine
 10
35.2247366575
 20
23.7792214746
 30
0.0
 11
35.193518342
 21
23.7792214746
 31
0.0
  0
LINE
  5
4FC
330
1F
100
AcDbEntity
  8
0
  6
Continuous
 62
   144
370
    18
100
AcDbLine
 10
35.2543725189
 20
23.7792214746
 30
0.0
 11
35.2247366575
 21
23.7792214746
 31
0.0
  0
LINE
  5
4FD
330
1F
100
AcDbEntity
  8
0
  6
Continuous
 62
   144
370
    18
100
AcDbLine
 10
35.3086743151
 20
23.7792214746
 30
0.0
 11
35.2823694981
 21
23.7792214746
 31
0.0
  0
LINE
  5
4FE
330
1F
100
AcDbEntity
  8
0
  6
Continuous
 62
   144
370
    18
100
AcDbLine
 10
35.3332368843
 20
23.7792214746
 30
0.0
 11
35.3086743151
 21
23.7792214746
 31
0.0
  0
LINE
  5
4FF
330
1F
100
AcDbEntity
  8
0
  6
Continuous
 62
   144
370
    18
100
AcDbLine
 10
35.3560104614
 20
23.7792214746
 30
0.0
 11
35.3332368843
 21
23.7792214746
 31
0.0
  0
LINE
  5
500
330
1F
100
AcDbEntity
  8
0
  6
Continuous
 62
   144
370
    18
100
AcDbLine
 10
35.3769516846
 20
23.7792214746
 30
0.0
 11
35.3560104614
 21
23.7792214746
 31
0.0
  0
LINE
  5
501
330
1F
100
AcDbEntity
  8
0
  6
Continuous
 62
   144
370
    18
100
AcDbLine
 10
35.3960207011
 20
23.7792214746
 30
0.0
 11
35.3769516846
 21
23.7792214746
 31
0.0
  0
LINE
  5
502
330
1F
100
AcDbEntity
  8
0
  6
Continuous
 62
   144
370
    18
100
AcDbLine
 10
35.4131812028
 20
23.7792214746
 30
0.0
 11
35.3960207011
 21
23.7792214746
 31
0.0
  0
LINE
  5
503
330
1F
100
AcDbEntity
  8
0
  6
Continuous
 62
   144
370
    18
100
AcDbLine
 10
35.428400532
 20
23.7792214746
 30
0.0
 11
35.4131812028
 21
23.7792214746
 31
0.0
  0
LINE
  5
504
330
1F
100
AcDbEntity
  8
0
  6
Continuous
 62
   144
370
    18
100
AcDbLine
 10
35.4416497105
 20
23.7792214746
 30
0.0
 11
35.428400532
 21
23.7792214746
 31
0.0
  0
LINE
  5
505
330
1F
100
AcDbEntity
  8
0
  6
Continuous
 62
   144
370
    18
100
AcDbLine
 10
35.4529035241
 20
23.7792214746
 30
0.0
 11
35.4416497105
 21
23.7792214746
 31
0.0
  0
LINE
  5
506
330
1F
100
AcDbEntity
  8
0
  6
Continuous
 62
   144
370
    18
100
AcDbLine
 10
35.4621405451
 20
23.7792214746
 30
0.0
 11
35.4529035241
 21
23.7792214746
 31
0.0
  0
LINE
  5
507
330
1F
100
AcDbEntity
  8
0
  6
Continuous
 62
   144
370
    18
100
AcDbLine
 10
35.4693431948
 20
23.7792214746
 30
0.0
 11
35.4621405451
 21
23.7792214746
 31
0.0
  0
LINE
  5
508
330
1F
100
AcDbEntity
  8
0
  6
Continuous
 62
   144
370
    18
100
AcDbLine
 10
35.4744977518
 20
23.7792214746
 30
0.0
 11
35.4693431948
 21
23.7792214746
 31
0.0
  0
LINE
  5
509
330
1F
100
AcDbEntity
  8
0
  6
Continuous
 62
   144
370
    18
100
AcDbLine
 10
35.4775944284
 20
23.7792214746
 30
0.0
 11
35.4744977518
 21
23.7792214746
 31
0.0
  0
LINE
  5
50A
330
1F
100
AcDbEntity
  8
0
  6
Continuous
 62
   144
370
    18
100
AcDbLine
 10
34.4404505808
 20
23.7503032092
 30
0.0
 11
34.440754574
 21
23.7792214746
 31
0.0
  0
LINE
  5
50B
330
1F
100
AcDbEntity
  8
0
  6
Continuous
 62
   144
370
    18
100
AcDbLine
 10
34.3463862737
 20
23.7503032092
 30
0.0
 11
34.3460822805
 21
23.7792214746
 31
0.0
  0
LINE
  5
50C
330
1F
100
AcDbEntity
  8
0
  6
Continuous
 62
   144
370
    18
100
AcDbLine
 10
34.852045828
 20
23.7792070456
 30
0.0
 11
34.8060428823
 21
23.7503032092
 31
0.0
  0
LINE
  5
50D
330
1F
100
AcDbEntity
  8
0
  6
Continuous
 62
   144
370
    18
100
AcDbLine
 10
34.8087098878
 20
23.7792214746
 30
0.0
 11
34.8060428823
 21
23.7503032092
 31
0.0
  0
LINE
  5
50E
330
1F
100
AcDbEntity
  8
0
  6
Continuous
 62
   144
370
    18
100
AcDbLine
 10
33.9807939713
 20
23.7503032092
 30
0.0
 11
33.934791015
 21
23.7792070456
 31
0.0
  0
LINE
  5
50F
330
1F
100
AcDbEntity
  8
0
  6
Continuous
 62
   144
370
    18
100
AcDbLine
 10
33.9807939713
 20
23.7503032092
 30
0.0
 11
33.9781269661
 21
23.7792214746
 31
0.0
  0
LINE
  5
510
330
1F
100
AcDbEntity
  8
0
  6
Continuous
 62
   144
370
    18
100
AcDbLine
 10
33.6649702673
 20
23.7503032092
 30
0.0
 11
33.6260626811
 21
23.7792070456
 31
0.0
  0
LINE
  5
511
330
1F
100
AcDbEntity
  8
0
  6
Continuous
 62
   144
370
    18
100
AcDbLine
 10
35.28236623
 20
23.7792070456
 30
0.0
 11
35.2488434641
 21
23.7503032092
 31
0.0
  0
LINE
  5
512
330
1F
100
AcDbEntity
  8
0
  6
Continuous
 62
     7
370
    25
100
AcDbLine
 10
33.3972548626
 20
23.7503032092
 30
0.0
 11
33.4098887744
 21
23.7792070456
 31
0.0
  0
LINE
  5
513
330
1F
100
AcDbEntity
  8
0
  6
Continuous
 62
     7
370
    25
100
AcDbLine
 10
35.3805264213
 20
23.7232161723
 30
0.0
 11
35.3769471402
 21
23.7792214746
 31
0.0
  0
LINE
  5
514
330
1F
100
AcDbEntity
  8
0
  6
Continuous
 62
   144
370
    18
100
AcDbLine
 10
35.3932830619
 20
23.6962392152
 30
0.0
 11
35.3805264213
 21
23.7232161723
 31
0.0
  0
LINE
  5
515
330
1F
100
AcDbEntity
  8
0
  6
Continuous
 62
   144
370
    18
100
AcDbLine
 10
35.3533532417
 20
23.6962392152
 30
0.0
 11
35.3805254201
 21
23.7232318778
 31
0.0
  0
LINE
  5
516
330
1F
100
AcDbEntity
  8
0
  6
Continuous
 62
   144
370
    18
100
AcDbLine
 10
35.3498286816
 20
23.7503032092
 30
0.0
 11
35.3533532417
 21
23.6962392152
 31
0.0
  0
LINE
  5
517
330
1F
100
AcDbEntity
  8
0
  6
Continuous
 62
   144
370
    18
100
AcDbLine
 10
33.433483596
 20
23.6962392152
 30
0.0
 11
33.4063104218
 21
23.7232161723
 31
0.0
  0
LINE
  5
518
330
1F
100
AcDbEntity
  8
0
  6
Continuous
 62
   144
370
    18
100
AcDbLine
 10
33.4098887744
 20
23.7792070456
 30
0.0
 11
33.4370081562
 21
23.7503032092
 31
0.0
  0
LINE
  5
519
330
1F
100
AcDbEntity
  8
0
  6
Continuous
 62
   144
370
    18
100
AcDbLine
 10
34.1600446393
 20
23.7503032092
 30
0.0
 11
34.2049745691
 21
23.7792070456
 31
0.0
  0
LINE
  5
51A
330
1F
100
AcDbEntity
  8
0
  6
Continuous
 62
   144
370
    18
100
AcDbLine
 10
34.1600446393
 20
23.7503032092
 30
0.0
 11
34.1585362238
 21
23.7792214746
 31
0.0
  0
LINE
  5
51B
330
1F
100
AcDbEntity
  8
0
  6
Continuous
 62
   144
370
    18
100
AcDbLine
 10
35.2472890564
 20
23.5303783134
 30
0.0
 11
35.269370866
 21
23.5017916667
 31
0.0
  0
LINE
  5
51C
330
1F
100
AcDbEntity
  8
0
  6
Continuous
 62
   144
370
    18
100
AcDbLine
 10
35.269370866
 20
23.5017916667
 30
0.0
 11
35.3011627178
 21
23.5303783134
 31
0.0
  0
LINE
  5
51D
330
1F
100
AcDbEntity
  8
0
  6
Continuous
 62
   144
370
    18
100
AcDbLine
 10
35.3011520005
 20
23.5303686765
 30
0.0
 11
35.2807456897
 21
23.5574014823
 31
0.0
  0
LINE
  5
51E
330
1F
100
AcDbEntity
  8
0
  6
Continuous
 62
   144
370
    18
100
AcDbLine
 10
35.2472965004
 20
23.5303686765
 30
0.0
 11
35.2807456897
 21
23.5574014823
 31
0.0
  0
LINE
  5
51F
330
1F
100
AcDbEntity
  8
0
  6
Continuous
 62
   144
370
    18
100
AcDbLine
 10
35.2774937357
 20
23.6133161479
 30
0.0
 11
35.2742285949
 21
23.6673733604
 31
0.0
  0
LINE
  5
520
330
1F
100
AcDbEntity
  8
0
  6
Continuous
 62
   144
370
    18
100
AcDbLine
 10
35.3094986618
 20
23.6402209287
 30
0.0
 11
35.2774937357
 21
23.6133161479
 31
0.0
  0
LINE
  5
521
330
1F
100
AcDbEntity
  8
0
  6
Continuous
 62
   144
370
    18
100
AcDbLine
 10
33.6028258259
 20
23.584490979
 30
0.0
 11
33.5666598406
 21
23.6133161479
 31
0.0
  0
LINE
  5
522
330
1F
100
AcDbEntity
  8
0
  6
Continuous
 62
   144
370
    18
100
AcDbLine
 10
33.5999067053
 20
23.5304252494
 30
0.0
 11
33.5636187186
 21
23.5574014823
 31
0.0
  0
LINE
  5
523
330
1F
100
AcDbEntity
  8
0
  6
Continuous
 62
   144
370
    18
100
AcDbLine
 10
33.5636187186
 20
23.5574014823
 30
0.0
 11
33.5666598406
 21
23.6133161479
 31
0.0
  0
LINE
  5
524
330
1F
100
AcDbEntity
  8
0
  6
Continuous
 62
   144
370
    18
100
AcDbLine
 10
33.5395286427
 20
23.5303783134
 30
0.0
 11
33.5742560851
 21
23.5017916667
 31
0.0
  0
LINE
  5
525
330
1F
100
AcDbEntity
  8
0
  6
Continuous
 62
   144
370
    18
100
AcDbLine
 10
33.5742560851
 20
23.5017916667
 30
0.0
 11
33.5711832519
 21
23.4475779274
 31
0.0
  0
LINE
  5
526
330
1F
100
AcDbEntity
  8
0
  6
Continuous
 62
     7
370
    25
100
AcDbLine
 10
33.5590786875
 20
23.7232161723
 30
0.0
 11
33.5621040266
 21
23.7792214746
 31
0.0
  0
LINE
  5
527
330
1F
100
AcDbEntity
  8
0
  6
Continuous
 62
   144
370
    18
100
AcDbLine
 10
33.5955373123
 20
23.6962392152
 30
0.0
 11
33.5590795338
 21
23.7232318778
 31
0.0
  0
LINE
  5
528
330
1F
100
AcDbEntity
  8
0
  6
Continuous
 62
   144
370
    18
100
AcDbLine
 10
33.5984567575
 20
23.7503032092
 30
0.0
 11
33.5621032418
 21
23.7792070456
 31
0.0
  0
LINE
  5
529
330
1F
100
AcDbEntity
  8
0
  6
Continuous
 62
   144
370
    18
100
AcDbLine
 10
33.5348054512
 20
23.6962392152
 30
0.0
 11
33.5590786875
 21
23.7232161723
 31
0.0
  0
LINE
  5
52A
330
1F
100
AcDbEntity
  8
0
  6
Continuous
 62
   144
370
    18
100
AcDbLine
 10
35.2156535912
 20
23.4475779274
 30
0.0
 11
35.1796495065
 21
23.4187309235
 31
0.0
  0
LINE
  5
52B
330
1F
100
AcDbEntity
  8
0
  6
Continuous
 62
   144
370
    18
100
AcDbLine
 10
34.7188629409
 20
23.6961920507
 30
0.0
 11
34.6717189514
 21
23.6673733604
 31
0.0
  0
LINE
  5
52C
330
1F
100
AcDbEntity
  8
0
  6
Continuous
 62
   144
370
    18
100
AcDbLine
 10
34.7188470537
 20
23.6961823391
 30
0.0
 11
34.6753120051
 21
23.7232161723
 31
0.0
  0
LINE
  5
52D
330
1F
100
AcDbEntity
  8
0
  6
Continuous
 62
   144
370
    18
100
AcDbLine
 10
33.934791015
 20
23.7792070456
 30
0.0
 11
33.9807939607
 21
23.7503032092
 31
0.0
  0
LINE
  5
52E
330
1F
100
AcDbEntity
  8
0
  6
Continuous
 62
   144
370
    18
100
AcDbLine
 10
33.979298554
 20
23.6962392152
 30
0.0
 11
33.9331224018
 21
23.7232161723
 31
0.0
  0
LINE
  5
52F
330
1F
100
AcDbEntity
  8
0
  6
Continuous
 62
   144
370
    18
100
AcDbLine
 10
33.979298554
 20
23.6962392152
 30
0.0
 11
33.9807939607
 21
23.7503032092
 31
0.0
  0
LINE
  5
530
330
1F
100
AcDbEntity
  8
0
  6
Continuous
 62
   144
370
    18
100
AcDbLine
 10
35.0845890899
 20
23.6673733604
 30
0.0
 11
35.1245664528
 21
23.6961920507
 31
0.0
  0
LINE
  5
531
330
1F
100
AcDbEntity
  8
0
  6
Continuous
 62
   144
370
    18
100
AcDbLine
 10
35.1245529807
 20
23.6961823391
 30
0.0
 11
35.0935125846
 21
23.7232161723
 31
0.0
  0
LINE
  5
532
330
1F
100
AcDbEntity
  8
0
  6
Continuous
 62
   144
370
    18
100
AcDbLine
 10
35.0522298053
 20
23.6961823391
 30
0.0
 11
35.0935125846
 21
23.7232161723
 31
0.0
  0
LINE
  5
533
330
1F
100
AcDbEntity
  8
0
  6
Continuous
 62
   144
370
    18
100
AcDbLine
 10
35.0522188969
 20
23.6961920507
 30
0.0
 11
35.0845890899
 21
23.6673733604
 31
0.0
  0
LINE
  5
534
330
1F
100
AcDbEntity
  8
0
  6
Continuous
 62
   144
370
    18
100
AcDbLine
 10
34.299702407
 20
23.6673733604
 30
0.0
 11
34.3462285057
 21
23.6961920507
 31
0.0
  0
LINE
  5
535
330
1F
100
AcDbEntity
  8
0
  6
Continuous
 62
   144
370
    18
100
AcDbLine
 10
34.3460396461
 20
23.6402209287
 30
0.0
 11
34.3462129286
 21
23.6962152285
 31
0.0
  0
LINE
  5
536
330
1F
100
AcDbEntity
  8
0
  6
Continuous
 62
   144
370
    18
100
AcDbLine
 10
34.3460396461
 20
23.6402209287
 30
0.0
 11
34.2993550041
 21
23.6133161479
 31
0.0
  0
LINE
  5
537
330
1F
100
AcDbEntity
  8
0
  6
Continuous
 62
   144
370
    18
100
AcDbLine
 10
34.2993550041
 20
23.6133161479
 30
0.0
 11
34.299702407
 21
23.6673733604
 31
0.0
  0
LINE
  5
538
330
1F
100
AcDbEntity
  8
0
  6
Continuous
 62
   144
370
    18
100
AcDbLine
 10
34.1140862387
 20
23.6133161479
 30
0.0
 11
34.0709674742
 21
23.584490979
 31
0.0
  0
LINE
  5
539
330
1F
100
AcDbEntity
  8
0
  6
Continuous
 62
   144
370
    18
100
AcDbLine
 10
34.1130587522
 20
23.5574014823
 30
0.0
 11
34.1140862387
 21
23.6133161479
 31
0.0
  0
LINE
  5
53A
330
1F
100
AcDbEntity
  8
0
  6
Continuous
 62
   144
370
    18
100
AcDbLine
 10
34.0697341424
 20
23.5304252494
 30
0.0
 11
34.1130587522
 21
23.5574014823
 31
0.0
  0
LINE
  5
53B
330
1F
100
AcDbEntity
  8
0
  6
Continuous
 62
   144
370
    18
100
AcDbLine
 10
34.0697341424
 20
23.5304252494
 30
0.0
 11
34.0709674742
 21
23.584490979
 31
0.0
  0
LINE
  5
53C
330
1F
100
AcDbEntity
  8
0
  6
Continuous
 62
   144
370
    18
100
AcDbLine
 10
34.8949634462
 20
23.6402209287
 30
0.0
 11
34.9330467605
 21
23.6133161479
 31
0.0
  0
LINE
  5
53D
330
1F
100
AcDbEntity
  8
0
  6
Continuous
 62
   144
370
    18
100
AcDbLine
 10
34.893129102
 20
23.6962152285
 30
0.0
 11
34.8949634462
 21
23.6402209287
 31
0.0
  0
LINE
  5
53E
330
1F
100
AcDbEntity
  8
0
  6
Continuous
 62
   144
370
    18
100
AcDbLine
 10
34.8931173952
 20
23.6961920507
 30
0.0
 11
34.9310537601
 21
23.6673733604
 31
0.0
  0
LINE
  5
53F
330
1F
100
AcDbEntity
  8
0
  6
Continuous
 62
   144
370
    18
100
AcDbLine
 10
34.9330467605
 20
23.6133161479
 30
0.0
 11
34.9310537601
 21
23.6673733604
 31
0.0
  0
LINE
  5
540
330
1F
100
AcDbEntity
  8
0
  6
Continuous
 62
   144
370
    18
100
AcDbLine
 10
33.8508159739
 20
23.7792070456
 30
0.0
 11
33.8140806772
 21
23.7503032092
 31
0.0
  0
LINE
  5
541
330
1F
100
AcDbEntity
  8
0
  6
Continuous
 62
   144
370
    18
100
AcDbLine
 10
33.8488418363
 20
23.7232161723
 30
0.0
 11
33.8508164861
 21
23.7792214746
 31
0.0
  0
LINE
  5
542
330
1F
100
AcDbEntity
  8
0
  6
Continuous
 62
   144
370
    18
100
AcDbLine
 10
33.8119066552
 20
23.6962392152
 30
0.0
 11
33.8488418363
 21
23.7232161723
 31
0.0
  0
LINE
  5
543
330
1F
100
AcDbEntity
  8
0
  6
Continuous
 62
     7
370
    25
100
AcDbLine
 10
33.8119653023
 20
23.6962392152
 30
0.0
 11
33.8140806772
 21
23.7503032092
 31
0.0
  0
LINE
  5
544
330
1F
100
AcDbEntity
  8
0
  6
Continuous
 62
   144
370
    18
100
AcDbLine
 10
33.7687064609
 20
23.7232318778
 30
0.0
 11
33.770970465
 21
23.7792070456
 31
0.0
  0
LINE
  5
545
330
1F
100
AcDbEntity
  8
0
  6
Continuous
 62
   144
370
    18
100
AcDbLine
 10
33.8119653023
 20
23.6962392152
 30
0.0
 11
33.7687064609
 21
23.7232318778
 31
0.0
  0
LINE
  5
546
330
1F
100
AcDbEntity
  8
0
  6
Continuous
 62
   144
370
    18
100
AcDbLine
 10
33.8140806772
 20
23.7503032092
 30
0.0
 11
33.770970465
 21
23.7792070456
 31
0.0
  0
LINE
  5
547
330
1F
100
AcDbEntity
  8
0
  6
Continuous
 62
   144
370
    18
100
AcDbLine
 10
35.244142092
 20
23.584490979
 30
0.0
 11
35.2201770024
 21
23.6133161479
 31
0.0
  0
LINE
  5
548
330
1F
100
AcDbEntity
  8
0
  6
Continuous
 62
   144
370
    18
100
AcDbLine
 10
35.2551479574
 20
23.6402209287
 30
0.0
 11
35.2201770024
 21
23.6133161479
 31
0.0
  0
LINE
  5
549
330
1F
100
AcDbEntity
  8
0
  6
Continuous
 62
   144
370
    18
100
AcDbLine
 10
33.6274615606
 20
23.5574014823
 30
0.0
 11
33.6302687058
 21
23.6133161479
 31
0.0
  0
LINE
  5
54A
330
1F
100
AcDbEntity
  8
0
  6
Continuous
 62
   144
370
    18
100
AcDbLine
 10
34.7140904948
 20
23.4187309235
 30
0.0
 11
34.7151717686
 21
23.3700881996
 31
0.0
  0
LINE
  5
54B
330
1F
100
AcDbEntity
  8
0
  6
Continuous
 62
   144
370
    18
100
AcDbLine
 10
34.714090484
 20
23.4187309235
 30
0.0
 11
34.7605263525
 21
23.4475779274
 31
0.0
  0
LINE
  5
54C
330
1F
100
AcDbEntity
  8
0
  6
Continuous
 62
   144
370
    18
100
AcDbLine
 10
34.8470364867
 20
23.4475779274
 30
0.0
 11
34.8858262314
 21
23.4187309235
 31
0.0
  0
LINE
  5
54D
330
1F
100
AcDbEntity
  8
0
  6
Continuous
 62
   144
370
    18
100
AcDbLine
 10
33.9010106117
 20
23.4187309235
 30
0.0
 11
33.9398003563
 21
23.4475779274
 31
0.0
  0
LINE
  5
54E
330
1F
100
AcDbEntity
  8
0
  6
Continuous
 62
   144
370
    18
100
AcDbLine
 10
35.0858978998
 20
23.3916092887
 30
0.0
 11
35.0833556491
 21
23.4475779274
 31
0.0
  0
LINE
  5
54F
330
1F
100
AcDbEntity
  8
0
  6
Continuous
 62
   144
370
    18
100
AcDbLine
 10
33.7009389433
 20
23.3916092887
 30
0.0
 11
33.7034811939
 21
23.4475779274
 31
0.0
  0
LINE
  5
550
330
1F
100
AcDbEntity
  8
0
  6
Continuous
 62
   144
370
    18
100
AcDbLine
 10
35.1138664824
 20
23.4187309235
 30
0.0
 11
35.1162957604
 21
23.3700881996
 31
0.0
  0
LINE
  5
551
330
1F
100
AcDbEntity
  8
0
  6
Continuous
 62
   144
370
    18
100
AcDbLine
 10
35.113866474
 20
23.4187309235
 30
0.0
 11
35.1523927466
 21
23.4475779274
 31
0.0
  0
LINE
  5
552
330
1F
100
AcDbEntity
  8
0
  6
Continuous
 62
   144
370
    18
100
AcDbLine
 10
33.6705532033
 20
23.3700868776
 30
0.0
 11
33.672970369
 21
23.4187309235
 31
0.0
  0
LINE
  5
553
330
1F
100
AcDbEntity
  8
0
  6
Continuous
 62
   144
370
    18
100
AcDbLine
 10
33.6344440964
 20
23.4475779274
 30
0.0
 11
33.672970369
 21
23.4187309235
 31
0.0
  0
LINE
  5
554
330
1F
100
AcDbEntity
  8
0
  6
Continuous
 62
   144
370
    18
100
AcDbLine
 10
35.3393250164
 20
23.4187309235
 30
0.0
 11
35.3424986145
 21
23.3700868809
 31
0.0
  0
LINE
  5
555
330
1F
100
AcDbEntity
  8
0
  6
Continuous
 62
   144
370
    18
100
AcDbLine
 10
35.4131774537
 20
23.7792070456
 30
0.0
 11
35.3895819804
 21
23.7503032092
 31
0.0
  0
LINE
  5
556
330
1F
100
AcDbEntity
  8
0
  6
Continuous
 62
   144
370
    18
100
AcDbLine
 10
33.397254867
 20
23.7503032092
 30
0.0
 11
33.3736593894
 21
23.7792070456
 31
0.0
  0
LINE
  5
557
330
1F
100
AcDbEntity
  8
0
  6
Continuous
 62
   144
370
    18
100
AcDbLine
 10
33.5395071724
 20
23.5304252494
 30
0.0
 11
33.5636187186
 21
23.5574014823
 31
0.0
  0
LINE
  5
558
330
1F
100
AcDbEntity
  8
0
  6
Continuous
 62
   144
370
    18
100
AcDbLine
 10
33.5395071724
 20
23.5304252494
 30
0.0
 11
33.5426947579
 21
23.584490979
 31
0.0
  0
LINE
  5
559
330
1F
100
AcDbEntity
  8
0
  6
Continuous
 62
   144
370
    18
100
AcDbLine
 10
34.6285121714
 20
23.6402209287
 30
0.0
 11
34.5808293769
 21
23.6133161479
 31
0.0
  0
LINE
  5
55A
330
1F
100
AcDbEntity
  8
0
  6
Continuous
 62
   144
370
    18
100
AcDbLine
 10
34.5801372151
 20
23.6673733604
 30
0.0
 11
34.6276688654
 21
23.6961920507
 31
0.0
  0
LINE
  5
55B
330
1F
100
AcDbEntity
  8
0
  6
Continuous
 62
   144
370
    18
100
AcDbLine
 10
34.1583246829
 20
23.6402209287
 30
0.0
 11
34.2060074661
 21
23.6133161479
 31
0.0
  0
LINE
  5
55C
330
1F
100
AcDbEntity
  8
0
  6
Continuous
 62
   144
370
    18
100
AcDbLine
 10
34.1591679888
 20
23.6961920507
 30
0.0
 11
34.2066996279
 21
23.6673733604
 31
0.0
  0
LINE
  5
55D
330
1F
100
AcDbEntity
  8
0
  6
Continuous
 62
   144
370
    18
100
AcDbLine
 10
33.9010106217
 20
23.4187309235
 30
0.0
 11
33.8946064711
 21
23.4744316448
 31
0.0
  0
LINE
  5
55E
330
1F
100
AcDbEntity
  8
0
  6
Continuous
 62
   144
370
    18
100
AcDbLine
 10
33.7321900996
 20
23.6402209287
 30
0.0
 11
33.6996856012
 21
23.6133161479
 31
0.0
  0
LINE
  5
55F
330
1F
100
AcDbEntity
  8
0
  6
Continuous
 62
   144
370
    18
100
AcDbLine
 10
33.6996856012
 20
23.6133161479
 30
0.0
 11
33.7022477532
 21
23.6673733604
 31
0.0
  0
LINE
  5
560
330
1F
100
AcDbEntity
  8
0
  6
Continuous
 62
   144
370
    18
100
AcDbLine
 10
33.5666598406
 20
23.6133161479
 30
0.0
 11
33.5697132944
 21
23.6673733604
 31
0.0
  0
LINE
  5
561
330
1F
100
AcDbEntity
  8
0
  6
Continuous
 62
   144
370
    18
100
AcDbLine
 10
33.59259788
 20
23.6402209287
 30
0.0
 11
33.5666598406
 21
23.6133161479
 31
0.0
  0
LINE
  5
562
330
1F
100
AcDbEntity
  8
0
  6
Continuous
 62
   144
370
    18
100
AcDbLine
 10
33.5697132944
 20
23.6673733604
 30
0.0
 11
33.5955337714
 21
23.6961920507
 31
0.0
  0
LINE
  5
563
330
1F
100
AcDbEntity
  8
0
  6
Continuous
 62
   144
370
    18
100
AcDbLine
 10
34.9379950068
 20
23.7232161723
 30
0.0
 11
34.936020357
 21
23.7792214746
 31
0.0
  0
LINE
  5
564
330
1F
100
AcDbEntity
  8
0
  6
Continuous
 62
     7
370
    25
100
AcDbLine
 10
34.2524152421
 20
23.4744316448
 30
0.0
 11
34.2529347272
 21
23.5304014284
 31
0.0
  0
LINE
  5
565
330
1F
100
AcDbEntity
  8
0
  6
Continuous
 62
   144
370
    18
100
AcDbLine
 10
34.2529184777
 20
23.5303783134
 30
0.0
 11
34.3002192573
 21
23.5017916667
 31
0.0
  0
LINE
  5
566
330
1F
100
AcDbEntity
  8
0
  6
Continuous
 62
   144
370
    18
100
AcDbLine
 10
34.2542255548
 20
23.4187309235
 30
0.0
 11
34.2524152421
 21
23.4744316448
 31
0.0
  0
LINE
  5
567
330
1F
100
AcDbEntity
  8
0
  6
Continuous
 62
   144
370
    18
100
AcDbLine
 10
34.807538289
 20
23.6962392152
 30
0.0
 11
34.8537144412
 21
23.7232161723
 31
0.0
  0
LINE
  5
568
330
1F
100
AcDbEntity
  8
0
  6
Continuous
 62
   144
370
    18
100
AcDbLine
 10
35.6809676341
 20
23.0406139102
 30
0.0
 11
35.6809676341
 21
23.0286824308
 31
0.0
  0
LINE
  5
569
330
1F
100
AcDbEntity
  8
0
  6
Continuous
 62
   144
370
    18
100
AcDbLine
 10
35.8771927255
 20
23.0406139102
 30
0.0
 11
35.8778180278
 21
23.0286824308
 31
0.0
  0
ARC
  5
56A
330
1F
100
AcDbEntity
  8
0
  6
Continuous
 62
   144
370
    18
100
AcDbCircle
 10
35.7790801798
 20
27.3621272052
 30
0.0
 40
4.322626890035329
100
AcDbArc
 50
268.6994210444
 51
271.3005789555
  0
LINE
  5
56B
330
1F
100
AcDbEntity
  8
0
  6
Continuous
 62
   144
370
    18
100
AcDbLine
 10
33.1174637049
 20
23.0406662914
 30
0.0
 11
33.1101014924
 21
23.0406139102
 31
0.0
  0
LINE
  5
56C
330
1F
100
AcDbEntity
  8
0
  6
Continuous
 62
   144
370
    18
100
AcDbLine
 10
33.1101014924
 20
23.0406139102
 30
0.0
 11
33.1101014924
 21
23.0286824308
 31
0.0
  0
LINE
  5
56D
330
1F
100
AcDbEntity
  8
0
  6
Continuous
 62
   144
370
    18
100
AcDbLine
 10
35.6809676341
 20
23.0406139102
 30
0.0
 11
35.6736054216
 21
23.0406662914
 31
0.0
  0
LINE
  5
56E
330
1F
100
AcDbEntity
  8
0
  6
Continuous
 62
   144
370
    18
100
AcDbLine
 10
35.6736054216
 20
23.0406662914
 30
0.0
 11
35.6736054216
 21
23.0511350487
 31
0.0
  0
LINE
  5
56F
330
1F
100
AcDbEntity
  8
0
  6
Continuous
 62
   144
370
    18
100
AcDbLine
 10
33.1174637049
 20
23.0406662914
 30
0.0
 11
33.1174637049
 21
23.0511350487
 31
0.0
  0
LINE
  5
570
330
1F
100
AcDbEntity
  8
0
  6
Continuous
 62
   144
370
    18
100
AcDbLine
 10
32.9216020106
 20
23.0511350487
 30
0.0
 11
33.0682860099
 21
23.1050088378
 31
0.0
  0
ARC
  5
571
330
1F
100
AcDbEntity
  8
0
  6
Continuous
 62
     7
370
    25
100
AcDbCircle
 10
33.1666900078
 20
20.4215050347
 30
0.0
 40
2.68530743271145
100
AcDbArc
 50
87.8999065986
 51
92.1000934014
  0
LINE
  5
572
330
1F
100
AcDbEntity
  8
0
  6
Continuous
 62
     7
370
    25
100
AcDbLine
 10
33.2650940057
 20
23.1050088378
 30
0.0
 11
33.1174637049
 21
23.0511350487
 31
0.0
  0
LWPOLYLINE
  5
573
330
1F
100
AcDbEntity
  8
0
  6
Continuous
 62
   144
370
    18
100
AcDbPolyline
 90
        3
 70
   128
 43
0.0
 10
32.9216020106
 20
23.0511350487
 10
32.9216020556
 20
23.0511350652
 10
32.9217349754
 20
23.0511305304
  0
ARC
  5
574
330
1F
100
AcDbEntity
  8
0
  6
Continuous
 62
   144
370
    18
100
AcDbCircle
 10
33.0158420713
 20
29.7565302407
 30
0.0
 40
6.706060051921201
100
AcDbArc
 50
269.1959337729
 51
270.8040662271
  0
LWPOLYLINE
  5
575
330
1F
100
AcDbEntity
  8
0
  6
Continuous
 62
   144
370
    18
100
AcDbPolyline
 90
        3
 70
   128
 43
0.0
 10
33.1099491672
 20
23.0511305304
 10
33.1174613432
 20
23.0511350652
 10
33.1174637049
 20
23.0511350487
  0
LINE
  5
576
330
1F
100
AcDbEntity
  8
0
  6
Continuous
 62
     7
370
    25
100
AcDbLine
 10
35.5259751208
 20
23.1050088378
 30
0.0
 11
35.6736054216
 21
23.0511350487
 31
0.0
  0
ARC
  5
577
330
1F
100
AcDbEntity
  8
0
  6
Continuous
 62
     7
370
    25
100
AcDbCircle
 10
35.6243791187
 20
20.1003101008
 30
0.0
 40
3.006309672458978
100
AcDbArc
 50
88.1242314783
 51
91.8757685217
  0
LINE
  5
578
330
1F
100
AcDbEntity
  8
0
  6
Continuous
 62
     7
370
    25
100
AcDbLine
 10
35.8694671159
 20
23.0511350487
 30
0.0
 11
35.7227831166
 21
23.1050088378
 31
0.0
  0
LWPOLYLINE
  5
579
330
1F
100
AcDbEntity
  8
0
  6
Continuous
 62
   144
370
    18
100
AcDbPolyline
 90
        3
 70
   128
 43
0.0
 10
35.6736054216
 20
23.0511350487
 10
35.6736077833
 20
23.0511350652
 10
35.6811199593
 20
23.0511305304
  0
ARC
  5
57A
330
1F
100
AcDbEntity
  8
0
  6
Continuous
 62
   144
370
    18
100
AcDbCircle
 10
35.7752270552
 20
29.6124411356
 30
0.0
 40
6.561985446756764
100
AcDbArc
 50
269.1782785399
 51
270.8217214601
  0
LWPOLYLINE
  5
57B
330
1F
100
AcDbEntity
  8
0
  6
Continuous
 62
   144
370
    18
100
AcDbPolyline
 90
        3
 70
   128
 43
0.0
 10
35.8693341511
 20
23.0511305304
 10
35.869467071
 20
23.0511350652
 10
35.8694671159
 20
23.0511350487
  0
LINE
  5
57C
330
1F
100
AcDbEntity
  8
0
  6
Continuous
 62
     7
370
    25
100
AcDbLine
 10
33.081859252
 20
23.1074225883
 30
0.0
 11
33.2650940057
 21
23.1074225883
 31
0.0
  0
LINE
  5
57D
330
1F
100
AcDbEntity
  8
0
  6
Continuous
 62
   144
370
    18
100
AcDbLine
 10
33.2650940057
 20
23.1050088378
 30
0.0
 11
33.2650940057
 21
23.1074225883
 31
0.0
  0
LINE
  5
57E
330
1F
100
AcDbEntity
  8
0
  6
Continuous
 62
   144
370
    18
100
AcDbLine
 10
33.0682860099
 20
23.1050088378
 30
0.0
 11
33.081859252
 21
23.1074225883
 31
0.0
  0
LINE
  5
57F
330
1F
100
AcDbEntity
  8
0
  6
Continuous
 62
     7
370
    25
100
AcDbLine
 10
35.5259751208
 20
23.1050088378
 30
0.0
 11
35.5259751208
 21
23.1074225883
 31
0.0
  0
LINE
  5
580
330
1F
100
AcDbEntity
  8
0
  6
Continuous
 62
   144
370
    18
100
AcDbLine
 10
35.5259751208
 20
23.1074225883
 30
0.0
 11
35.7092098745
 21
23.1074225883
 31
0.0
  0
LINE
  5
581
330
1F
100
AcDbEntity
  8
0
  6
Continuous
 62
   144
370
    18
100
AcDbLine
 10
35.7092098745
 20
23.1074225883
 30
0.0
 11
35.7227831166
 21
23.1050088378
 31
0.0
  0
LINE
  5
582
330
1F
100
AcDbEntity
  8
0
  6
Continuous
 62
     7
370
    25
100
AcDbLine
 10
33.2650940057
 20
23.1074225883
 30
0.0
 11
33.4643714381
 21
23.1074225883
 31
0.0
  0
LINE
  5
583
330
1F
100
AcDbEntity
  8
0
  6
Continuous
 62
     7
370
    25
100
AcDbLine
 10
35.3224694952
 20
23.1074225883
 30
0.0
 11
35.5259751208
 21
23.1074225883
 31
0.0
  0
ARC
  5
584
330
1F
100
AcDbEntity
  8
0
  6
Continuous
 62
   144
370
    18
100
AcDbCircle
 10
25.8823468074
 20
22.9420507034
 30
0.0
 40
7.228426701727916
100
AcDbArc
 50
0.7812843688
 51
0.8646495087
  0
ARC
  5
585
330
1F
100
AcDbEntity
  8
0
  6
Continuous
 62
   144
370
    18
100
AcDbCircle
 10
33.0119889586
 20
27.4835675545
 30
0.0
 40
4.444036354509283
100
AcDbArc
 50
268.7349584001
 51
271.2650415999
  0
ARC
  5
586
330
1F
100
AcDbEntity
  8
0
  6
Continuous
 62
   144
370
    18
100
AcDbCircle
 10
32.9256701172
 20
23.0399959933
 30
0.0
 40
0.011809892578636
100
AcDbArc
 50
109.4691132453
 51
176.9985964697
  0
LINE
  5
587
330
1F
100
AcDbEntity
  8
0
  6
Continuous
 62
   144
370
    18
100
AcDbLine
 10
19.9937624731
 20
23.0286824308
 30
0.0
 11
19.9897994701
 21
23.0853560135
 31
0.0
  0
ARC
  5
588
330
1F
100
AcDbEntity
  8
0
  6
Continuous
 62
   144
370
    18
100
AcDbCircle
 10
20.0539171465
 20
22.8057526367
 30
0.0
 40
0.2868608107943587
100
AcDbArc
 50
91.0399535056
 51
102.9155665734
  0
LINE
  5
589
330
1F
100
AcDbEntity
  8
0
  6
Continuous
 62
     7
370
    25
100
AcDbLine
 10
20.0487107329
 20
23.0925661964
 30
0.0
 11
31.6173732458
 21
23.0925661964
 31
0.0
  0
LINE
  5
58A
330
1F
100
AcDbEntity
  8
0
  6
Continuous
 62
     7
370
    25
100
AcDbLine
 10
31.9100998148
 20
23.1133083817
 30
0.0
 11
31.9093707083
 21
23.1090290903
 31
0.0
  0
ARC
  5
58B
330
1F
100
AcDbEntity
  8
0
  6
Continuous
 62
     7
370
    25
100
AcDbCircle
 10
31.8914249467
 20
23.0572837775
 30
0.0
 40
0.0590551181090059
100
AcDbArc
 50
3.0000000001
 51
71.5650511755
  0
LINE
  5
58C
330
1F
100
AcDbEntity
  8
0
  6
Continuous
 62
   144
370
    18
100
AcDbLine
 10
31.9520600419
 20
23.0286824308
 30
0.0
 11
31.9503991318
 21
23.0603744836
 31
0.0
  0
LINE
  5
58D
330
1F
100
AcDbEntity
  8
0
  6
Continuous
 62
     7
370
    25
100
AcDbLine
 10
31.7191175259
 20
23.1769691447
 30
0.0
 11
31.9100998148
 21
23.1133083817
 31
0.0
  0
ARC
  5
58E
330
1F
100
AcDbEntity
  8
0
  6
Continuous
 62
   144
370
    18
100
AcDbCircle
 10
31.6098751199
 20
23.1991006189
 30
0.0
 40
0.1067979636007593
100
AcDbArc
 50
274.0259634864
 51
326.2861672831
  0
ARC
  5
58F
330
1F
100
AcDbEntity
  8
0
  6
Continuous
 62
   144
370
    18
100
AcDbCircle
 10
31.7824584039
 20
23.1179959146
 30
0.0
 40
0.0865442585834307
100
AcDbArc
 50
137.0450748597
 51
165.3918967673
  0
LINE
  5
590
330
1F
100
AcDbEntity
  8
0
  6
Continuous
 62
     7
370
    25
100
AcDbLine
 10
31.6173732458
 20
23.129750984
 30
0.0
 11
20.0487107329
 21
23.129750984
 31
0.0
  0
LINE
  5
591
330
1F
100
AcDbEntity
  8
0
  6
Continuous
 62
   144
370
    18
100
AcDbLine
 10
31.6173732458
 20
23.129750984
 30
0.0
 11
31.6173732458
 21
23.0925661964
 31
0.0
  0
LINE
  5
592
330
1F
100
AcDbEntity
  8
0
  6
Continuous
 62
   144
370
    18
100
AcDbLine
 10
20.0487107329
 20
23.129750984
 30
0.0
 11
20.0487107329
 21
23.0925661964
 31
0.0
  0
LINE
  5
593
330
1F
100
AcDbEntity
  8
0
  6
Continuous
 62
     7
370
    25
100
AcDbLine
 10
20.0446394127
 20
23.1879735757
 30
0.0
 11
31.5542598337
 21
23.1879735757
 31
0.0
  0
LINE
  5
594
330
1F
100
AcDbEntity
  8
0
  6
Continuous
 62
     7
370
    25
100
AcDbLine
 10
31.5542598336
 20
23.1879735761
 30
0.0
 11
31.6873370314
 21
23.1436145102
 31
0.0
  0
LINE
  5
595
330
1F
100
AcDbEntity
  8
0
  6
Continuous
 62
   144
370
    18
100
AcDbLine
 10
20.0446394127
 20
23.1879735757
 30
0.0
 11
20.0487107329
 21
23.129750984
 31
0.0
  0
LWPOLYLINE
  5
596
330
1F
100
AcDbEntity
  8
0
  6
Continuous
 62
   144
370
    18
100
AcDbPolyline
 90
        6
 70
   128
 43
0.0
 10
31.6873370315
 20
23.1436145097
 10
31.6849884153
 20
23.1406323646
 10
31.6815481461
 20
23.1382754543
 10
31.6732509906
 20
23.1350225042
 10
31.6550010277
 20
23.1315970084
 10
31.6173732453
 20
23.129750984
  0
LINE
  5
597
330
1F
100
AcDbEntity
  8
0
  6
Continuous
 62
     7
370
    25
100
AcDbLine
 10
31.5916095698
 20
23.2194717967
 30
0.0
 11
31.7191175259
 21
23.1769691447
 31
0.0
  0
LWPOLYLINE
  5
598
330
1F
100
AcDbEntity
  8
0
  6
Continuous
 62
   144
370
    18
100
AcDbPolyline
 90
        5
 70
   128
 43
0.0
 10
31.719117526
 20
23.176969145
 10
31.7130020887
 20
23.1760962403
 10
31.7054227313
 20
23.1700221982
 10
31.6967342624
 20
23.1590253073
 10
31.6873370314
 20
23.1436145102
  0
LWPOLYLINE
  5
599
330
1F
100
AcDbEntity
  8
0
  6
Continuous
 62
   144
370
    18
100
AcDbPolyline
 90
        5
 70
   128
 43
0.0
 10
31.5542598336
 20
23.1879735761
 10
31.5647959832
 20
23.2029948184
 10
31.5748389007
 20
23.2135420086
 10
31.5839184441
 20
23.219121398
 10
31.5916095699
 20
23.219471797
  0
LINE
  5
59A
330
1F
100
AcDbEntity
  8
0
  6
Continuous
 62
     7
370
    25
100
AcDbLine
 10
19.9857281499
 20
23.1435786052
 30
0.0
 11
19.9844149506
 21
23.1623582296
 31
0.0
  0
LINE
  5
59B
330
1F
100
AcDbEntity
  8
0
  6
Continuous
 62
   144
370
    18
100
AcDbLine
 10
19.9897994701
 20
23.0853560135
 30
0.0
 11
19.9857281499
 21
23.1435786052
 31
0.0
  0
ARC
  5
59C
330
1F
100
AcDbEntity
  8
0
  6
Continuous
 62
     7
370
    25
100
AcDbCircle
 10
20.0433262134
 20
23.1664777064
 30
0.0
 40
0.0590551181106491
100
AcDbArc
 50
90.0000000001
 51
184.0000000001
  0
LWPOLYLINE
  5
59D
330
1F
100
AcDbEntity
  8
0
  6
Continuous
 62
     7
370
    25
100
AcDbPolyline
 90
        5
 70
   128
 43
0.0
 10
20.0446394127
 20
23.1879735757
 10
20.0440833965
 20
23.2038761078
 10
20.0436687174
 20
23.2157365698
 10
20.0434117431
 20
23.2230944525
 10
20.0433262134
 20
23.2255328245
  0
LWPOLYLINE
  5
59E
330
1F
100
AcDbEntity
  8
0
  6
Continuous
 62
   144
370
    18
100
AcDbPolyline
 90
        7
 70
   128
 43
0.0
 10
19.9857281499
 20
23.1435786052
 10
19.9890040498
 20
23.1589835862
 10
19.994249048
 20
23.166741642
 10
20.0018723438
 20
23.1738324072
 10
20.0114458242
 20
23.1797476163
 10
20.0222819119
 20
23.18413127
 10
20.0446394127
 20
23.187973527
  0
LINE
  5
59F
330
1F
100
AcDbEntity
  8
0
  6
Continuous
 62
     7
370
    25
100
AcDbLine
 10
20.0433262134
 20
23.2255328245
 30
0.0
 11
31.5542598337
 21
23.2255328245
 31
0.0
  0
LINE
  5
5A0
330
1F
100
AcDbEntity
  8
0
  6
Continuous
 62
   144
370
    18
100
AcDbLine
 10
31.5542598337
 20
23.2255328245
 30
0.0
 11
31.5542598337
 21
23.1879735757
 31
0.0
  0
LINE
  5
5A1
330
1F
100
AcDbEntity
  8
0
  6
Continuous
 62
   144
370
    18
100
AcDbLine
 10
31.5916095698
 20
23.2194717967
 30
0.0
 11
31.5542598337
 21
23.2255328245
 31
0.0
  0
LINE
  5
5A2
330
1F
100
AcDbEntity
  8
0
  6
Continuous
 62
   144
370
    18
100
AcDbLine
 10
20.0433262134
 20
23.1705971832
 30
0.0
 11
20.0433262134
 21
23.1885400052
 31
0.0
  0
ARC
  5
5A3
330
1F
100
AcDbEntity
  8
0
  6
Continuous
 62
   144
370
    18
100
AcDbCircle
 10
20.0657621904
 20
22.7408719084
 30
0.0
 40
0.4303105678440574
100
AcDbArc
 50
92.9887017076
 51
100.3006715459
  0
LINE
  5
5A4
330
1F
100
AcDbEntity
  8
0
  6
Continuous
 62
   144
370
    18
100
AcDbLine
 10
31.9518395615
 20
23.0328909636
 30
0.0
 11
31.9503984191
 21
23.0603743904
 31
0.0
  0
LINE
  5
5A5
330
1F
100
AcDbEntity
  8
0
  6
Continuous
 62
   144
370
    18
100
AcDbLine
 10
31.9515135369
 20
23.0391075806
 30
0.0
 11
31.9518395652
 21
23.0328908924
 31
0.0
  0
ARC
  5
5A6
330
1F
100
AcDbEntity
  8
0
  6
Continuous
 62
   144
370
    18
100
AcDbCircle
 10
33.0353991457
 20
23.1437489428
 30
0.0
 40
1.470920284760595
100
AcDbArc
 50
176.8164097011
 51
177.6541241324
  0
LWPOLYLINE
  5
5A7
330
1F
100
AcDbEntity
  8
0
  6
Continuous
 62
   144
370
    18
100
AcDbPolyline
 90
        3
 70
   128
 43
0.0
 10
31.9100998148
 20
23.1133083817
 10
31.9257823482
 20
23.1053158078
 10
31.9384126393
 20
23.0930561651
  0
LWPOLYLINE
  5
5A8
330
1F
100
AcDbEntity
  8
0
  6
Continuous
 62
   144
370
    18
100
AcDbPolyline
 90
        3
 70
   128
 43
0.0
 10
19.9842804431
 20
23.1675284086
 10
19.9848105108
 20
23.174441344
 10
19.9873090946
 20
23.1851750155
  0
LINE
  5
5A9
330
1F
100
AcDbEntity
  8
0
  6
Continuous
 62
     7
370
    25
100
AcDbLine
 10
31.578176517
 20
23.2191476251
 30
0.0
 11
31.566494283
 21
23.2209582063
 31
0.0
  0
LINE
  5
5AA
330
1F
100
AcDbEntity
  8
0
  6
Continuous
 62
     7
370
    25
100
AcDbLine
 10
8.241625133
 20
23.0925661964
 30
0.0
 11
19.8102876458
 21
23.0925661964
 31
0.0
  0
LINE
  5
5AB
330
1F
100
AcDbEntity
  8
0
  6
Continuous
 62
   144
370
    18
100
AcDbLine
 10
19.8058204578
 20
23.0286824308
 30
0.0
 11
19.8102876459
 21
23.0925661964
 31
0.0
  0
ARC
  5
5AC
330
1F
100
AcDbEntity
  8
0
  6
Continuous
 62
   144
370
    18
100
AcDbCircle
 10
7.9675734321
 20
23.0572837775
 30
0.0
 40
0.0590551181089955
100
AcDbArc
 50
108.4349488245
 51
176.9999999999
  0
LINE
  5
5AD
330
1F
100
AcDbEntity
  8
0
  6
Continuous
 62
     7
370
    25
100
AcDbLine
 10
7.9496276705
 20
23.1090290903
 30
0.0
 11
7.948898564
 21
23.1133083817
 31
0.0
  0
LINE
  5
5AE
330
1F
100
AcDbEntity
  8
0
  6
Continuous
 62
     7
370
    25
100
AcDbLine
 10
7.908599247
 20
23.0603744836
 30
0.0
 11
7.9069383369
 21
23.0286824308
 31
0.0
  0
LINE
  5
5AF
330
1F
100
AcDbEntity
  8
0
  6
Continuous
 62
     7
370
    25
100
AcDbLine
 10
7.948898564
 20
23.1133083817
 30
0.0
 11
8.1398808529
 21
23.1769691447
 31
0.0
  0
ARC
  5
5B0
330
1F
100
AcDbEntity
  8
0
  6
Continuous
 62
     7
370
    25
100
AcDbCircle
 10
8.0765399749
 20
23.1179959146
 30
0.0
 40
0.0865442585833993
100
AcDbArc
 50
14.6081032327
 51
42.9549251403
  0
ARC
  5
5B1
330
1F
100
AcDbEntity
  8
0
  6
Continuous
 62
   144
370
    18
100
AcDbCircle
 10
8.2491232589
 20
23.1991006189
 30
0.0
 40
0.1067979636007629
100
AcDbArc
 50
213.7138327169
 51
265.9740365136
  0
LINE
  5
5B2
330
1F
100
AcDbEntity
  8
0
  6
Continuous
 62
     7
370
    25
100
AcDbLine
 10
19.8102876458
 20
23.0925661964
 30
0.0
 11
19.8102876458
 21
23.129750984
 31
0.0
  0
ARC
  5
5B3
330
1F
100
AcDbEntity
  8
0
  6
Continuous
 62
     7
370
    25
100
AcDbCircle
 10
19.8164544845
 20
23.0766497234
 30
0.0
 40
0.053458149998476
100
AcDbArc
 50
9.3730441105
 51
96.6242887545
  0
ARC
  5
5B4
330
1F
100
AcDbEntity
  8
0
  6
Continuous
 62
   144
370
    18
100
AcDbCircle
 10
19.8050817643
 20
22.8057569894
 30
0.0
 40
0.2868564493086687
100
AcDbArc
 50
77.0843427061
 51
88.9601369642
  0
LINE
  5
5B5
330
1F
100
AcDbEntity
  8
0
  6
Continuous
 62
     7
370
    25
100
AcDbLine
 10
19.8102876458
 20
23.129750984
 30
0.0
 11
8.241625133
 21
23.129750984
 31
0.0
  0
LINE
  5
5B6
330
1F
100
AcDbEntity
  8
0
  6
Continuous
 62
   144
370
    18
100
AcDbLine
 10
8.241625133
 20
23.0925661964
 30
0.0
 11
8.241625133
 21
23.129750984
 31
0.0
  0
LINE
  5
5B7
330
1F
100
AcDbEntity
  8
0
  6
Continuous
 62
     7
370
    25
100
AcDbLine
 10
19.872682691
 20
23.1510848741
 30
0.0
 11
19.8732702292
 21
23.1435786051
 31
0.0
  0
LINE
  5
5B8
330
1F
100
AcDbEntity
  8
0
  6
Continuous
 62
     7
370
    25
100
AcDbLine
 10
19.8732702289
 20
23.1435786052
 30
0.0
 11
19.8691989087
 21
23.0853560135
 31
0.0
  0
LINE
  5
5B9
330
1F
100
AcDbEntity
  8
0
  6
Continuous
 62
     7
370
    25
100
AcDbLine
 10
19.8102876459
 20
23.129750984
 30
0.0
 11
19.8143589661
 21
23.1879735757
 31
0.0
  0
LINE
  5
5BA
330
1F
100
AcDbEntity
  8
0
  6
Continuous
 62
     7
370
    25
100
AcDbLine
 10
8.3047385451
 20
23.1879735757
 30
0.0
 11
19.8143589661
 21
23.1879735757
 31
0.0
  0
LINE
  5
5BB
330
1F
100
AcDbEntity
  8
0
  6
Continuous
 62
     7
370
    25
100
AcDbLine
 10
8.1716613473
 20
23.1436145102
 30
0.0
 11
8.3047385452
 21
23.1879735761
 31
0.0
  0
LWPOLYLINE
  5
5BC
330
1F
100
AcDbEntity
  8
0
  6
Continuous
 62
   144
370
    18
100
AcDbPolyline
 90
        6
 70
   128
 43
0.0
 10
8.2416251335
 20
23.129750984
 10
8.2039973511
 20
23.1315970084
 10
8.1857473882
 20
23.1350225042
 10
8.1774502327
 20
23.1382754543
 10
8.1740099635
 20
23.1406323646
 10
8.1716613472
 20
23.1436145097
  0
LWPOLYLINE
  5
5BD
330
1F
100
AcDbEntity
  8
0
  6
Continuous
 62
     7
370
    25
100
AcDbPolyline
 90
        5
 70
   128
 43
0.0
 10
8.1716613473
 20
23.1436145102
 10
8.1622641164
 20
23.1590253073
 10
8.1535756475
 20
23.1700221982
 10
8.1459962901
 20
23.1760962403
 10
8.1398808528
 20
23.176969145
  0
LINE
  5
5BE
330
1F
100
AcDbEntity
  8
0
  6
Continuous
 62
   144
370
    18
100
AcDbLine
 10
8.171661508
 20
23.1436154799
 30
0.0
 11
8.1602862417
 21
23.1398239405
 31
0.0
  0
LINE
  5
5BF
330
1F
100
AcDbEntity
  8
0
  6
Continuous
 62
     7
370
    25
100
AcDbLine
 10
8.1398808529
 20
23.1769691447
 30
0.0
 11
8.2673888089
 21
23.2194717967
 31
0.0
  0
LWPOLYLINE
  5
5C0
330
1F
100
AcDbEntity
  8
0
  6
Continuous
 62
   144
370
    18
100
AcDbPolyline
 90
        5
 70
   128
 43
0.0
 10
8.2673888088
 20
23.219471797
 10
8.2750799346
 20
23.219121398
 10
8.2841594781
 20
23.2135420086
 10
8.2942023956
 20
23.2029948184
 10
8.3047385452
 20
23.1879735761
  0
LINE
  5
5C1
330
1F
100
AcDbEntity
  8
0
  6
Continuous
 62
     7
370
    25
100
AcDbLine
 10
19.8745834281
 20
23.1623582296
 30
0.0
 11
19.8732702289
 21
23.1435786052
 31
0.0
  0
LINE
  5
5C2
330
1F
100
AcDbEntity
  8
0
  6
Continuous
 62
   144
370
    18
100
AcDbLine
 10
19.8691989087
 20
23.0853560135
 30
0.0
 11
19.8652359057
 21
23.0286824308
 31
0.0
  0
LWPOLYLINE
  5
5C3
330
1F
100
AcDbEntity
  8
0
  6
Continuous
 62
     7
370
    25
100
AcDbPolyline
 90
        5
 70
   128
 43
0.0
 10
19.8156721653
 20
23.2255328245
 10
19.8155866357
 20
23.2230944525
 10
19.8153296614
 20
23.2157365698
 10
19.8149149822
 20
23.2038761078
 10
19.8143589661
 20
23.1879735757
  0
ARC
  5
5C4
330
1F
100
AcDbEntity
  8
0
  6
Continuous
 62
     7
370
    25
100
AcDbCircle
 10
19.8156721653
 20
23.1664777064
 30
0.0
 40
0.0590551181106491
100
AcDbArc
 50
355.9999999999
 51
89.9999999999
  0
LINE
  5
5C5
330
1F
100
AcDbEntity
  8
0
  6
Continuous
 62
     7
370
    25
100
AcDbLine
 10
8.3047385451
 20
23.2255328245
 30
0.0
 11
19.8156721653
 21
23.2255328245
 31
0.0
  0
LINE
  5
5C6
330
1F
100
AcDbEntity
  8
0
  6
Continuous
 62
   144
370
    18
100
AcDbLine
 10
8.3047385451
 20
23.1879735757
 30
0.0
 11
8.3047385451
 21
23.2255328245
 31
0.0
  0
LWPOLYLINE
  5
5C7
330
1F
100
AcDbEntity
  8
0
  6
Continuous
 62
   144
370
    18
100
AcDbPolyline
 90
        3
 70
   128
 43
0.0
 10
8.2792360239
 20
23.2234208682
 10
8.2806992742
 20
23.219552181
 10
8.2841262577
 20
23.2082426729
  0
ARC
  5
5C8
330
1F
100
AcDbEntity
  8
0
  6
Continuous
 62
   144
370
    18
100
AcDbCircle
 10
6.8235992332
 20
23.1437489428
 30
0.0
 40
1.470920284716127
100
AcDbArc
 50
2.3458758676
 51
3.1835902989
  0
LWPOLYLINE
  5
5C9
330
1F
100
AcDbEntity
  8
0
  6
Continuous
 62
   144
370
    18
100
AcDbPolyline
 90
        3
 70
   128
 43
0.0
 10
7.9205857395
 20
23.0930561651
 10
7.9332160306
 20
23.1053158078
 10
7.9426205465
 20
23.1101088018
  0
ARC
  5
5CA
330
1F
100
AcDbEntity
  8
0
  6
Continuous
 62
   144
370
    18
100
AcDbCircle
 10
19.8156721653
 20
23.1664777064
 30
0.0
 40
0.05905511811032
100
AcDbArc
 50
2.2296191271
 51
20.5959113458
  0
LINE
  5
5CB
330
1F
100
AcDbEntity
  8
0
  6
Continuous
 62
   144
370
    18
100
AcDbLine
 10
8.2808225649
 20
23.2191453045
 30
0.0
 11
8.2927193116
 21
23.2209898301
 31
0.0
  0
LINE
  5
5CC
330
1F
100
AcDbEntity
  8
0
  6
Continuous
 62
     7
370
    25
100
AcDbLine
 10
35.4760955869
 20
23.9280403723
 30
0.0
 11
33.3113239413
 21
23.9280403723
 31
0.0
  0
LINE
  5
5CD
330
1F
100
AcDbEntity
  8
0
  6
Continuous
 62
   144
370
    18
100
AcDbLine
 10
35.4786251969
 20
23.7831191124
 30
0.0
 11
35.4782069791
 21
23.7831191124
 31
0.0
  0
LINE
  5
5CE
330
1F
100
AcDbEntity
  8
0
  6
Continuous
 62
   144
370
    18
100
AcDbLine
 10
35.4596436234
 20
23.7831191124
 30
0.0
 11
33.3217875498
 21
23.7831191124
 31
0.0
  0
LWPOLYLINE
  5
5CF
330
1F
100
AcDbEntity
  8
0
  6
Continuous
 62
   144
370
    18
100
AcDbPolyline
 90
       11
 70
   128
 43
0.0
 10
33.3113286818
 20
23.9279720625
 10
33.3113262787
 20
23.9280249426
 10
33.3113234226
 20
23.9280403555
 10
33.3113200133
 20
23.9280231433
 10
33.311315014
 20
23.9279573524
 10
33.3113061675
 20
23.9277735016
 10
33.3112738405
 20
23.9267840583
 10
33.3111696039
 20
23.9225759658
 10
33.3108099703
 20
23.905493391
 10
33.3094979698
 20
23.8368774408
 10
33.3092903732
 20
23.8256781676
  0
LINE
  5
5D0
330
1F
100
AcDbEntity
  8
0
  6
Continuous
 62
   144
370
    18
100
AcDbLine
 10
33.3092913205
 20
23.8256781676
 30
0.0
 11
33.3089545172
 21
23.8256781676
 31
0.0
  0
LINE
  5
5D1
330
1F
100
AcDbEntity
  8
0
  6
Continuous
 62
   144
370
    18
100
AcDbLine
 10
33.3471422652
 20
23.9634734407
 30
0.0
 11
33.3113180392
 21
23.9280403723
 31
0.0
  0
LINE
  5
5D2
330
1F
100
AcDbEntity
  8
0
  6
Continuous
 62
     7
370
    25
100
AcDbLine
 10
35.4403046062
 20
23.9634734432
 30
0.0
 11
33.347141317
 21
23.9634734432
 31
0.0
  0
LINE
  5
5D3
330
1F
100
AcDbEntity
  8
0
  6
Continuous
 62
     7
370
    25
100
AcDbLine
 10
33.0492416079
 20
23.0286824308
 30
0.0
 11
36.6721689027
 21
23.0286824308
 31
0.0
  0
ARC
  5
5D4
330
1F
100
AcDbEntity
  8
0
  6
Continuous
 62
   144
370
    18
100
AcDbCircle
 10
36.6721689027
 20
22.9696273127
 30
0.0
 40
0.0590551181102335
100
AcDbArc
 50
19.4712206278
 51
90.0
  0
LINE
  5
5D5
330
1F
100
AcDbEntity
  8
0
  6
Continuous
 62
     7
370
    25
100
AcDbLine
 10
36.727846602
 20
22.989312352
 30
0.0
 11
36.725062717
 21
22.989312352
 31
0.0
  0
LINE
  5
5D6
330
1F
100
AcDbEntity
  8
0
  6
Continuous
 62
     7
370
    25
100
AcDbLine
 10
36.6693850177
 20
22.9105721945
 30
0.0
 11
33.0492416079
 21
22.9105721945
 31
0.0
  0
ARC
  5
5D7
330
1F
100
AcDbEntity
  8
0
  6
Continuous
 62
   144
370
    18
100
AcDbCircle
 10
36.6693850177
 20
22.9696273127
 30
0.0
 40
0.0590551181166425
100
AcDbArc
 50
270.0
 51
19.4712206278
  0
ARC
  5
5D8
330
1F
100
AcDbEntity
  8
0
  6
Continuous
 62
   144
370
    18
100
AcDbCircle
 10
33.0492416079
 20
22.9696273127
 30
0.0
 40
0.0590551181164649
100
AcDbArc
 50
270.0000000002
 51
89.9999999999
  0
ARC
  5
5D9
330
1F
100
AcDbEntity
  8
0
  6
Continuous
 62
   144
370
    18
100
AcDbCircle
 10
36.6721689027
 20
22.9696273127
 30
0.0
 40
0.0590551181166425
100
AcDbArc
 50
270.0
 51
19.4712206279
  0
LINE
  5
5DA
330
1F
100
AcDbEntity
  8
0
  6
Continuous
 62
   144
370
    18
100
AcDbLine
 10
33.1049193735
 20
22.989312352
 30
0.0
 11
33.0993516003
 21
22.989312352
 31
0.0
  0
LINE
  5
5DB
330
1F
100
AcDbEntity
  8
0
  6
Continuous
 62
   144
370
    18
100
AcDbLine
 10
33.0492416079
 20
23.0286824308
 30
0.0
 11
33.0436738347
 21
23.0286824308
 31
0.0
  0
LINE
  5
5DC
330
1F
100
AcDbEntity
  8
0
  6
Continuous
 62
   144
370
    18
100
AcDbLine
 10
33.0492416079
 20
22.9105721945
 30
0.0
 11
33.0436738347
 21
22.9105721945
 31
0.0
  0
LINE
  5
5DD
330
1F
100
AcDbEntity
  8
0
  6
Continuous
 62
   144
370
    18
100
AcDbLine
 10
36.6693850177
 20
22.9105721945
 30
0.0
 11
36.6721689027
 21
22.9105721945
 31
0.0
  0
LINE
  5
5DE
330
1F
100
AcDbEntity
  8
0
  6
Continuous
 62
   144
370
    18
100
AcDbLine
 10
33.0993516003
 20
22.9499422733
 30
0.0
 11
33.1049193735
 21
22.9499422733
 31
0.0
  0
ARC
  5
5DF
330
1F
100
AcDbEntity
  8
0
  6
Continuous
 62
   144
370
    18
100
AcDbCircle
 10
6.7902806262
 20
22.9696273127
 30
0.0
 40
0.0590551181164578
100
AcDbArc
 50
90.0
 51
270.0
  0
LINE
  5
5E0
330
1F
100
AcDbEntity
  8
0
  6
Continuous
 62
   144
370
    18
100
AcDbLine
 10
6.7930645832
 20
23.0286824308
 30
0.0
 11
6.7902806262
 21
23.0286824308
 31
0.0
  0
LINE
  5
5E1
330
1F
100
AcDbEntity
  8
0
  6
Continuous
 62
   144
370
    18
100
AcDbLine
 10
6.7930645832
 20
22.9105721945
 30
0.0
 11
6.7902806262
 21
22.9105721945
 31
0.0
  0
LINE
  5
5E2
330
1F
100
AcDbEntity
  8
0
  6
Continuous
 62
   144
370
    18
100
AcDbLine
 10
7.7811200478
 20
22.2839141267
 30
0.0
 11
7.7811200478
 21
22.4151840188
 31
0.0
  0
ARC
  5
5E3
330
1F
100
AcDbEntity
  8
0
  6
Continuous
 62
     7
370
    25
100
AcDbCircle
 10
33.0436738347
 20
22.9696273127
 30
0.0
 40
0.0590551181164649
100
AcDbArc
 50
269.9999999999
 51
89.9999999999
  0
LINE
  5
5E4
330
1F
100
AcDbEntity
  8
0
  6
Continuous
 62
     7
370
    25
100
AcDbLine
 10
33.0436738347
 20
22.9105721945
 30
0.0
 11
6.7930645832
 21
22.9105721945
 31
0.0
  0
LINE
  5
5E5
330
1F
100
AcDbEntity
  8
0
  6
Continuous
 62
     7
370
    25
100
AcDbLine
 10
6.7930645832
 20
23.0286824308
 30
0.0
 11
33.0436738347
 21
23.0286824308
 31
0.0
  0
ARC
  5
5E6
330
1F
100
AcDbEntity
  8
0
  6
Continuous
 62
   144
370
    18
100
AcDbCircle
 10
6.7930645832
 20
22.9696273127
 30
0.0
 40
0.0590551181164649
100
AcDbArc
 50
90.0
 51
270.0000000002
  0
LINE
  5
5E7
330
1F
100
AcDbEntity
  8
0
  6
Continuous
 62
   144
370
    18
100
AcDbLine
 10
7.7839039344
 20
22.2834194733
 30
0.0
 11
7.7839039344
 21
22.4156786722
 31
0.0
  0
ELLIPSE
  5
5E8
330
1F
100
AcDbEntity
  8
0
  6
Continuous
 62
     7
370
    25
100
AcDbEllipse
 10
33.4007308988
 20
18.4759567567
 30
0.0
 11
-0.03620152936694865
 21
-0.03620152936694865
 31
0.0
210
0.0
220
0.0
230
1.0
 40
0.9996954599
 41
2.373729840782605
 42
3.926838523739736
  0
LINE
  5
5E9
330
1F
100
AcDbEntity
  8
0
  6
Continuous
 62
   144
370
    18
100
AcDbLine
 10
33.4519120637
 20
18.4768621205
 30
0.0
 11
33.4401046857
 21
18.4766568504
 31
0.0
  0
ELLIPSE
  5
5EA
330
1F
100
AcDbEntity
  8
0
  6
Continuous
 62
   144
370
    18
100
AcDbEllipse
 10
33.4007308988
 20
18.4759567567
 30
0.0
 11
0.02785241788500769
 21
0.02785241788501835
 31
0.0
210
0.0
220
0.0
230
1.0
 40
0.9995128526
 41
5.515322494373207
 42
7.068431177329371
  0
LINE
  5
5EB
330
1F
100
AcDbEntity
  8
0
  6
Continuous
 62
   144
370
    18
100
AcDbLine
 10
33.4007464902
 20
18.5271456554
 30
0.0
 11
33.4007464902
 21
18.5153364306
 31
0.0
  0
LINE
  5
5EC
330
1F
100
AcDbEntity
  8
0
  6
Continuous
 62
     7
370
    25
100
AcDbLine
 10
32.9524482578
 20
20.2834756216
 30
0.0
 11
32.9524482578
 21
20.2440935504
 31
0.0
  0
LINE
  5
5ED
330
1F
100
AcDbEntity
  8
0
  6
Continuous
 62
     7
370
    25
100
AcDbLine
 10
32.9524482578
 20
20.2440935504
 30
0.0
 11
32.9130841753
 21
20.2440935504
 31
0.0
  0
LINE
  5
5EE
330
1F
100
AcDbEntity
  8
0
  6
Continuous
 62
   144
370
    18
100
AcDbLine
 10
32.9524482578
 20
20.2834756216
 30
0.0
 11
32.9130841753
 21
20.2834756216
 31
0.0
  0
LINE
  5
5EF
330
1F
100
AcDbEntity
  8
0
  6
Continuous
 62
   144
370
    18
100
AcDbLine
 10
32.9130841753
 20
20.2440935504
 30
0.0
 11
32.9130841753
 21
20.2834756216
 31
0.0
  0
LINE
  5
5F0
330
1F
100
AcDbEntity
  8
0
  6
Continuous
 62
     7
370
    25
100
AcDbLine
 10
32.9524482578
 20
20.3228397041
 30
0.0
 11
32.9524482578
 21
20.2834756216
 31
0.0
  0
ARC
  5
5F1
330
1F
100
AcDbEntity
  8
0
  6
Continuous
 62
   144
370
    18
100
AcDbCircle
 10
32.9524623037
 20
20.2834615757
 30
0.0
 40
0.0393781309038784
100
AcDbArc
 50
90.0204370166
 51
179.9795629835
  0
ELLIPSE
  5
5F2
330
1F
100
AcDbEntity
  8
0
  6
Continuous
 62
     7
370
    25
100
AcDbEllipse
 10
32.873696106
 20
20.2441175372
 30
0.0
 11
-0.05569466056453366
 21
0.05569466056453366
 31
0.0
210
0.0
220
0.0
230
1.0
 40
0.9996954599
 41
2.356346783439994
 42
3.926838523740102
  0
LINE
  5
5F3
330
1F
100
AcDbEntity
  8
0
  6
Continuous
 62
     7
370
    25
100
AcDbLine
 10
32.8737200928
 20
20.1653653854
 30
0.0
 11
32.8737200928
 21
20.2047294679
 31
0.0
  0
ELLIPSE
  5
5F4
330
1F
100
AcDbEntity
  8
0
  6
Continuous
 62
   144
370
    18
100
AcDbEllipse
 10
32.873696106
 20
20.2441175372
 30
0.0
 11
-0.02786428895807802
 21
0.02786428895808513
 31
0.0
210
0.0
220
0.0
230
1.0
 40
0.9990870284
 41
2.356346783440155
 42
3.926838523740692
  0
LINE
  5
5F5
330
1F
100
AcDbEntity
  8
0
  6
Continuous
 62
     7
370
    25
100
AcDbLine
 10
33.7551307473
 20
18.437498038
 30
0.0
 11
33.7551307473
 21
18.4768621205
 31
0.0
  0
LINE
  5
5F6
330
1F
100
AcDbEntity
  8
0
  6
Continuous
 62
     7
370
    25
100
AcDbLine
 10
33.4519120637
 20
18.4768621205
 30
0.0
 11
33.7551307473
 21
18.4768621205
 31
0.0
  0
LINE
  5
5F7
330
1F
100
AcDbEntity
  8
0
  6
Continuous
 62
   144
370
    18
100
AcDbLine
 10
33.4519120637
 20
18.4768621205
 30
0.0
 11
33.4519199324
 21
18.4761777841
 31
0.0
  0
ELLIPSE
  5
5F8
330
1F
100
AcDbEntity
  8
0
  6
Continuous
 62
   144
370
    18
100
AcDbEllipse
 10
33.4528131669
 20
18.4768621205
 30
0.0
 11
0.0
 21
0.03937007874015563
 31
0.0
210
0.0
220
0.0
230
1.0
 40
0.0226915844
 41
1.588179347968144
 42
3.124328257006671
  0
LINE
  5
5F9
330
1F
100
AcDbEntity
  8
0
  6
Continuous
 62
   144
370
    18
100
AcDbLine
 10
33.4725782458
 20
18.4374979089
 30
0.0
 11
33.4527977442
 21
18.4374979089
 31
0.0
  0
LINE
  5
5FA
330
1F
100
AcDbEntity
  8
0
  6
Continuous
 62
   144
370
    18
100
AcDbLine
 10
33.5120985509
 20
18.4374979086
 30
0.0
 11
33.4725782458
 21
18.4374979086
 31
0.0
  0
LINE
  5
5FB
330
1F
100
AcDbEntity
  8
0
  6
Continuous
 62
   144
370
    18
100
AcDbLine
 10
33.7551307473
 20
18.437498038
 30
0.0
 11
33.5120985509
 21
18.437498038
 31
0.0
  0
LINE
  5
5FC
330
1F
100
AcDbEntity
  8
0
  6
Continuous
 62
     7
370
    25
100
AcDbLine
 10
33.6158056269
 20
20.2047294679
 30
0.0
 11
33.6158056269
 21
20.1653653854
 31
0.0
  0
ELLIPSE
  5
5FD
330
1F
100
AcDbEntity
  8
0
  6
Continuous
 62
   144
370
    18
100
AcDbEllipse
 10
33.6158296138
 20
20.2441175372
 30
0.0
 11
0.05569466056453366
 21
0.05569466056453366
 31
0.0
210
0.0
220
0.0
230
1.0
 40
0.9996954599
 41
2.356346783440459
 42
3.926838523739728
  0
LINE
  5
5FE
330
1F
100
AcDbEntity
  8
0
  6
Continuous
 62
     7
370
    25
100
AcDbLine
 10
33.5764415445
 20
20.2440935504
 30
0.0
 11
33.537077462
 21
20.2440935504
 31
0.0
  0
ELLIPSE
  5
5FF
330
1F
100
AcDbEntity
  8
0
  6
Continuous
 62
   144
370
    18
100
AcDbEllipse
 10
33.6158296138
 20
20.2441175372
 30
0.0
 11
0.02786428895807802
 21
0.02786428895808513
 31
0.0
210
0.0
220
0.0
230
1.0
 40
0.9990870284
 41
2.356346783438875
 42
3.926838523739658
  0
LINE
  5
600
330
1F
100
AcDbEntity
  8
0
  6
Continuous
 62
   144
370
    18
100
AcDbLine
 10
33.7551307473
 20
20.1653653854
 30
0.0
 11
33.6158056269
 21
20.1653653854
 31
0.0
  0
LINE
  5
601
330
1F
100
AcDbEntity
  8
0
  6
Continuous
 62
   144
370
    18
100
AcDbLine
 10
33.7551307473
 20
20.2047294679
 30
0.0
 11
33.7551307473
 21
20.1653653854
 31
0.0
  0
LINE
  5
602
330
1F
100
AcDbEntity
  8
0
  6
Continuous
 62
   144
370
    18
100
AcDbLine
 10
33.6158056269
 20
20.2047294679
 30
0.0
 11
33.7551307473
 21
20.2047294679
 31
0.0
  0
LINE
  5
603
330
1F
100
AcDbEntity
  8
0
  6
Continuous
 62
     7
370
    25
100
AcDbLine
 10
32.8737200928
 20
20.1653653854
 30
0.0
 11
32.7359068285
 21
20.1653653854
 31
0.0
  0
LINE
  5
604
330
1F
100
AcDbEntity
  8
0
  6
Continuous
 62
   144
370
    18
100
AcDbLine
 10
32.7359068285
 20
20.2047294679
 30
0.0
 11
32.8737200928
 21
20.2047294679
 31
0.0
  0
LINE
  5
605
330
1F
100
AcDbEntity
  8
0
  6
Continuous
 62
   144
370
    18
100
AcDbLine
 10
32.7359068285
 20
20.1653653854
 30
0.0
 11
32.7359068285
 21
20.2047294679
 31
0.0
  0
ELLIPSE
  5
606
330
1F
100
AcDbEntity
  8
0
  6
Continuous
 62
     7
370
    25
100
AcDbEllipse
 10
32.7359188219
 20
18.5162381964
 30
0.0
 11
-0.02784733028226327
 21
-0.02784733028226682
 31
0.0
210
0.0
220
0.0
230
1.0
 40
0.9996954599
 41
5.497939437030205
 42
7.068431177329666
  0
LINE
  5
607
330
1F
100
AcDbEntity
  8
0
  6
Continuous
 62
     7
370
    25
100
AcDbLine
 10
32.696542746
 20
20.1260013029
 30
0.0
 11
32.696542746
 21
18.516226203
 31
0.0
  0
LINE
  5
608
330
1F
100
AcDbEntity
  8
0
  6
Continuous
 62
   144
370
    18
100
AcDbLine
 10
33.537077462
 20
20.2834756216
 30
0.0
 11
32.9524482578
 21
20.2834756216
 31
0.0
  0
LINE
  5
609
330
1F
100
AcDbEntity
  8
0
  6
Continuous
 62
   144
370
    18
100
AcDbLine
 10
33.537077462
 20
20.2440935504
 30
0.0
 11
33.537077462
 21
20.2834756216
 31
0.0
  0
LINE
  5
60A
330
1F
100
AcDbEntity
  8
0
  6
Continuous
 62
     7
370
    25
100
AcDbLine
 10
33.7944948298
 20
18.516226203
 30
0.0
 11
33.7944948298
 21
20.1260013029
 31
0.0
  0
ELLIPSE
  5
60B
330
1F
100
AcDbEntity
  8
0
  6
Continuous
 62
     7
370
    25
100
AcDbEllipse
 10
33.7551187539
 20
18.5162381964
 30
0.0
 11
0.02784733028226327
 21
-0.02784733028226682
 31
0.0
210
0.0
220
0.0
230
1.0
 40
0.9996954599
 41
5.497939437029732
 42
7.068431177328949
  0
LINE
  5
60C
330
1F
100
AcDbEntity
  8
0
  6
Continuous
 62
     7
370
    25
100
AcDbLine
 10
32.7359068285
 20
18.4768621205
 30
0.0
 11
33.0391255121
 21
18.4768621205
 31
0.0
  0
ELLIPSE
  5
60D
330
1F
100
AcDbEntity
  8
0
  6
Continuous
 62
   144
370
    18
100
AcDbEllipse
 10
33.090306677
 20
18.4759567567
 30
0.0
 11
0.03620152936694154
 21
-0.03620152936694865
 31
0.0
210
0.0
220
0.0
230
1.0
 40
0.9996954599
 41
2.356346783439987
 42
3.909455466397071
  0
LINE
  5
60E
330
1F
100
AcDbEntity
  8
0
  6
Continuous
 62
   144
370
    18
100
AcDbLine
 10
33.0902910856
 20
18.5271456554
 30
0.0
 11
33.4007464902
 21
18.5271456554
 31
0.0
  0
ELLIPSE
  5
60F
330
1F
100
AcDbEntity
  8
0
  6
Continuous
 62
   144
370
    18
100
AcDbEllipse
 10
33.7551187539
 20
20.1259893095
 30
0.0
 11
0.02784733028226327
 21
0.02784733028226682
 31
0.0
210
0.0
220
0.0
230
1.0
 40
0.9996954599
 41
5.497939437030237
 42
7.068431177329454
  0
ELLIPSE
  5
610
330
1F
100
AcDbEntity
  8
0
  6
Continuous
 62
   144
370
    18
100
AcDbEllipse
 10
32.7359188219
 20
20.1259893095
 30
0.0
 11
-0.02784733028226327
 21
0.02784733028226682
 31
0.0
210
0.0
220
0.0
230
1.0
 40
0.9996954599
 41
5.497939437029848
 42
7.068431177329013
  0
LINE
  5
611
330
1F
100
AcDbEntity
  8
0
  6
Continuous
 62
     7
370
    25
100
AcDbLine
 10
32.7359068285
 20
18.437498038
 30
0.0
 11
32.7359068285
 21
18.4768621205
 31
0.0
  0
ELLIPSE
  5
612
330
1F
100
AcDbEntity
  8
0
  6
Continuous
 62
   144
370
    18
100
AcDbEllipse
 10
33.0382244089
 20
18.4768621205
 30
0.0
 11
0.0
 21
0.03937007874015563
 31
0.0
210
0.0
220
0.0
230
1.0
 40
0.0226915844
 41
3.158857050173531
 42
4.695005959211443
  0
LINE
  5
613
330
1F
100
AcDbEntity
  8
0
  6
Continuous
 62
   144
370
    18
100
AcDbLine
 10
33.0391176434
 20
18.4761777841
 30
0.0
 11
33.0391255121
 21
18.4768621205
 31
0.0
  0
LINE
  5
614
330
1F
100
AcDbEntity
  8
0
  6
Continuous
 62
   144
370
    18
100
AcDbLine
 10
33.0183253002
 20
18.437498038
 30
0.0
 11
32.7359068285
 21
18.437498038
 31
0.0
  0
LINE
  5
615
330
1F
100
AcDbEntity
  8
0
  6
Continuous
 62
   144
370
    18
100
AcDbLine
 10
33.0183253002
 20
18.4374979089
 30
0.0
 11
33.0382398316
 21
18.4374979089
 31
0.0
  0
LINE
  5
616
330
1F
100
AcDbEntity
  8
0
  6
Continuous
 62
   144
370
    18
100
AcDbLine
 10
33.5764415445
 20
20.2834756216
 30
0.0
 11
33.537077462
 21
20.2834756216
 31
0.0
  0
LINE
  5
617
330
1F
100
AcDbEntity
  8
0
  6
Continuous
 62
   144
370
    18
100
AcDbLine
 10
33.5764415445
 20
20.2834756216
 30
0.0
 11
33.5764415445
 21
20.2440935504
 31
0.0
  0
LINE
  5
618
330
1F
100
AcDbEntity
  8
0
  6
Continuous
 62
     7
370
    25
100
AcDbLine
 10
32.696542746
 20
18.516226203
 30
0.0
 11
32.6571786635
 21
18.516226203
 31
0.0
  0
ARC
  5
619
330
1F
100
AcDbEntity
  8
0
  6
Continuous
 62
   144
370
    18
100
AcDbCircle
 10
32.7359188219
 20
18.5162381964
 30
0.0
 40
0.0787401593071044
100
AcDbArc
 50
180.0087270892
 51
269.9912729108
  0
LINE
  5
61A
330
1F
100
AcDbEntity
  8
0
  6
Continuous
 62
     7
370
    25
100
AcDbLine
 10
33.8338589123
 20
18.516226203
 30
0.0
 11
33.7944948298
 21
18.516226203
 31
0.0
  0
LINE
  5
61B
330
1F
100
AcDbEntity
  8
0
  6
Continuous
 62
   144
370
    18
100
AcDbLine
 10
33.8338589123
 20
20.1260013029
 30
0.0
 11
33.8338589123
 21
18.516226203
 31
0.0
  0
LINE
  5
61C
330
1F
100
AcDbEntity
  8
0
  6
Continuous
 62
   144
370
    18
100
AcDbLine
 10
33.8338589123
 20
20.1260013029
 30
0.0
 11
33.7944948298
 21
20.1260013029
 31
0.0
  0
LINE
  5
61D
330
1F
100
AcDbEntity
  8
0
  6
Continuous
 62
   144
370
    18
100
AcDbLine
 10
32.6571786635
 20
18.516226203
 30
0.0
 11
32.6571786635
 21
20.1260013029
 31
0.0
  0
LINE
  5
61E
330
1F
100
AcDbEntity
  8
0
  6
Continuous
 62
   144
370
    18
100
AcDbLine
 10
32.696542746
 20
20.1260013029
 30
0.0
 11
32.6571786635
 21
20.1260013029
 31
0.0
  0
LINE
  5
61F
330
1F
100
AcDbEntity
  8
0
  6
Continuous
 62
     7
370
    25
100
AcDbLine
 10
32.9524482578
 20
20.3228397041
 30
0.0
 11
33.537077462
 21
20.3228397041
 31
0.0
  0
LINE
  5
620
330
1F
100
AcDbEntity
  8
0
  6
Continuous
 62
   144
370
    18
100
AcDbLine
 10
33.537077462
 20
20.2834756216
 30
0.0
 11
33.537077462
 21
20.3228397041
 31
0.0
  0
ARC
  5
621
330
1F
100
AcDbEntity
  8
0
  6
Continuous
 62
   144
370
    18
100
AcDbCircle
 10
33.7551187539
 20
18.5162381964
 30
0.0
 40
0.0787401593071115
100
AcDbArc
 50
270.0087270892
 51
359.9912729108
  0
ARC
  5
622
330
1F
100
AcDbEntity
  8
0
  6
Continuous
 62
   144
370
    18
100
AcDbCircle
 10
32.7359188219
 20
20.1259893095
 30
0.0
 40
0.0787401593071115
100
AcDbArc
 50
90.0087270892
 51
179.9912729108
  0
LINE
  5
623
330
1F
100
AcDbEntity
  8
0
  6
Continuous
 62
   144
370
    18
100
AcDbLine
 10
32.7358948645
 20
20.2047414319
 30
0.0
 11
32.7359068285
 21
20.2047294679
 31
0.0
  0
LINE
  5
624
330
1F
100
AcDbEntity
  8
0
  6
Continuous
 62
   144
370
    18
100
AcDbLine
 10
32.9517490571
 20
20.3235389048
 30
0.0
 11
33.5377766627
 21
20.3235389048
 31
0.0
  0
LINE
  5
625
330
1F
100
AcDbEntity
  8
0
  6
Continuous
 62
   144
370
    18
100
AcDbLine
 10
32.9517490571
 20
20.3235389048
 30
0.0
 11
32.9524482578
 21
20.3228397041
 31
0.0
  0
LINE
  5
626
330
1F
100
AcDbEntity
  8
0
  6
Continuous
 62
   144
370
    18
100
AcDbLine
 10
33.537077462
 20
20.3228397041
 30
0.0
 11
33.5377766627
 21
20.3235389048
 31
0.0
  0
LINE
  5
627
330
1F
100
AcDbEntity
  8
0
  6
Continuous
 62
   144
370
    18
100
AcDbLine
 10
33.834558113
 20
20.1267005036
 30
0.0
 11
33.834558113
 21
18.5155270023
 31
0.0
  0
LINE
  5
628
330
1F
100
AcDbEntity
  8
0
  6
Continuous
 62
   144
370
    18
100
AcDbLine
 10
33.8338708763
 20
20.1260132669
 30
0.0
 11
33.8338589123
 21
20.1260013029
 31
0.0
  0
LINE
  5
629
330
1F
100
AcDbEntity
  8
0
  6
Continuous
 62
   144
370
    18
100
AcDbLine
 10
33.8338589123
 20
18.516226203
 30
0.0
 11
33.8338708763
 21
18.516214239
 31
0.0
  0
LINE
  5
62A
330
1F
100
AcDbEntity
  8
0
  6
Continuous
 62
   144
370
    18
100
AcDbLine
 10
32.6564794628
 20
18.5155270023
 30
0.0
 11
32.6564794628
 21
20.1267005036
 31
0.0
  0
LINE
  5
62B
330
1F
100
AcDbEntity
  8
0
  6
Continuous
 62
   144
370
    18
100
AcDbLine
 10
32.6571666995
 20
18.516214239
 30
0.0
 11
32.6571786635
 21
18.516226203
 31
0.0
  0
LINE
  5
62C
330
1F
100
AcDbEntity
  8
0
  6
Continuous
 62
     7
370
    25
100
AcDbLine
 10
33.4007368955
 20
18.4956447947
 30
0.0
 11
33.0903006803
 21
18.4956447947
 31
0.0
  0
ELLIPSE
  5
62D
330
1F
100
AcDbEntity
  8
0
  6
Continuous
 62
     7
370
    25
100
AcDbEllipse
 10
33.4007308988
 20
18.2802058958
 30
0.0
 11
0.01392366514112808
 21
-0.01392366514113519
 31
0.0
210
0.0
220
0.0
230
1.0
 40
0.9996954599
 41
5.497939437030072
 42
7.068431177329263
  0
LINE
  5
62E
330
1F
100
AcDbEntity
  8
0
  6
Continuous
 62
     7
370
    25
100
AcDbLine
 10
33.0903006803
 20
18.2605178579
 30
0.0
 11
33.4007368955
 21
18.2605178579
 31
0.0
  0
LINE
  5
62F
330
1F
100
AcDbEntity
  8
0
  6
Continuous
 62
   144
370
    18
100
AcDbLine
 10
33.4204189367
 20
18.2801998991
 30
0.0
 11
33.4204189367
 21
18.4759627534
 31
0.0
  0
ELLIPSE
  5
630
330
1F
100
AcDbEntity
  8
0
  6
Continuous
 62
   144
370
    18
100
AcDbEllipse
 10
33.4007308988
 20
18.4759567567
 30
0.0
 11
-0.01392366514113519
 21
-0.01392366514113519
 31
0.0
210
0.0
220
0.0
230
1.0
 40
0.9996954599
 41
2.356346783440424
 42
3.926838523739717
  0
ELLIPSE
  5
631
330
1F
100
AcDbEntity
  8
0
  6
Continuous
 62
   144
370
    18
100
AcDbEllipse
 10
33.090306677
 20
18.4759567567
 30
0.0
 11
0.01392366514112808
 21
-0.01392366514113519
 31
0.0
210
0.0
220
0.0
230
1.0
 40
0.9996954599
 41
2.356346783440202
 42
3.926838523739367
  0
LINE
  5
632
330
1F
100
AcDbEntity
  8
0
  6
Continuous
 62
   144
370
    18
100
AcDbLine
 10
33.0706186391
 20
18.4759627534
 30
0.0
 11
33.0706186391
 21
18.2801998991
 31
0.0
  0
ELLIPSE
  5
633
330
1F
100
AcDbEntity
  8
0
  6
Continuous
 62
   144
370
    18
100
AcDbEllipse
 10
33.090306677
 20
18.2802058958
 30
0.0
 11
-0.01392366514113519
 21
-0.01392366514113519
 31
0.0
210
0.0
220
0.0
230
1.0
 40
0.9996954599
 41
5.497939437029987
 42
7.068431177329559
  0
LINE
  5
634
330
1F
100
AcDbEntity
  8
0
  6
Continuous
 62
   144
370
    18
100
AcDbLine
 10
33.0903006803
 20
18.5153268359
 30
0.0
 11
33.0903006803
 21
18.4956447947
 31
0.0
  0
LINE
  5
635
330
1F
100
AcDbEntity
  8
0
  6
Continuous
 62
   144
370
    18
100
AcDbLine
 10
33.4007368955
 20
18.4956447947
 30
0.0
 11
33.4007368955
 21
18.5153268359
 31
0.0
  0
LINE
  5
636
330
1F
100
AcDbEntity
  8
0
  6
Continuous
 62
   144
370
    18
100
AcDbLine
 10
33.0903006803
 20
18.5153268359
 30
0.0
 11
33.4007368955
 21
18.5153268359
 31
0.0
  0
LINE
  5
637
330
1F
100
AcDbEntity
  8
0
  6
Continuous
 62
     7
370
    25
100
AcDbLine
 10
33.4007368955
 20
18.2408358166
 30
0.0
 11
33.0903006803
 21
18.2408358166
 31
0.0
  0
LINE
  5
638
330
1F
100
AcDbEntity
  8
0
  6
Continuous
 62
     7
370
    25
100
AcDbLine
 10
33.4007368955
 20
18.2408358166
 30
0.0
 11
33.4007368955
 21
18.2605178579
 31
0.0
  0
LINE
  5
639
330
1F
100
AcDbEntity
  8
0
  6
Continuous
 62
   144
370
    18
100
AcDbLine
 10
33.0903006803
 20
18.2408358166
 30
0.0
 11
33.0903006803
 21
18.2605178579
 31
0.0
  0
ARC
  5
63A
330
1F
100
AcDbEntity
  8
0
  6
Continuous
 62
   144
370
    18
100
AcDbCircle
 10
33.4007308988
 20
18.2802058958
 30
0.0
 40
0.0393700796535558
100
AcDbArc
 50
270.0087270892
 51
359.9912729108
  0
LINE
  5
63B
330
1F
100
AcDbEntity
  8
0
  6
Continuous
 62
   144
370
    18
100
AcDbLine
 10
33.4204189367
 20
18.2801998991
 30
0.0
 11
33.440100978
 21
18.2801998991
 31
0.0
  0
LINE
  5
63C
330
1F
100
AcDbEntity
  8
0
  6
Continuous
 62
     7
370
    25
100
AcDbLine
 10
33.4016242685
 20
18.2399484436
 30
0.0
 11
33.4007368955
 21
18.2408358166
 31
0.0
  0
LINE
  5
63D
330
1F
100
AcDbEntity
  8
0
  6
Continuous
 62
     7
370
    25
100
AcDbLine
 10
33.440100978
 20
18.2801998991
 30
0.0
 11
33.440988351
 21
18.2793127135
 31
0.0
  0
ELLIPSE
  5
63E
330
1F
100
AcDbEntity
  8
0
  6
Continuous
 62
   144
370
    18
100
AcDbEllipse
 10
33.4016122751
 20
18.2793245195
 30
0.0
 11
0.02784733028227038
 21
-0.02784733028226682
 31
0.0
210
0.0
220
0.0
230
1.0
 40
0.9996954599
 41
5.497939437029626
 42
7.068435936586465
  0
LINE
  5
63F
330
1F
100
AcDbEntity
  8
0
  6
Continuous
 62
   144
370
    18
100
AcDbLine
 10
33.0903006803
 20
18.2408358166
 30
0.0
 11
33.0894133073
 21
18.2399484436
 31
0.0
  0
LINE
  5
640
330
1F
100
AcDbEntity
  8
0
  6
Continuous
 62
   144
370
    18
100
AcDbLine
 10
33.4016242685
 20
18.2399484436
 30
0.0
 11
33.0894133073
 21
18.2399484436
 31
0.0
  0
LINE
  5
641
330
1F
100
AcDbEntity
  8
0
  6
Continuous
 62
   144
370
    18
100
AcDbLine
 10
33.440988351
 20
18.425688813
 30
0.0
 11
33.440988351
 21
18.2793127135
 31
0.0
  0
ELLIPSE
  5
642
330
1F
100
AcDbEntity
  8
0
  6
Continuous
 62
   144
370
    18
100
AcDbEllipse
 10
33.4410039422
 20
18.4768621205
 30
0.0
 11
0.0
 21
0.05118110236220375
 31
0.0
210
0.0
220
0.0
230
1.0
 40
0.0174550649
 41
1.588179347966944
 42
3.124139673757864
  0
LINE
  5
643
330
1F
100
AcDbEntity
  8
0
  6
Continuous
 62
   144
370
    18
100
AcDbLine
 10
33.4401107077
 20
18.4759724831
 30
0.0
 11
33.440100978
 21
18.4759627534
 31
0.0
  0
LINE
  5
644
330
1F
100
AcDbEntity
  8
0
  6
Continuous
 62
   144
370
    18
100
AcDbLine
 10
33.440100978
 20
18.4759627534
 30
0.0
 11
33.440100978
 21
18.2801998991
 31
0.0
  0
LINE
  5
645
330
1F
100
AcDbEntity
  8
0
  6
Continuous
 62
   144
370
    18
100
AcDbLine
 10
33.0509365978
 20
18.2801998991
 30
0.0
 11
33.0509365978
 21
18.4759627534
 31
0.0
  0
LINE
  5
646
330
1F
100
AcDbEntity
  8
0
  6
Continuous
 62
   144
370
    18
100
AcDbLine
 10
33.0500492248
 20
18.2793127135
 30
0.0
 11
33.0509365978
 21
18.2801998991
 31
0.0
  0
LINE
  5
647
330
1F
100
AcDbEntity
  8
0
  6
Continuous
 62
   144
370
    18
100
AcDbLine
 10
33.0500492248
 20
18.2793127135
 30
0.0
 11
33.0500492248
 21
18.425688813
 31
0.0
  0
ELLIPSE
  5
648
330
1F
100
AcDbEntity
  8
0
  6
Continuous
 62
   144
370
    18
100
AcDbEllipse
 10
33.0500336336
 20
18.4768621205
 30
0.0
 11
0.0
 21
0.05118110236220375
 31
0.0
210
0.0
220
0.0
230
1.0
 40
0.0174550649
 41
3.159045633422522
 42
4.695005959212505
  0
LINE
  5
649
330
1F
100
AcDbEntity
  8
0
  6
Continuous
 62
   144
370
    18
100
AcDbLine
 10
33.0509365978
 20
18.4759627534
 30
0.0
 11
33.0509268681
 21
18.4759724831
 31
0.0
  0
CIRCLE
  5
64A
330
1F
100
AcDbEntity
  8
0
  6
Continuous
 62
     7
370
    25
100
AcDbCircle
 10
33.2455187879
 20
20.6844995797
 30
0.0
 40
0.0688988372286943
  0
CIRCLE
  5
64B
330
1F
100
AcDbEntity
  8
0
  6
Continuous
 62
   144
370
    18
100
AcDbCircle
 10
33.2455187879
 20
20.6844995797
 30
0.0
 40
0.0641571069922833
  0
LINE
  5
64C
330
1F
100
AcDbEntity
  8
0
  6
Continuous
 62
   144
370
    18
100
AcDbLine
 10
33.3490090846
 20
23.2648798994
 30
0.0
 11
35.4378277585
 21
23.2648798994
 31
0.0
  0
LINE
  5
64D
330
1F
100
AcDbEntity
  8
0
  6
Continuous
 62
   144
370
    18
100
AcDbLine
 10
33.1027290231
 20
22.9696275489
 30
0.0
 11
33.1082967963
 21
22.9696275489
 31
0.0
  0
LINE
  5
64E
330
1F
100
AcDbEntity
  8
0
  6
Continuous
 62
     7
370
    25
100
AcDbLine
 10
35.8650837759
 20
17.0050611478
 30
0.0
 11
35.8650837759
 21
17.0444312266
 31
0.0
  0
LINE
  5
64F
330
1F
100
AcDbEntity
  8
0
  6
Continuous
 62
     7
370
    25
100
AcDbLine
 10
35.8650837759
 20
22.9105721946
 30
0.0
 11
35.8650837759
 21
17.0444312266
 31
0.0
  0
LINE
  5
650
330
1F
100
AcDbEntity
  8
0
  6
Continuous
 62
     7
370
    25
100
AcDbLine
 10
7.5579971617
 20
17.0444312266
 30
0.0
 11
7.5579971617
 21
22.9105721945
 31
0.0
  0
LINE
  5
651
330
1F
100
AcDbEntity
  8
0
  6
Continuous
 62
     7
370
    25
100
AcDbLine
 10
7.5579971617
 20
17.0444312266
 30
0.0
 11
7.5579971617
 21
17.0050611478
 31
0.0
  0
ARC
  5
652
330
1F
100
AcDbEntity
  8
0
  6
Continuous
 62
   144
370
    18
100
AcDbCircle
 10
34.3645944405
 20
20.8436433102
 30
0.0
 40
0.0902074468129541
100
AcDbArc
 50
0.0
 51
180.0
  0
LINE
  5
653
330
1F
100
AcDbEntity
  8
0
  6
Continuous
 62
     7
370
    25
100
AcDbLine
 10
34.4548018873
 20
20.8436433102
 30
0.0
 11
34.2743869937
 21
20.8436433102
 31
0.0
  0
ARC
  5
654
330
1F
100
AcDbEntity
  8
0
  6
Continuous
 62
     7
370
    25
100
AcDbCircle
 10
34.3645944405
 20
18.1861629952
 30
0.0
 40
0.0902074468129399
100
AcDbArc
 50
180.0
 51
0.0
  0
LINE
  5
655
330
1F
100
AcDbEntity
  8
0
  6
Continuous
 62
     7
370
    25
100
AcDbLine
 10
34.4548018873
 20
18.1861629952
 30
0.0
 11
34.2743869937
 21
18.1861629952
 31
0.0
  0
ARC
  5
656
330
1F
100
AcDbEntity
  8
0
  6
Continuous
 62
     7
370
    25
100
AcDbCircle
 10
32.1264431353
 20
18.1861629952
 30
0.0
 40
0.090207446813146
100
AcDbArc
 50
180.0
 51
0.0
  0
LINE
  5
657
330
1F
100
AcDbEntity
  8
0
  6
Continuous
 62
     7
370
    25
100
AcDbLine
 10
32.2166505821
 20
18.1861629952
 30
0.0
 11
32.0362356885
 21
18.1861629952
 31
0.0
  0
LINE
  5
658
330
1F
100
AcDbEntity
  8
0
  6
Continuous
 62
   144
370
    18
100
AcDbLine
 10
34.4548018873
 20
18.1861629952
 30
0.0
 11
34.4548018873
 21
20.8436433102
 31
0.0
  0
LINE
  5
659
330
1F
100
AcDbEntity
  8
0
  6
Continuous
 62
     7
370
    25
100
AcDbLine
 10
34.2743869937
 20
20.8436433102
 30
0.0
 11
34.2743869937
 21
18.1861629952
 31
0.0
  0
ARC
  5
65A
330
1F
100
AcDbEntity
  8
0
  6
Continuous
 62
     7
370
    25
100
AcDbCircle
 10
32.1264431353
 20
20.8436433102
 30
0.0
 40
0.090207446813146
100
AcDbArc
 50
0.0
 51
180.0
  0
LINE
  5
65B
330
1F
100
AcDbEntity
  8
0
  6
Continuous
 62
     7
370
    25
100
AcDbLine
 10
32.2166505821
 20
20.8436433102
 30
0.0
 11
32.0362356885
 21
20.8436433102
 31
0.0
  0
LINE
  5
65C
330
1F
100
AcDbEntity
  8
0
  6
Continuous
 62
     7
370
    25
100
AcDbLine
 10
32.2166505821
 20
18.1861629952
 30
0.0
 11
32.2166505821
 21
20.8436433102
 31
0.0
  0
LINE
  5
65D
330
1F
100
AcDbEntity
  8
0
  6
Continuous
 62
     7
370
    25
100
AcDbLine
 10
32.0362356885
 20
20.8436433102
 30
0.0
 11
32.0362356885
 21
18.1861629952
 31
0.0
  0
CIRCLE
  5
65E
330
1F
100
AcDbEntity
  8
0
  6
Continuous
 62
     7
370
    25
100
AcDbCircle
 10
24.6662476235
 20
19.2492271685
 30
0.0
 40
0.8357449630455882
  0
LINE
  5
65F
330
1F
100
AcDbEntity
  8
0
  6
Continuous
 62
     7
370
    25
100
AcDbLine
 10
7.5579971617
 20
17.0444312266
 30
0.0
 11
35.8650837759
 21
17.0444312266
 31
0.0
  0
CIRCLE
  5
660
330
1F
100
AcDbEntity
  8
0
  6
Continuous
 62
     7
370
    25
100
AcDbCircle
 10
33.2455187879
 20
20.6844995797
 30
0.0
 40
0.2559058092231439
  0
CIRCLE
  5
661
330
1F
100
AcDbEntity
  8
0
  6
Continuous
 62
     7
370
    25
100
AcDbCircle
 10
35.628862691
 20
22.3495490728
 30
0.0
 40
0.0669291338582667
  0
CIRCLE
  5
662
330
1F
100
AcDbEntity
  8
0
  6
Continuous
 62
     7
370
    25
100
AcDbCircle
 10
35.628862691
 20
17.9401002539
 30
0.0
 40
0.0669291338582667
  0
CIRCLE
  5
663
330
1F
100
AcDbEntity
  8
0
  6
Continuous
 62
     7
370
    25
100
AcDbCircle
 10
7.7942182465
 20
22.3495490728
 30
0.0
 40
0.0669291338582667
  0
CIRCLE
  5
664
330
1F
100
AcDbEntity
  8
0
  6
Continuous
 62
     7
370
    25
100
AcDbCircle
 10
7.7942182465
 20
17.9401002539
 30
0.0
 40
0.0669291338582667
  0
CIRCLE
  5
665
330
1F
100
AcDbEntity
  8
0
  6
Continuous
 62
     7
370
    25
100
AcDbCircle
 10
7.7942182465
 20
20.1448246633
 30
0.0
 40
0.0669291338582667
  0
LINE
  5
666
330
1F
100
AcDbEntity
  8
0
  6
Continuous
 62
   144
370
    18
100
AcDbLine
 10
8.8945691791
 20
22.7366105057
 30
0.0
 11
24.7253621577
 21
22.7366102567
 31
0.0
  0
ARC
  5
667
330
1F
100
AcDbEntity
  8
0
  6
Continuous
 62
     7
370
    25
100
AcDbCircle
 10
8.8844051405
 20
22.3518809688
 30
0.0
 40
0.3848637735675174
100
AcDbArc
 50
88.486674317
 51
181.513323574
  0
LINE
  5
668
330
1F
100
AcDbEntity
  8
0
  6
Continuous
 62
     7
370
    25
100
AcDbLine
 10
8.4996755805
 20
20.8613174436
 30
0.0
 11
8.4996756033
 21
22.3417169443
 31
0.0
  0
ARC
  5
669
330
1F
100
AcDbEntity
  8
0
  6
Continuous
 62
     7
370
    25
100
AcDbCircle
 10
8.8844051131
 20
20.8511534029
 30
0.0
 40
0.3848637693597826
100
AcDbArc
 50
178.4866739929
 51
271.5133251279
  0
LINE
  5
66A
330
1F
100
AcDbEntity
  8
0
  6
Continuous
 62
     7
370
    25
100
AcDbLine
 10
24.7253621265
 20
20.4664238702
 30
0.0
 11
8.8945691479
 21
20.4664238702
 31
0.0
  0
ARC
  5
66B
330
1F
100
AcDbEntity
  8
0
  6
Continuous
 62
     7
370
    25
100
AcDbCircle
 10
24.7355803789
 20
20.8510991849
 30
0.0
 40
0.3848110061582333
100
AcDbArc
 50
268.4783918434
 51
1.5216072774
  0
LINE
  5
66C
330
1F
100
AcDbEntity
  8
0
  6
Continuous
 62
     7
370
    25
100
AcDbLine
 10
25.120255719
 20
22.3417166833
 30
0.0
 11
25.1202556939
 21
20.8613174315
 31
0.0
  0
ARC
  5
66D
330
1F
100
AcDbEntity
  8
0
  6
Continuous
 62
     7
370
    25
100
AcDbCircle
 10
24.7355804047
 20
22.3519349421
 30
0.0
 40
0.3848110058761431
100
AcDbArc
 50
358.4783908959
 51
91.5216073457
  0
CIRCLE
  5
66E
330
1F
100
AcDbEntity
  8
0
  6
Continuous
 62
   144
370
    18
100
AcDbCircle
 10
35.628862691
 20
20.1448246633
 30
0.0
 40
0.0669291338582667
  0
LINE
  5
66F
330
1F
100
AcDbEntity
  8
0
  6
Continuous
 62
   144
370
    18
100
AcDbLine
 10
33.8384889123
 20
20.1260013029
 30
0.0
 11
33.8384889068
 21
18.5162262026
 31
0.0
  0
ARC
  5
670
330
1F
100
AcDbEntity
  8
0
  6
Continuous
 62
   144
370
    18
100
AcDbCircle
 10
33.7551789637
 20
18.5161779811
 30
0.0
 40
0.0833099570879
100
AcDbArc
 50
269.9668357996
 51
0.0331639092
  0
LINE
  5
671
330
1F
100
AcDbEntity
  8
0
  6
Continuous
 62
   144
370
    18
100
AcDbLine
 10
33.7551307419
 20
18.432868038
 30
0.0
 11
33.4405474243
 21
18.432868038
 31
0.0
  0
LINE
  5
672
330
1F
100
AcDbEntity
  8
0
  6
Continuous
 62
   144
370
    18
100
AcDbLine
 10
33.440100978
 20
18.4328680428
 30
0.0
 11
33.4204189367
 21
18.4328680431
 31
0.0
  0
LINE
  5
673
330
1F
100
AcDbEntity
  8
0
  6
Continuous
 62
   144
370
    18
100
AcDbLine
 10
33.0706186391
 20
18.4328680383
 30
0.0
 11
33.0509365978
 21
18.4328680386
 31
0.0
  0
LINE
  5
674
330
1F
100
AcDbEntity
  8
0
  6
Continuous
 62
   144
370
    18
100
AcDbLine
 10
33.0504901515
 20
18.432868038
 30
0.0
 11
32.7359068281
 21
18.4328680434
 31
0.0
  0
ARC
  5
675
330
1F
100
AcDbEntity
  8
0
  6
Continuous
 62
   144
370
    18
100
AcDbCircle
 10
32.7358586066
 20
18.5161779866
 30
0.0
 40
0.0833099570826227
100
AcDbArc
 50
179.9668401707
 51
270.0331639103
  0
LINE
  5
676
330
1F
100
AcDbEntity
  8
0
  6
Continuous
 62
   144
370
    18
100
AcDbLine
 10
32.6525486635
 20
18.5162262021
 30
0.0
 11
32.652548669
 21
20.1260013033
 31
0.0
  0
ARC
  5
677
330
1F
100
AcDbEntity
  8
0
  6
Continuous
 62
   144
370
    18
100
AcDbCircle
 10
32.7358586121
 20
20.1260495247
 30
0.0
 40
0.0833099570833783
100
AcDbArc
 50
89.9668395359
 51
180.0331639101
  0
LINE
  5
678
330
1F
100
AcDbEntity
  8
0
  6
Continuous
 62
   144
370
    18
100
AcDbLine
 10
32.7359068285
 20
20.2093594679
 30
0.0
 11
32.8737200974
 21
20.2093594624
 31
0.0
  0
ARC
  5
679
330
1F
100
AcDbEntity
  8
0
  6
Continuous
 62
   144
370
    18
100
AcDbCircle
 10
32.8737141261
 20
20.2440995117
 30
0.0
 40
0.0347400497814324
100
AcDbArc
 50
270.009848291
 51
359.9901591586
  0
LINE
  5
67A
330
1F
100
AcDbEntity
  8
0
  6
Continuous
 62
   144
370
    18
100
AcDbLine
 10
32.9084541753
 20
20.2440935449
 30
0.0
 11
32.90845418
 21
20.2834756049
 31
0.0
  0
ARC
  5
67B
330
1F
100
AcDbEntity
  8
0
  6
Continuous
 62
   144
370
    18
100
AcDbCircle
 10
32.9521037108
 20
20.2838201731
 30
0.0
 40
0.0436508907856184
100
AcDbArc
 50
89.5477458908
 51
180.4522819494
  0
LINE
  5
67C
330
1F
100
AcDbEntity
  8
0
  6
Continuous
 62
   144
370
    18
100
AcDbLine
 10
32.9524482578
 20
20.3274697041
 30
0.0
 11
33.5370774453
 21
20.3274696994
 31
0.0
  0
ARC
  5
67D
330
1F
100
AcDbEntity
  8
0
  6
Continuous
 62
   144
370
    18
100
AcDbCircle
 10
33.5374220135
 20
20.2838201686
 30
0.0
 40
0.0436508907856503
100
AcDbArc
 50
359.5477458908
 51
90.4522819494
  0
LINE
  5
67E
330
1F
100
AcDbEntity
  8
0
  6
Continuous
 62
   144
370
    18
100
AcDbLine
 10
33.5810715445
 20
20.2834756216
 30
0.0
 11
33.581071539
 21
20.2440935459
 31
0.0
  0
ARC
  5
67F
330
1F
100
AcDbEntity
  8
0
  6
Continuous
 62
   144
370
    18
100
AcDbCircle
 10
33.6158115883
 20
20.2440995171
 30
0.0
 40
0.0347400497816314
100
AcDbArc
 50
180.0098482912
 51
269.9901591584
  0
LINE
  5
680
330
1F
100
AcDbEntity
  8
0
  6
Continuous
 62
   144
370
    18
100
AcDbLine
 10
33.6158056215
 20
20.2093594679
 30
0.0
 11
33.7551307477
 21
20.2093594624
 31
0.0
  0
ARC
  5
681
330
1F
100
AcDbEntity
  8
0
  6
Continuous
 62
   144
370
    18
100
AcDbCircle
 10
33.7551789692
 20
20.1260495193
 30
0.0
 40
0.0833099570834351
100
AcDbArc
 50
359.966839536
 51
90.0331639101
  0
LINE
  5
682
330
1F
100
AcDbEntity
  8
0
  6
Continuous
 62
     7
370
    25
100
AcDbLine
 10
35.8650837759
 20
17.0050611478
 30
0.0
 11
7.5579971617
 21
17.0050611478
 31
0.0
  0
LINE
  5
683
330
1F
100
AcDbEntity
  8
0
  6
Continuous
 62
     7
370
    25
100
AcDbLine
 10
8.5583650527
 20
22.3417169434
 30
0.0
 11
8.5583650288
 21
20.8613174427
 31
0.0
  0
LINE
  5
684
330
1F
100
AcDbEntity
  8
0
  6
Continuous
 62
     7
370
    25
100
AcDbLine
 10
8.5583650288
 20
20.8613174427
 30
0.0
 11
8.4996755805
 21
20.8613174436
 31
0.0
  0
LINE
  5
685
330
1F
100
AcDbEntity
  8
0
  6
Continuous
 62
     7
370
    25
100
AcDbLine
 10
8.4996756033
 20
22.3417169443
 30
0.0
 11
8.5583650527
 21
22.3417169434
 31
0.0
  0
LINE
  5
686
330
1F
100
AcDbEntity
  8
0
  6
Continuous
 62
   144
370
    18
100
AcDbLine
 10
24.7253621577
 20
22.7366102567
 30
0.0
 11
24.7253621568
 21
22.6779208085
 31
0.0
  0
LINE
  5
687
330
1F
100
AcDbEntity
  8
0
  6
Continuous
 62
   144
370
    18
100
AcDbLine
 10
24.7253621568
 20
22.6779208085
 30
0.0
 11
8.8945691782
 21
22.6779210544
 31
0.0
  0
LINE
  5
688
330
1F
100
AcDbEntity
  8
0
  6
Continuous
 62
     7
370
    25
100
AcDbLine
 10
8.8945691791
 20
22.7366105057
 30
0.0
 11
8.8945691782
 21
22.6779210544
 31
0.0
  0
ARC
  5
689
330
1F
100
AcDbEntity
  8
0
  6
Continuous
 62
     7
370
    25
100
AcDbCircle
 10
8.8854248983
 20
20.8521731881
 30
0.0
 40
0.3271876765135748
100
AcDbArc
 50
178.3984866656
 51
271.601512455
  0
LINE
  5
68A
330
1F
100
AcDbEntity
  8
0
  6
Continuous
 62
     7
370
    25
100
AcDbLine
 10
8.8945691479
 20
20.5251133184
 30
0.0
 11
8.8945691479
 21
20.4664238702
 31
0.0
  0
ARC
  5
68B
330
1F
100
AcDbEntity
  8
0
  6
Continuous
 62
     7
370
    25
100
AcDbCircle
 10
8.8854249165
 20
22.350861191
 30
0.0
 40
0.3271876705753058
100
AcDbArc
 50
88.3984853942
 51
181.6015121266
  0
LINE
  5
68C
330
1F
100
AcDbEntity
  8
0
  6
Continuous
 62
     7
370
    25
100
AcDbLine
 10
8.8945691479
 20
20.5251133184
 30
0.0
 11
24.7253621265
 21
20.5251133184
 31
0.0
  0
LINE
  5
68D
330
1F
100
AcDbEntity
  8
0
  6
Continuous
 62
     7
370
    25
100
AcDbLine
 10
24.7253621265
 20
20.5251133184
 30
0.0
 11
24.7253621265
 21
20.4664238702
 31
0.0
  0
ARC
  5
68E
330
1F
100
AcDbEntity
  8
0
  6
Continuous
 62
     7
370
    25
100
AcDbCircle
 10
24.7345124181
 20
20.8521671458
 30
0.0
 40
0.3271818055202464
100
AcDbArc
 50
268.3974003174
 51
1.6025988031
  0
LINE
  5
68F
330
1F
100
AcDbEntity
  8
0
  6
Continuous
 62
     7
370
    25
100
AcDbLine
 10
25.0615662456
 20
20.8613174324
 30
0.0
 11
25.1202556939
 21
20.8613174315
 31
0.0
  0
LINE
  5
690
330
1F
100
AcDbEntity
  8
0
  6
Continuous
 62
     7
370
    25
100
AcDbLine
 10
25.120255719
 20
22.3417166833
 30
0.0
 11
25.0615662695
 21
22.3417166842
 31
0.0
  0
ARC
  5
691
330
1F
100
AcDbEntity
  8
0
  6
Continuous
 62
     7
370
    25
100
AcDbCircle
 10
24.7345124459
 20
22.3508669845
 30
0.0
 40
0.3271818020018007
100
AcDbArc
 50
358.3973987673
 51
91.6025992685
  0
LINE
  5
692
330
1F
100
AcDbEntity
  8
0
  6
Continuous
 62
     7
370
    25
100
AcDbLine
 10
25.0615662456
 20
20.8613174324
 30
0.0
 11
25.0615662695
 21
22.3417166842
 31
0.0
  0
CIRCLE
  5
693
330
1F
100
AcDbEntity
  8
0
  6
Continuous
 62
     7
370
    25
100
AcDbCircle
 10
24.6662476235
 20
19.2492271685
 30
0.0
 40
0.5851953161684591
  0
CIRCLE
  5
694
330
1F
100
AcDbEntity
  8
0
  6
Continuous
 62
     7
370
    25
100
AcDbCircle
 10
33.2455187879
 20
20.6844995797
 30
0.0
 40
0.2373450271399733
  0
ELLIPSE
  5
695
330
1F
100
AcDbEntity
  8
0
  6
Continuous
 62
   144
370
    18
100
AcDbEllipse
 10
24.623075685
 20
22.2394302259
 30
0.0
 11
0.3234582082144116
 21
0.3234581982877529
 31
-1.776356839400250E-15
210
2.745883160178828E-15
220
2.745883075909998E-15
230
1.0
 40
0.7745966692
 41
5.624127271353201
 42
6.942243343006022
  0
LINE
  5
696
330
1F
100
AcDbEntity
  8
0
  6
Continuous
 62
   144
370
    18
100
AcDbLine
 10
24.7253621568
 20
22.6779208085
 30
0.0
 11
24.7253621563
 21
22.6485760844
 31
0.0
  0
LINE
  5
697
330
1F
100
AcDbEntity
  8
0
  6
Continuous
 62
   144
370
    18
100
AcDbLine
 10
25.0615662695
 20
22.3417166842
 30
0.0
 11
25.0322215466
 21
22.3417166846
 31
0.0
  0
ELLIPSE
  5
698
330
1F
100
AcDbEntity
  8
0
  6
Continuous
 62
     7
370
    25
100
AcDbEllipse
 10
24.623075663
 20
20.9636039026
 30
0.0
 11
0.3234581997767521
 21
-0.3234582047400814
 31
-1.776356839400250E-15
210
2.745883105404085E-15
220
-2.745883147538501E-15
230
1.0
 40
0.7745966716
 41
5.624127277296124
 42
6.942243337063057
  0
LINE
  5
699
330
1F
100
AcDbEntity
  8
0
  6
Continuous
 62
     7
370
    25
100
AcDbLine
 10
25.0322215215
 20
20.8613174329
 30
0.0
 11
25.0615662456
 21
20.8613174324
 31
0.0
  0
LINE
  5
69A
330
1F
100
AcDbEntity
  8
0
  6
Continuous
 62
     7
370
    25
100
AcDbLine
 10
24.7253621265
 20
20.5544580425
 30
0.0
 11
24.7253621265
 21
20.5251133184
 31
0.0
  0
ELLIPSE
  5
69B
330
1F
100
AcDbEntity
  8
0
  6
Continuous
 62
     7
370
    25
100
AcDbEllipse
 10
8.9968556145
 20
20.9636039026
 30
0.0
 11
-0.3234582067254159
 21
-0.3234582017620831
 31
1.776356839400250E-15
210
2.745883130684740E-15
220
2.745883088550295E-15
230
1.0
 40
0.7745966669
 41
5.624127265410263
 42
6.942243348948958
  0
LINE
  5
69C
330
1F
100
AcDbEntity
  8
0
  6
Continuous
 62
     7
370
    25
100
AcDbLine
 10
8.8945691479
 20
20.5544580425
 30
0.0
 11
8.8945691479
 21
20.5251133184
 31
0.0
  0
LINE
  5
69D
330
1F
100
AcDbEntity
  8
0
  6
Continuous
 62
     7
370
    25
100
AcDbLine
 10
8.5877097529
 20
20.8613174423
 30
0.0
 11
8.5583650288
 21
20.8613174427
 31
0.0
  0
ELLIPSE
  5
69E
330
1F
100
AcDbEntity
  8
0
  6
Continuous
 62
     7
370
    25
100
AcDbEllipse
 10
8.9968556365
 20
22.2394304717
 30
0.0
 11
-0.3234581982877494
 21
0.3234582082144151
 31
1.776356839400250E-15
210
2.745883075909968E-15
220
-2.745883160178858E-15
230
1.0
 40
0.7745966692
 41
5.624127271353176
 42
6.942243343005982
  0
LINE
  5
69F
330
1F
100
AcDbEntity
  8
0
  6
Continuous
 62
   144
370
    18
100
AcDbLine
 10
8.5583650527
 20
22.3417169434
 30
0.0
 11
8.587709778
 21
22.341716943
 31
0.0
  0
LINE
  5
6A0
330
1F
100
AcDbEntity
  8
0
  6
Continuous
 62
   144
370
    18
100
AcDbLine
 10
8.8945691782
 20
22.6779210544
 30
0.0
 11
8.8945691778
 21
22.6485763333
 31
0.0
  0
LINE
  5
6A1
330
1F
100
AcDbEntity
  8
0
  6
Continuous
 62
   144
370
    18
100
AcDbLine
 10
8.5877097529
 20
20.8613174423
 30
0.0
 11
8.587709778
 21
22.341716943
 31
0.0
  0
LINE
  5
6A2
330
1F
100
AcDbEntity
  8
0
  6
Continuous
 62
   144
370
    18
100
AcDbLine
 10
8.8945691778
 20
22.6485763333
 30
0.0
 11
24.7253621563
 21
22.6485760844
 31
0.0
  0
LINE
  5
6A3
330
1F
100
AcDbEntity
  8
0
  6
Continuous
 62
     7
370
    25
100
AcDbLine
 10
24.7253621265
 20
20.5544580425
 30
0.0
 11
8.8945691479
 21
20.5544580425
 31
0.0
  0
LINE
  5
6A4
330
1F
100
AcDbEntity
  8
0
  6
Continuous
 62
     7
370
    25
100
AcDbLine
 10
25.0322215466
 20
22.3417166846
 30
0.0
 11
25.0322215215
 21
20.8613174329
 31
0.0
  0
LINE
  5
6A5
330
1F
100
AcDbEntity
  8
0
  6
Continuous
 62
   144
370
    18
100
AcDbLine
 10
35.9044538546
 20
17.0444312266
 30
0.0
 11
35.8650837759
 21
17.0444312266
 31
0.0
  0
LINE
  5
6A6
330
1F
100
AcDbEntity
  8
0
  6
Continuous
 62
     7
370
    25
100
AcDbLine
 10
7.5579971617
 20
17.0444312266
 30
0.0
 11
7.5186270829
 21
17.0444312266
 31
0.0
  0
LINE
  5
6A7
330
1F
100
AcDbEntity
  8
0
  6
Continuous
 62
     7
370
    25
100
AcDbLine
 10
35.9044538546
 20
17.0050611478
 30
0.0
 11
35.8650837759
 21
17.0050611478
 31
0.0
  0
LINE
  5
6A8
330
1F
100
AcDbEntity
  8
0
  6
Continuous
 62
   144
370
    18
100
AcDbLine
 10
7.5186269828
 20
17.0050611478
 30
0.0
 11
7.5579971617
 21
17.0050611478
 31
0.0
  0
LINE
  5
6A9
330
1F
100
AcDbEntity
  8
0
  6
Continuous
 62
     7
370
    25
100
AcDbLine
 10
7.4792570042
 20
17.3987614072
 30
0.0
 11
7.5186270829
 21
17.3987614072
 31
0.0
  0
LINE
  5
6AA
330
1F
100
AcDbEntity
  8
0
  6
Continuous
 62
     7
370
    25
100
AcDbLine
 10
7.5186270829
 20
17.3987614072
 30
0.0
 11
7.5579971617
 21
17.3987614072
 31
0.0
  0
LINE
  5
6AB
330
1F
100
AcDbEntity
  8
0
  6
Continuous
 62
     7
370
    25
100
AcDbLine
 10
7.4792570042
 20
17.3987614072
 30
0.0
 11
7.4792570042
 21
22.9105721945
 31
0.0
  0
LINE
  5
6AC
330
1F
100
AcDbEntity
  8
0
  6
Continuous
 62
   144
370
    18
100
AcDbLine
 10
35.8650837759
 20
17.3987614072
 30
0.0
 11
35.9044538546
 21
17.3987614072
 31
0.0
  0
LINE
  5
6AD
330
1F
100
AcDbEntity
  8
0
  6
Continuous
 62
     7
370
    25
100
AcDbLine
 10
35.9438239333
 20
22.9105721946
 30
0.0
 11
35.9438239333
 21
17.3987614072
 31
0.0
  0
LINE
  5
6AE
330
1F
100
AcDbEntity
  8
0
  6
Continuous
 62
   144
370
    18
100
AcDbLine
 10
35.9044538546
 20
17.3987614072
 30
0.0
 11
35.9438239333
 21
17.3987614072
 31
0.0
  0
LINE
  5
6AF
330
1F
100
AcDbEntity
  8
0
  6
Continuous
 62
     7
370
    25
100
AcDbLine
 10
7.5186270829
 20
17.0444312266
 30
0.0
 11
7.5186270829
 21
17.3987614072
 31
0.0
  0
LINE
  5
6B0
330
1F
100
AcDbEntity
  8
0
  6
Continuous
 62
     7
370
    25
100
AcDbLine
 10
7.4792570042
 20
17.0444312266
 30
0.0
 11
7.4792570042
 21
17.3987614072
 31
0.0
  0
LINE
  5
6B1
330
1F
100
AcDbEntity
  8
0
  6
Continuous
 62
     7
370
    25
100
AcDbLine
 10
35.9438239333
 20
17.0444312266
 30
0.0
 11
35.9438239333
 21
17.3987614072
 31
0.0
  0
LINE
  5
6B2
330
1F
100
AcDbEntity
  8
0
  6
Continuous
 62
     7
370
    25
100
AcDbLine
 10
35.9044538546
 20
17.0444312266
 30
0.0
 11
35.9044538546
 21
17.3987614072
 31
0.0
  0
CIRCLE
  5
6B3
330
1F
100
AcDbEntity
  8
0
  6
Continuous
 62
     7
370
    25
100
AcDbCircle
 10
24.6662476235
 20
19.2492271685
 30
0.0
 40
0.3529317359868998
  0
CIRCLE
  5
6B4
330
1F
100
AcDbEntity
  8
0
  6
Continuous
 62
     7
370
    25
100
AcDbCircle
 10
33.2455187879
 20
20.6844995797
 30
0.0
 40
0.1985730683599627
  0
ARC
  5
6B5
330
1F
100
AcDbEntity
  8
0
  6
Continuous
 62
   144
370
    18
100
AcDbCircle
 10
7.5186270829
 20
17.0444312266
 30
0.0
 40
0.0393700787402865
100
AcDbArc
 50
180.0
 51
269.999854305
  0
ARC
  5
6B6
330
1F
100
AcDbEntity
  8
0
  6
Continuous
 62
     7
370
    25
100
AcDbCircle
 10
35.9044538546
 20
17.0444312266
 30
0.0
 40
0.0393700787401556
100
AcDbArc
 50
270.0
 51
0.0
  0
CIRCLE
  5
6B7
330
1F
100
AcDbEntity
  8
0
  6
Continuous
 62
     7
370
    25
100
AcDbCircle
 10
33.2455187879
 20
20.6844995797
 30
0.0
 40
0.0984251968503926
  0
CIRCLE
  5
6B8
330
1F
100
AcDbEntity
  8
0
  6
Continuous
 62
   144
370
    18
100
AcDbCircle
 10
24.6662476235
 20
19.2492271685
 30
0.0
 40
0.1062992125984259
  0
CIRCLE
  5
6B9
330
1F
100
AcDbEntity
  8
0
  6
Continuous
 62
     7
370
    25
100
AcDbCircle
 10
24.6662476235
 20
19.2492271685
 30
0.0
 40
0.2137374877218328
  0
ARC
  5
6BA
330
1F
100
AcDbEntity
  8
0
  6
Continuous
 62
     7
370
    25
100
AcDbCircle
 10
35.3729577916
 20
17.0444306985
 30
0.0
 40
0.118110236220474
100
AcDbArc
 50
270.0
 51
340.5290208835
  0
ARC
  5
6BB
330
1F
100
AcDbEntity
  8
0
  6
Continuous
 62
     7
370
    25
100
AcDbCircle
 10
35.3335877129
 20
17.0444306985
 30
0.0
 40
0.118110236220474
100
AcDbArc
 50
199.4709489274
 51
270.0
  0
LINE
  5
6BC
330
1F
100
AcDbEntity
  8
0
  6
Continuous
 62
   144
370
    18
100
AcDbLine
 10
35.3729577916
 20
16.9263204623
 30
0.0
 11
35.3335877129
 21
16.9263204623
 31
0.0
  0
ARC
  5
6BD
330
1F
100
AcDbEntity
  8
0
  6
Continuous
 62
   144
370
    18
100
AcDbCircle
 10
8.0501522321
 20
17.0444306985
 30
0.0
 40
0.1181102362204895
100
AcDbArc
 50
199.4709489274
 51
270.0
  0
LINE
  5
6BE
330
1F
100
AcDbEntity
  8
0
  6
Continuous
 62
   144
370
    18
100
AcDbLine
 10
8.0895223108
 20
16.9263204623
 30
0.0
 11
8.0501522321
 21
16.9263204623
 31
0.0
  0
ARC
  5
6BF
330
1F
100
AcDbEntity
  8
0
  6
Continuous
 62
   144
370
    18
100
AcDbCircle
 10
8.0895223108
 20
17.0444306985
 30
0.0
 40
0.118110236220474
100
AcDbArc
 50
270.0
 51
340.5290208835
  0
CIRCLE
  5
6C0
330
1F
100
AcDbEntity
  8
0
  6
Continuous
 62
   144
370
    18
100
AcDbCircle
 10
24.6662476235
 20
19.2492271685
 30
0.0
 40
0.0669291338582667
  0
LINE
  5
6C1
330
1F
100
AcDbEntity
  8
0
  6
Continuous
 62
     8
370
    25
100
AcDbLine
 10
35.3207885866
 20
23.1356829171
 30
0.0
 11
34.3935188918
 21
23.1356829171
 31
0.0
  0
LINE
  5
6C2
330
1F
100
AcDbEntity
  8
0
  6
Continuous
 62
     8
370
    25
100
AcDbLine
 10
34.3935188918
 20
23.1356829171
 30
0.0
 11
33.4662491971
 21
23.1356829171
 31
0.0
  0
LINE
  5
6C3
330
1F
100
AcDbEntity
  8
0
  6
Continuous
 62
     8
370
    25
100
AcDbLine
 10
35.6736054216
 20
23.0406662914
 30
0.0
 11
35.3264401225
 21
23.0406662914
 31
0.0
  0
LINE
  5
6C4
330
1F
100
AcDbEntity
  8
0
  6
Continuous
 62
     8
370
    25
100
AcDbLine
 10
33.4604008108
 20
23.0406662914
 30
0.0
 11
33.1174637049
 21
23.0406662914
 31
0.0
  0
LINE
  5
6C5
330
1F
100
AcDbEntity
  8
0
  6
Continuous
 62
     8
370
    25
100
AcDbLine
 10
33.1174637049
 20
23.0511350487
 30
0.0
 11
33.4610234866
 21
23.0511350487
 31
0.0
  0
LINE
  5
6C6
330
1F
100
AcDbEntity
  8
0
  6
Continuous
 62
     8
370
    25
100
AcDbLine
 10
35.3258174466
 20
23.0511350487
 30
0.0
 11
35.6736054216
 21
23.0511350487
 31
0.0
  0
LINE
  5
6C7
330
1F
100
AcDbEntity
  8
0
  6
Continuous
 62
     8
370
    25
100
AcDbLine
 10
35.5259751208
 20
23.1050088378
 30
0.0
 11
35.3226130637
 21
23.1050088378
 31
0.0
  0
LINE
  5
6C8
330
1F
100
AcDbEntity
  8
0
  6
Continuous
 62
     8
370
    25
100
AcDbLine
 10
33.4642278696
 20
23.1050088378
 30
0.0
 11
33.2650940057
 21
23.1050088378
 31
0.0
  0
LINE
  5
6C9
330
1F
100
AcDbEntity
  8
0
  6
Continuous
 62
     8
370
    25
100
AcDbLine
 10
20.0487107329
 20
23.0925661964
 30
0.0
 11
20.053177921
 21
23.0286824308
 31
0.0
  0
LINE
  5
6CA
330
1F
100
AcDbEntity
  8
0
  6
Continuous
 62
     8
370
    25
100
AcDbLine
 10
31.6173732459
 20
23.0925661966
 30
0.0
 11
31.8090245433
 21
23.0286824308
 31
0.0
  0
ARC
  5
6CB
330
1F
100
AcDbEntity
  8
0
  6
Continuous
 62
     8
370
    25
100
AcDbCircle
 10
34.9742881766
 20
22.6460046159
 30
0.0
 40
3.099695267447743
100
AcDbArc
 50
171.4091512684
 51
172.9083653374
  0
LINE
  5
6CC
330
1F
100
AcDbEntity
  8
0
  6
Continuous
 62
     8
370
    25
100
AcDbLine
 10
31.6715340179
 20
23.1347002306
 30
0.0
 11
31.690652916
 21
23.1283272645
 31
0.0
  0
LINE
  5
6CD
330
1F
100
AcDbEntity
  8
0
  6
Continuous
 62
     8
370
    25
100
AcDbLine
 10
8.0499738355
 20
23.0286824308
 30
0.0
 11
8.2416251329
 21
23.0925661966
 31
0.0
  0
ARC
  5
6CE
330
1F
100
AcDbEntity
  8
0
  6
Continuous
 62
     8
370
    25
100
AcDbCircle
 10
4.8847102022
 20
22.6460046159
 30
0.0
 40
3.099695267494461
100
AcDbArc
 50
7.0916346626
 51
8.5908487316
  0
ARC
  5
6CF
330
1F
100
AcDbEntity
  8
0
  6
Continuous
 62
     8
370
    25
100
AcDbCircle
 10
19.8194578546
 20
23.1314839101
 30
0.0
 40
0.0567193176822913
100
AcDbArc
 50
20.2170998609
 51
95.1576735677
  0
LINE
  5
6D0
330
1F
100
AcDbEntity
  8
0
  6
Continuous
 62
     8
370
    25
100
AcDbLine
 10
8.1683454628
 20
23.1283272645
 30
0.0
 11
8.1874643609
 21
23.1347002306
 31
0.0
  0
LINE
  5
6D1
330
1F
100
AcDbEntity
  8
0
  6
Continuous
 62
   144
370
    18
100
AcDbLine
 10
32.6571786635
 20
20.1260013029
 30
0.0
 11
32.6571666995
 21
20.1260132669
 31
0.0
  0
LINE
  5
6D2
330
1F
100
AcDbEntity
  8
0
  6
Continuous
 62
     8
370
    25
100
AcDbLine
 10
7.5186270829
 20
22.9105721945
 30
0.0
 11
7.5186270829
 21
17.3987614072
 31
0.0
  0
LINE
  5
6D3
330
1F
100
AcDbEntity
  8
0
  6
Continuous
 62
     8
370
    25
100
AcDbLine
 10
35.9044538546
 20
17.3987614072
 30
0.0
 11
35.9044538546
 21
22.9105721945
 31
0.0
  0
ENDSEC
  0
SECTION
  2
OBJECTS
  0
DICTIONARY
  5
C
330
0
100
AcDbDictionary
281
     1
  3
ACAD_GROUP
350
D
  3
ACAD_LAYOUT
350
1A
  3
ACAD_MLINESTYLE
350
17
  3
ACAD_PLOTSETTINGS
350
19
  3
ACAD_PLOTSTYLENAME
350
E
  3
ACAD_SCALELIST
350
47
  0
DICTIONARY
  5
D
102
{ACAD_REACTORS
330
C
102
}
330
C
100
AcDbDictionary
281
     1
  0
DICTIONARY
  5
1A
102
{ACAD_REACTORS
330
C
102
}
330
C
100
AcDbDictionary
281
     1
  3
Layout1
350
1E
  3
Layout2
350
26
  3
Model
350
22
  0
DICTIONARY
  5
17
102
{ACAD_REACTORS
330
C
102
}
330
C
100
AcDbDictionary
281
     1
  3
Standard
350
18
  0
DICTIONARY
  5
19
102
{ACAD_REACTORS
330
C
102
}
330
C
100
AcDbDictionary
281
     1
  0
ACDBDICTIONARYWDFLT
  5
E
102
{ACAD_REACTORS
330
C
102
}
330
C
100
AcDbDictionary
281
     1
  3
Normal
350
F
100
AcDbDictionaryWithDefault
340
F
  0
DICTIONARY
  5
47
102
{ACAD_REACTORS
330
C
102
}
330
C
100
AcDbDictionary
281
     1
  3
A0
350
48
  3
A1
350
49
  3
A2
350
4A
  3
A3
350
4B
  3
A4
350
4C
  3
A5
350
4D
  3
A6
350
4E
  3
A7
350
4F
  3
A8
350
50
  3
A9
350
51
  3
B0
350
52
  3
B1
350
53
  3
B2
350
54
  3
B3
350
55
  3
B4
350
56
  3
B5
350
57
  3
B6
350
58
  3
B7
350
59
  3
B8
350
5A
  3
B9
350
5B
  3
C0
350
5C
  3
C1
350
5D
  3
C2
350
5E
  3
C3
350
5F
  3
C4
350
60
  3
C5
350
61
  3
C6
350
62
  3
C7
350
63
  3
C8
350
64
  3
C9
350
65
  3
D0
350
66
  3
D1
350
67
  3
D2
350
68
  0
LAYOUT
  5
1E
102
{ACAD_REACTORS
330
1A
102
}
330
1A
100
AcDbPlotSettings
  1

  2
none_device
  4

  6

 40
0.0
 41
0.0
 42
0.0
 43
0.0
 44
0.0
 45
0.0
 46
0.0
 47
0.0
 48
0.0
 49
0.0
140
0.0
141
0.0
142
1.0
143
1.0
 70
   688
 72
     0
 73
     0
 74
     5
  7

 75
    16
147
1.0
148
0.0
149
0.0
100
AcDbLayout
  1
Layout1
 70
     1
 71
     1
 10
0.0
 20
0.0
 11
12.0
 21
9.0
 12
0.0
 22
0.0
 32
0.0
 14
1.0000000000E+20
 24
1.0000000000E+20
 34
1.0000000000E+20
 15
-1.0000000000E+20
 25
-1.0000000000E+20
 35
-1.0000000000E+20
146
0.0
 13
0.0
 23
0.0
 33
0.0
 16
1.0
 26
0.0
 36
0.0
 17
0.0
 27
1.0
 37
0.0
 76
     0
330
1B
  0
LAYOUT
  5
26
102
{ACAD_REACTORS
330
1A
102
}
330
1A
100
AcDbPlotSettings
  1

  2
none_device
  4

  6

 40
0.0
 41
0.0
 42
0.0
 43
0.0
 44
0.0
 45
0.0
 46
0.0
 47
0.0
 48
0.0
 49
0.0
140
0.0
141
0.0
142
1.0
143
1.0
 70
   688
 72
     0
 73
     0
 74
     5
  7

 75
    16
147
1.0
148
0.0
149
0.0
100
AcDbLayout
  1
Layout2
 70
     1
 71
     2
 10
0.0
 20
0.0
 11
0.0
 21
0.0
 12
0.0
 22
0.0
 32
0.0
 14
0.0
 24
0.0
 34
0.0
 15
0.0
 25
0.0
 35
0.0
146
0.0
 13
0.0
 23
0.0
 33
0.0
 16
1.0
 26
0.0
 36
0.0
 17
0.0
 27
1.0
 37
0.0
 76
     0
330
23
  0
LAYOUT
  5
22
102
{ACAD_REACTORS
330
1A
102
}
330
1A
100
AcDbPlotSettings
  1

  2
none_device
  4
Letter_(8.50_x_11.00_Inches)
  6

 40
6.35
 41
6.35
 42
6.35000508
 43
6.35000508
 44
215.9
 45
279.4
 46
0.0
 47
0.0
 48
0.0
 49
0.0
140
0.0
141
0.0
142
1.0
143
1.0
 70
  1712
 72
     0
 73
     0
 74
     0
  7

 75
     0
147
1.0
148
0.0
149
0.0
100
AcDbLayout
  1
Model
 70
     1
 71
     0
 10
0.0
 20
0.0
 11
45.0
 21
40.0
 12
0.0
 22
0.0
 32
0.0
 14
0.0
 24
0.0
 34
0.0
 15
45.0
 25
40.0
 35
0.0
146
0.0
 13
0.0
 23
0.0
 33
0.0
 16
1.0
 26
0.0
 36
0.0
 17
0.0
 27
1.0
 37
0.0
 76
     0
330
1F
331
29
  0
MLINESTYLE
  5
18
102
{ACAD_REACTORS
330
17
102
}
330
17
100
AcDbMlineStyle
  2
Standard
 70
     0
  3

 62
   256
 51
90.0
 52
90.0
 71
     2
 49
0.5
 62
   256
  6
BYLAYER
 49
-0.5
 62
   256
  6
BYLAYER
  0
ACDBPLACEHOLDER
  5
F
102
{ACAD_REACTORS
330
E
102
}
330
E
  0
SCALE
  5
48
102
{ACAD_REACTORS
330
47
102
}
330
47
100
AcDbScale
 70
     0
300
1:1
140
1.0
141
1.0
290
     1
  0
SCALE
  5
49
102
{ACAD_REACTORS
330
47
102
}
330
47
100
AcDbScale
 70
     0
300
1:2
140
1.0
141
2.0
290
     0
  0
SCALE
  5
4A
102
{ACAD_REACTORS
330
47
102
}
330
47
100
AcDbScale
 70
     0
300
1:4
140
1.0
141
4.0
290
     0
  0
SCALE
  5
4B
102
{ACAD_REACTORS
330
47
102
}
330
47
100
AcDbScale
 70
     0
300
1:5
140
1.0
141
5.0
290
     0
  0
SCALE
  5
4C
102
{ACAD_REACTORS
330
47
102
}
330
47
100
AcDbScale
 70
     0
300
1:8
140
1.0
141
8.0
290
     0
  0
SCALE
  5
4D
102
{ACAD_REACTORS
330
47
102
}
330
47
100
AcDbScale
 70
     0
300
1:10
140
1.0
141
10.0
290
     0
  0
SCALE
  5
4E
102
{ACAD_REACTORS
330
47
102
}
330
47
100
AcDbScale
 70
     0
300
1:16
140
1.0
141
16.0
290
     0
  0
SCALE
  5
4F
102
{ACAD_REACTORS
330
47
102
}
330
47
100
AcDbScale
 70
     0
300
1:20
140
1.0
141
20.0
290
     0
  0
SCALE
  5
50
102
{ACAD_REACTORS
330
47
102
}
330
47
100
AcDbScale
 70
     0
300
1:30
140
1.0
141
30.0
290
     0
  0
SCALE
  5
51
102
{ACAD_REACTORS
330
47
102
}
330
47
100
AcDbScale
 70
     0
300
1:40
140
1.0
141
40.0
290
     0
  0
SCALE
  5
52
102
{ACAD_REACTORS
330
47
102
}
330
47
100
AcDbScale
 70
     0
300
1:50
140
1.0
141
50.0
290
     0
  0
SCALE
  5
53
102
{ACAD_REACTORS
330
47
102
}
330
47
100
AcDbScale
 70
     0
300
1:100
140
1.0
141
100.0
290
     0
  0
SCALE
  5
54
102
{ACAD_REACTORS
330
47
102
}
330
47
100
AcDbScale
 70
     0
300
2:1
140
2.0
141
1.0
290
     0
  0
SCALE
  5
55
102
{ACAD_REACTORS
330
47
102
}
330
47
100
AcDbScale
 70
     0
300
4:1
140
4.0
141
1.0
290
     0
  0
SCALE
  5
56
102
{ACAD_REACTORS
330
47
102
}
330
47
100
AcDbScale
 70
     0
300
8:1
140
8.0
141
1.0
290
     0
  0
SCALE
  5
57
102
{ACAD_REACTORS
330
47
102
}
330
47
100
AcDbScale
 70
     0
300
10:1
140
10.0
141
1.0
290
     0
  0
SCALE
  5
58
102
{ACAD_REACTORS
330
47
102
}
330
47
100
AcDbScale
 70
     0
300
100:1
140
100.0
141
1.0
290
     0
  0
SCALE
  5
59
102
{ACAD_REACTORS
330
47
102
}
330
47
100
AcDbScale
 70
     0
300
1/128" = 1'-0"
140
0.0078125
141
12.0
290
     0
  0
SCALE
  5
5A
102
{ACAD_REACTORS
330
47
102
}
330
47
100
AcDbScale
 70
     0
300
1/64" = 1'-0"
140
0.015625
141
12.0
290
     0
  0
SCALE
  5
5B
102
{ACAD_REACTORS
330
47
102
}
330
47
100
AcDbScale
 70
     0
300
1/32" = 1'-0"
140
0.03125
141
12.0
290
     0
  0
SCALE
  5
5C
102
{ACAD_REACTORS
330
47
102
}
330
47
100
AcDbScale
 70
     0
300
1/16" = 1'-0"
140
0.0625
141
12.0
290
     0
  0
SCALE
  5
5D
102
{ACAD_REACTORS
330
47
102
}
330
47
100
AcDbScale
 70
     0
300
3/32" = 1'-0"
140
0.09375
141
12.0
290
     0
  0
SCALE
  5
5E
102
{ACAD_REACTORS
330
47
102
}
330
47
100
AcDbScale
 70
     0
300
1/8" = 1'-0"
140
0.125
141
12.0
290
     0
  0
SCALE
  5
5F
102
{ACAD_REACTORS
330
47
102
}
330
47
100
AcDbScale
 70
     0
300
3/16" = 1'-0"
140
0.1875
141
12.0
290
     0
  0
SCALE
  5
60
102
{ACAD_REACTORS
330
47
102
}
330
47
100
AcDbScale
 70
     0
300
1/4" = 1'-0"
140
0.25
141
12.0
290
     0
  0
SCALE
  5
61
102
{ACAD_REACTORS
330
47
102
}
330
47
100
AcDbScale
 70
     0
300
3/8" = 1'-0"
140
0.375
141
12.0
290
     0
  0
SCALE
  5
62
102
{ACAD_REACTORS
330
47
102
}
330
47
100
AcDbScale
 70
     0
300
1/2" = 1'-0"
140
0.5
141
12.0
290
     0
  0
SCALE
  5
63
102
{ACAD_REACTORS
330
47
102
}
330
47
100
AcDbScale
 70
     0
300
3/4" = 1'-0"
140
0.75
141
12.0
290
     0
  0
SCALE
  5
64
102
{ACAD_REACTORS
330
47
102
}
330
47
100
AcDbScale
 70
     0
300
1" = 1'-0"
140
1.0
141
12.0
290
     0
  0
SCALE
  5
65
102
{ACAD_REACTORS
330
47
102
}
330
47
100
AcDbScale
 70
     0
300
1-1/2" = 1'-0"
140
1.5
141
12.0
290
     0
  0
SCALE
  5
66
102
{ACAD_REACTORS
330
47
102
}
330
47
100
AcDbScale
 70
     0
300
3" = 1'-0"
140
3.0
141
12.0
290
     0
  0
SCALE
  5
67
102
{ACAD_REACTORS
330
47
102
}
330
47
100
AcDbScale
 70
     0
300
6" = 1'-0"
140
6.0
141
12.0
290
     0
  0
SCALE
  5
68
102
{ACAD_REACTORS
330
47
102
}
330
47
100
AcDbScale
 70
     0
300
1'-0" = 1'-0"
140
12.0
141
12.0
290
     0
  0
ENDSEC
  0
EOF
