  0
SECTION
  2
HEADER
  9
$ACADVER
  1
AC1015
  9
$ACADMAINTVER
 70
     6
  9
$DWGCODEPAGE
  3
ANSI_1252
  9
$INSBASE
 10
0.0
 20
0.0
 30
0.0
  9
$EXTMIN
 10
0.0
 20
0.0
 30
0.0
  9
$EXTMAX
 10
45.0
 20
40.0
 30
0.0
  9
$LIMMIN
 10
0.0
 20
0.0
  9
$LIMMAX
 10
45.0
 20
40.0
  9
$ORTHOMODE
 70
     0
  9
$REGENMODE
 70
     1
  9
$FILLMODE
 70
     1
  9
$QTEXTMODE
 70
     0
  9
$MIRRTEXT
 70
     1
  9
$LTSCALE
 40
1.0
  9
$ATTMODE
 70
     1
  9
$TEXTSIZE
 40
0.125
  9
$TRACEWID
 40
0.05
  9
$TEXTSTYLE
  7
Standard
  9
$CLAYER
  8
0
  9
$CELTYPE
  6
ByLayer
  9
$CECOLOR
 62
   256
  9
$CELTSCALE
 40
1.0
  9
$DISPSILH
 70
     0
  9
$DIMSCALE
 40
1.0
  9
$DIMASZ
 40
0.13
  9
$DIMEXO
 40
0.05
  9
$DIMDLI
 40
0.38
  9
$DIMRND
 40
0.0
  9
$DIMDLE
 40
0.0
  9
$DIMEXE
 40
0.125
  9
$DIMTP
 40
0.0
  9
$DIMTM
 40
0.0
  9
$DIMTXT
 40
0.125
  9
$DIMCEN
 40
0.09
  9
$DIMTSZ
 40
0.0
  9
$DIMTOL
 70
     0
  9
$DIMLIM
 70
     0
  9
$DIMTIH
 70
     1
  9
$DIMTOH
 70
     1
  9
$DIMSE1
 70
     0
  9
$DIMSE2
 70
     0
  9
$DIMTAD
 70
     0
  9
$DIMZIN
 70
     0
  9
$DIMBLK
  1

  9
$DIMASO
 70
     1
  9
$DIMSHO
 70
     1
  9
$DIMPOST
  1

  9
$DIMAPOST
  1

  9
$DIMALT
 70
     0
  9
$DIMALTD
 70
     2
  9
$DIMALTF
 40
25.4
  9
$DIMLFAC
 40
1.0
  9
$DIMTOFL
 70
     0
  9
$DIMTVP
 40
0.0
  9
$DIMTIX
 70
     0
  9
$DIMSOXD
 70
     0
  9
$DIMSAH
 70
     0
  9
$DIMBLK1
  1

  9
$DIMBLK2
  1

  9
$DIMSTYLE
  2
Standard
  9
$DIMCLRD
 70
     0
  9
$DIMCLRE
 70
     0
  9
$DIMCLRT
 70
     0
  9
$DIMTFAC
 40
1.0
  9
$DIMGAP
 40
0.06
  9
$DIMJUST
 70
     0
  9
$DIMSD1
 70
     0
  9
$DIMSD2
 70
     0
  9
$DIMTOLJ
 70
     1
  9
$DIMTZIN
 70
     0
  9
$DIMALTZ
 70
     0
  9
$DIMALTTZ
 70
     0
  9
$DIMUPT
 70
     0
  9
$DIMDEC
 70
     2
  9
$DIMTDEC
 70
     2
  9
$DIMALTU
 70
     2
  9
$DIMALTTD
 70
     2
  9
$DIMTXSTY
  7
Standard
  9
$DIMAUNIT
 70
     0
  9
$DIMADEC
 70
     2
  9
$DIMALTRND
 40
0.0
  9
$DIMAZIN
 70
     0
  9
$DIMDSEP
 70
    46
  9
$DIMATFIT
 70
     3
  9
$DIMFRAC
 70
     0
  9
$DIMLDRBLK
  1

  9
$DIMLUNIT
 70
     2
  9
$DIMLWD
 70
    -2
  9
$DIMLWE
 70
    -2
  9
$DIMTMOVE
 70
     0
  9
$LUNITS
 70
     2
  9
$LUPREC
 70
     2
  9
$SKETCHINC
 40
0.1
  9
$FILLETRAD
 40
0.5
  9
$AUNITS
 70
     0
  9
$AUPREC
 70
     2
  9
$MENU
  1
.
  9
$ELEVATION
 40
0.0
  9
$PELEVATION
 40
0.0
  9
$THICKNESS
 40
0.0
  9
$LIMCHECK
 70
     0
  9
$CHAMFERA
 40
0.0
  9
$CHAMFERB
 40
0.0
  9
$CHAMFERC
 40
0.0
  9
$CHAMFERD
 40
0.0
  9
$SKPOLY
 70
     0
  9
$TDCREATE
 40
2458813.418950069
  9
$TDUCREATE
 40
2458813.752283403
  9
$TDUPDATE
 40
2458813.418950972
  9
$TDUUPDATE
 40
2458813.752284306
  9
$TDINDWG
 40
0.0000000116
  9
$TDUSRTIMER
 40
0.0000000116
  9
$USRTIMER
 70
     1
  9
$ANGBASE
 50
0.0
  9
$ANGDIR
 70
     0
  9
$PDMODE
 70
     0
  9
$PDSIZE
 40
-1.0
  9
$PLINEWID
 40
0.0
  9
$SPLFRAME
 70
     0
  9
$SPLINETYPE
 70
     6
  9
$SPLINESEGS
 70
     8
  9
$HANDSEED
  5
3D9
  9
$SURFTAB1
 70
     6
  9
$SURFTAB2
 70
     6
  9
$SURFTYPE
 70
     6
  9
$SURFU
 70
     6
  9
$SURFV
 70
     6
  9
$UCSBASE
  2

  9
$UCSNAME
  2

  9
$UCSORG
 10
0.0
 20
0.0
 30
0.0
  9
$UCSXDIR
 10
1.0
 20
0.0
 30
0.0
  9
$UCSYDIR
 10
0.0
 20
1.0
 30
0.0
  9
$UCSORTHOREF
  2

  9
$UCSORTHOVIEW
 70
     0
  9
$UCSORGTOP
 10
0.0
 20
0.0
 30
0.0
  9
$UCSORGBOTTOM
 10
0.0
 20
0.0
 30
0.0
  9
$UCSORGLEFT
 10
0.0
 20
0.0
 30
0.0
  9
$UCSORGRIGHT
 10
0.0
 20
0.0
 30
0.0
  9
$UCSORGFRONT
 10
0.0
 20
0.0
 30
0.0
  9
$UCSORGBACK
 10
0.0
 20
0.0
 30
0.0
  9
$PUCSBASE
  2

  9
$PUCSNAME
  2

  9
$PUCSORG
 10
0.0
 20
0.0
 30
0.0
  9
$PUCSXDIR
 10
1.0
 20
0.0
 30
0.0
  9
$PUCSYDIR
 10
0.0
 20
1.0
 30
0.0
  9
$PUCSORTHOREF
  2

  9
$PUCSORTHOVIEW
 70
     0
  9
$PUCSORGTOP
 10
0.0
 20
0.0
 30
0.0
  9
$PUCSORGBOTTOM
 10
0.0
 20
0.0
 30
0.0
  9
$PUCSORGLEFT
 10
0.0
 20
0.0
 30
0.0
  9
$PUCSORGRIGHT
 10
0.0
 20
0.0
 30
0.0
  9
$PUCSORGFRONT
 10
0.0
 20
0.0
 30
0.0
  9
$PUCSORGBACK
 10
0.0
 20
0.0
 30
0.0
  9
$USERI1
 70
     0
  9
$USERI2
 70
     0
  9
$USERI3
 70
     0
  9
$USERI4
 70
     0
  9
$USERI5
 70
     0
  9
$USERR1
 40
0.0
  9
$USERR2
 40
0.0
  9
$USERR3
 40
0.0
  9
$USERR4
 40
0.0
  9
$USERR5
 40
0.0
  9
$WORLDVIEW
 70
     1
  9
$SHADEDGE
 70
     3
  9
$SHADEDIF
 70
    70
  9
$TILEMODE
 70
     1
  9
$MAXACTVP
 70
    64
  9
$PINSBASE
 10
0.0
 20
0.0
 30
0.0
  9
$PLIMCHECK
 70
     0
  9
$PEXTMIN
 10
1.0000000000E+20
 20
1.0000000000E+20
 30
1.0000000000E+20
  9
$PEXTMAX
 10
-1.0000000000E+20
 20
-1.0000000000E+20
 30
-1.0000000000E+20
  9
$PLIMMIN
 10
0.0
 20
0.0
  9
$PLIMMAX
 10
12.0
 20
9.0
  9
$UNITMODE
 70
     0
  9
$VISRETAIN
 70
     1
  9
$PLINEGEN
 70
     0
  9
$PSLTSCALE
 70
     1
  9
$TREEDEPTH
 70
  3020
  9
$CMLSTYLE
  2
Standard
  9
$CMLJUST
 70
     0
  9
$CMLSCALE
 40
1.0
  9
$PROXYGRAPHICS
 70
     1
  9
$MEASUREMENT
 70
     0
  9
$CELWEIGHT
370
    -1
  9
$ENDCAPS
280
     0
  9
$JOINSTYLE
280
     0
  9
$LWDISPLAY
290
     1
  9
$INSUNITS
 70
     1
  9
$HYPERLINKBASE
  1

  9
$STYLESHEET
  1

  9
$XEDIT
290
     1
  9
$CEPSNTYPE
380
     0
  9
$PSTYLEMODE
290
     1
  9
$FINGERPRINTGUID
  2
{4884E1B9-CC9C-476B-A0B1-14575363625F}
  9
$VERSIONGUID
  2
{FAEB1C32-E019-11D5-929B-00C0DF256EC4}
  9
$EXTNAMES
290
     1
  9
$PSVPSCALE
 40
0.0
  9
$OLESTARTUP
290
     0
  0
ENDSEC
  0
SECTION
  2
CLASSES
  0
CLASS
  1
ACDBDICTIONARYWDFLT
  2
AcDbDictionaryWithDefault
  3
ObjectDBX Classes
 90
        0
280
     0
281
     0
  0
CLASS
  1
VISUALSTYLE
  2
AcDbVisualStyle
  3
ObjectDBX Classes
 90
     4095
280
     0
281
     0
  0
CLASS
  1
MATERIAL
  2
AcDbMaterial
  3
ObjectDBX Classes
 90
     1153
280
     0
281
     0
  0
CLASS
  1
SCALE
  2
AcDbScale
  3
ObjectDBX Classes
 90
     1153
280
     0
281
     0
  0
CLASS
  1
TABLESTYLE
  2
AcDbTableStyle
  3
ObjectDBX Classes
 90
     4095
280
     0
281
     0
  0
CLASS
  1
MLEADERSTYLE
  2
AcDbMLeaderStyle
  3
ACDB_MLEADERSTYLE_CLASS
 90
     4095
280
     0
281
     0
  0
CLASS
  1
SUN
  2
AcDbSun
  3
SCENEOE
 90
     1153
280
     0
281
     0
  0
CLASS
  1
ACDBPLACEHOLDER
  2
AcDbPlaceHolder
  3
ObjectDBX Classes
 90
        0
280
     0
281
     0
  0
CLASS
  1
LAYOUT
  2
AcDbLayout
  3
ObjectDBX Classes
 90
        0
280
     0
281
     0
  0
ENDSEC
  0
SECTION
  2
TABLES
  0
TABLE
  2
VPORT
  5
8
330
0
100
AcDbSymbolTable
 70
     1
  0
VPORT
  5
29
330
8
100
AcDbSymbolTableRecord
100
AcDbViewportTableRecord
  2
*Active
 70
     0
 10
0.0
 20
0.0
 11
1.0
 21
1.0
 12
22.5
 22
20.0
 13
0.0
 23
0.0
 14
0.5
 24
0.5
 15
0.5
 25
0.5
 16
0.0
 26
0.0
 36
1.0
 17
0.0
 27
0.0
 37
0.0
 40
40.0
 41
1.125
 42
50.0
 43
0.0
 44
0.0
 50
0.0
 51
0.0
 71
     0
 72
  2000
 73
     1
 74
     3
 75
     0
 76
     0
 77
     0
 78
     0
281
     0
 65
     1
110
0.0
120
0.0
130
0.0
111
1.0
121
0.0
131
0.0
112
0.0
122
1.0
132
0.0
 79
     0
146
0.0
  0
ENDTAB
  0
TABLE
  2
LTYPE
  5
5
330
0
100
AcDbSymbolTable
 70
     6
  0
LTYPE
  5
14
330
5
100
AcDbSymbolTableRecord
100
AcDbLinetypeTableRecord
  2
ByBlock
 70
     0
  3

 72
    65
 73
     0
 40
0.0
  0
LTYPE
  5
15
330
5
100
AcDbSymbolTableRecord
100
AcDbLinetypeTableRecord
  2
ByLayer
 70
     0
  3

 72
    65
 73
     0
 40
0.0
  0
LTYPE
  5
16
330
5
100
AcDbSymbolTableRecord
100
AcDbLinetypeTableRecord
  2
Continuous
 70
     0
  3
Solid line
 72
    65
 73
     0
 40
0.0
  0
LTYPE
  5
6E
330
5
100
AcDbSymbolTableRecord
100
AcDbLinetypeTableRecord
  2
HIDDEN
 70
     0
  3
Hidden __ __ __ __ __ __ __ __ __ __ __ __ __ __
 72
    65
 73
     2
 40
0.075
 49
0.05
 74
     0
 49
-0.025
 74
     0
  0
LTYPE
  5
6F
330
5
100
AcDbSymbolTableRecord
100
AcDbLinetypeTableRecord
  2
PHANTOM
 70
     0
  3
Phantom ______  __  __  ______  __  __  ______
 72
    65
 73
     6
 40
0.5
 49
0.25
 74
     0
 49
-0.05
 74
     0
 49
0.05
 74
     0
 49
-0.05
 74
     0
 49
0.05
 74
     0
 49
-0.05
 74
     0
  0
LTYPE
  5
70
330
5
100
AcDbSymbolTableRecord
100
AcDbLinetypeTableRecord
  2
CENTER
 70
     0
  3
Center ____ _ ____ _ ____ _ ____ _ ____ _ ____
 72
    65
 73
     4
 40
0.4
 49
0.25
 74
     0
 49
-0.05
 74
     0
 49
0.05
 74
     0
 49
-0.05
 74
     0
  0
LTYPE
  5
71
330
5
100
AcDbSymbolTableRecord
100
AcDbLinetypeTableRecord
  2
CENTERX2
 70
     0
  3
Center (2x) ________  __  ________  __  _____
 72
    65
 73
     4
 40
0.8
 49
0.5
 74
     0
 49
-0.1
 74
     0
 49
0.1
 74
     0
 49
-0.1
 74
     0
  0
LTYPE
  5
72
330
5
100
AcDbSymbolTableRecord
100
AcDbLinetypeTableRecord
  2
DOT2
 70
     0
  3
Dot (.5x) ........................................
 72
    65
 73
     2
 40
0.025
 49
0.0
 74
     0
 49
-0.025
 74
     0
  0
ENDTAB
  0
TABLE
  2
LAYER
  5
2
330
0
100
AcDbSymbolTable
 70
     1
  0
LAYER
  5
10
330
2
100
AcDbSymbolTableRecord
100
AcDbLayerTableRecord
  2
0
 70
     0
 62
     7
  6
Continuous
370
    -3
390
F
  0
ENDTAB
  0
TABLE
  2
STYLE
  5
3
330
0
100
AcDbSymbolTable
 70
     1
  0
STYLE
  5
11
330
3
100
AcDbSymbolTableRecord
100
AcDbTextStyleTableRecord
  2
Standard
 70
     0
 40
0.0
 41
1.0
 50
0.0
 71
     0
 42
0.125
  3
txt
  4

  0
ENDTAB
  0
TABLE
  2
VIEW
  5
6
330
0
100
AcDbSymbolTable
 70
     0
  0
ENDTAB
  0
TABLE
  2
UCS
  5
7
330
0
100
AcDbSymbolTable
 70
     0
  0
ENDTAB
  0
TABLE
  2
APPID
  5
9
330
0
100
AcDbSymbolTable
 70
     1
  0
APPID
  5
12
330
9
100
AcDbSymbolTableRecord
100
AcDbRegAppTableRecord
  2
ACAD
 70
     0
  0
ENDTAB
  0
TABLE
  2
DIMSTYLE
  5
A
330
0
100
AcDbSymbolTable
 70
     1
100
AcDbDimStyleTable
  0
DIMSTYLE
105
27
330
A
100
AcDbSymbolTableRecord
100
AcDbDimStyleTableRecord
  2
Standard
 70
     0
178
     0
340
11
  0
ENDTAB
  0
TABLE
  2
BLOCK_RECORD
  5
1
330
0
100
AcDbSymbolTable
 70
     1
  0
BLOCK_RECORD
  5
1F
330
1
100
AcDbSymbolTableRecord
100
AcDbBlockTableRecord
  2
*Model_Space
340
22
  0
BLOCK_RECORD
  5
1B
330
1
100
AcDbSymbolTableRecord
100
AcDbBlockTableRecord
  2
*Paper_Space
340
1E
  0
BLOCK_RECORD
  5
23
330
1
100
AcDbSymbolTableRecord
100
AcDbBlockTableRecord
  2
*Paper_Space0
340
26
  0
ENDTAB
  0
ENDSEC
  0
SECTION
  2
BLOCKS
  0
BLOCK
  5
20
330
1F
100
AcDbEntity
  8
0
100
AcDbBlockBegin
  2
*Model_Space
 70
     0
 10
0.0
 20
0.0
 30
0.0
  3
*Model_Space
  1

  0
ENDBLK
  5
21
330
1F
100
AcDbEntity
  8
0
100
AcDbBlockEnd
  0
BLOCK
  5
1C
330
1B
100
AcDbEntity
 67
     1
  8
0
100
AcDbBlockBegin
  2
*Paper_Space
 70
     0
 10
0.0
 20
0.0
 30
0.0
  3
*Paper_Space
  1

  0
ENDBLK
  5
1D
330
1B
100
AcDbEntity
 67
     1
  8
0
100
AcDbBlockEnd
  0
BLOCK
  5
24
330
23
100
AcDbEntity
  8
0
100
AcDbBlockBegin
  2
*Paper_Space0
 70
     0
 10
0.0
 20
0.0
 30
0.0
  3
*Paper_Space0
  1

  0
ENDBLK
  5
25
330
23
100
AcDbEntity
  8
0
100
AcDbBlockEnd
  0
ENDSEC
  0
SECTION
  2
ENTITIES
  0
LINE
  5
73
330
1F
100
AcDbEntity
  8
0
  6
Continuous
 62
     7
370
    25
100
AcDbLine
 10
26.1360764705
 20
19.7219312149
 30
0.0
 11
26.1359408377
 21
19.7219303731
 31
0.0
  0
LINE
  5
74
330
1F
100
AcDbEntity
  8
0
  6
Continuous
 62
     7
370
    25
100
AcDbLine
 10
16.6872575728
 20
19.7219312149
 30
0.0
 11
16.68712194
 21
19.7219303731
 31
0.0
  0
LINE
  5
75
330
1F
100
AcDbEntity
  8
0
  6
Continuous
 62
     7
370
    25
100
AcDbLine
 10
26.1360764705
 20
19.2101201912
 30
0.0
 11
26.1359408377
 21
19.2101193494
 31
0.0
  0
LWPOLYLINE
  5
76
330
1F
100
AcDbEntity
  8
0
  6
Continuous
 62
     7
370
    25
100
AcDbPolyline
 90
        3
 70
   128
 43
0.0
 10
34.797281971
 20
18.6983071887
 10
34.7974913863
 20
18.698308347
 10
34.7972201149
 20
18.6983057168
  0
LINE
  5
77
330
1F
100
AcDbEntity
  8
0
  6
Continuous
 62
     7
370
    25
100
AcDbLine
 10
34.7974937933
 20
19.7219312149
 30
0.0
 11
34.7973581605
 21
19.7219303731
 31
0.0
  0
LINE
  5
78
330
1F
100
AcDbEntity
  8
0
  6
Continuous
 62
     7
370
    25
100
AcDbLine
 10
21.0179662343
 20
19.7219312149
 30
0.0
 11
21.0178306015
 21
19.7219303731
 31
0.0
  0
LINE
  5
79
330
1F
100
AcDbEntity
  8
0
  6
Continuous
 62
     7
370
    25
100
AcDbLine
 10
21.0179662343
 20
19.2101201912
 30
0.0
 11
21.0178306015
 21
19.2101193494
 31
0.0
  0
LINE
  5
7A
330
1F
100
AcDbEntity
  8
0
  6
Continuous
 62
     7
370
    25
100
AcDbLine
 10
34.7974937933
 20
19.2101201912
 30
0.0
 11
34.7973581605
 21
19.2101193494
 31
0.0
  0
LINE
  5
7B
330
1F
100
AcDbEntity
  8
0
  6
Continuous
 62
     7
370
    25
100
AcDbLine
 10
21.0179662343
 20
18.6983091676
 30
0.0
 11
21.0178306015
 21
18.6983083258
 31
0.0
  0
LINE
  5
7C
330
1F
100
AcDbEntity
  8
0
  6
Continuous
 62
     7
370
    25
100
AcDbLine
 10
16.6872575728
 20
19.2101201912
 30
0.0
 11
16.68712194
 21
19.2101193494
 31
0.0
  0
LWPOLYLINE
  5
7D
330
1F
100
AcDbEntity
  8
0
  6
Continuous
 62
     7
370
    25
100
AcDbPolyline
 90
        3
 70
   128
 43
0.0
 10
26.1358646481
 20
18.6983071887
 10
26.1360740634
 20
18.698308347
 10
26.135802792
 20
18.6983057168
  0
LINE
  5
7E
330
1F
100
AcDbEntity
  8
0
  6
Continuous
 62
     7
370
    25
100
AcDbLine
 10
6.5195679597
 20
17.6086348263
 30
0.0
 11
6.5195679597
 21
17.6716282545
 31
0.0
  0
LINE
  5
7F
330
1F
100
AcDbEntity
  8
0
  6
Continuous
 62
     7
370
    25
100
AcDbLine
 10
6.2754734715
 20
17.6716282707
 30
0.0
 11
6.2754734715
 21
17.6086348263
 31
0.0
  0
LINE
  5
80
330
1F
100
AcDbEntity
  8
0
  6
Continuous
 62
     7
370
    25
100
AcDbLine
 10
7.6809852825
 20
17.6086348263
 30
0.0
 11
7.6809852825
 21
17.6385874164
 31
0.0
  0
LINE
  5
81
330
1F
100
AcDbEntity
  8
0
  6
Continuous
 62
     7
370
    25
100
AcDbLine
 10
9.5820608918
 20
17.671627895
 30
0.0
 11
9.5820608918
 21
17.6125718341
 31
0.0
  0
LINE
  5
82
330
1F
100
AcDbEntity
  8
0
  6
Continuous
 62
     7
370
    25
100
AcDbLine
 10
9.7867833327
 20
17.6125718341
 30
0.0
 11
9.7867833327
 21
17.6716278836
 31
0.0
  0
LINE
  5
83
330
1F
100
AcDbEntity
  8
0
  6
Continuous
 62
     7
370
    25
100
AcDbLine
 10
8.8615884508
 20
17.6716279392
 30
0.0
 11
8.8615884508
 21
17.6125718341
 31
0.0
  0
LINE
  5
84
330
1F
100
AcDbEntity
  8
0
  6
Continuous
 62
     7
370
    25
100
AcDbLine
 10
9.0663108918
 20
17.6125718341
 30
0.0
 11
9.0663108918
 21
17.6716279278
 31
0.0
  0
ARC
  5
85
330
1F
100
AcDbEntity
  8
0
  6
Continuous
 62
     7
370
    25
100
AcDbCircle
 10
25.9611729481
 20
17.4354065066
 30
0.0
 40
0.137795275590553
100
AcDbArc
 50
224.9999968239
 51
269.9999968239
  0
LINE
  5
86
330
1F
100
AcDbEntity
  8
0
  6
Continuous
 62
     7
370
    25
100
AcDbLine
 10
21.0079533336
 20
18.6588893497
 30
0.0
 11
17.7402367981
 21
18.6588893497
 31
0.0
  0
LINE
  5
87
330
1F
100
AcDbEntity
  8
0
  6
Continuous
 62
     7
370
    25
100
AcDbLine
 10
21.0079533336
 20
18.4537544551
 30
0.0
 11
21.0079533336
 21
18.6588893497
 31
0.0
  0
LINE
  5
88
330
1F
100
AcDbEntity
  8
0
  6
Continuous
 62
     7
370
    25
100
AcDbLine
 10
17.7402367981
 20
18.4537544551
 30
0.0
 11
21.0079533336
 21
18.4537544551
 31
0.0
  0
LINE
  5
89
330
1F
100
AcDbEntity
  8
0
  6
Continuous
 62
     7
370
    25
100
AcDbLine
 10
17.7402367981
 20
18.6588893497
 30
0.0
 11
17.7402367981
 21
18.4537544551
 31
0.0
  0
LINE
  5
8A
330
1F
100
AcDbEntity
  8
0
  6
Continuous
 62
     7
370
    25
100
AcDbLine
 10
16.6772446722
 20
18.6588893497
 30
0.0
 11
13.4095281367
 21
18.6588893497
 31
0.0
  0
LINE
  5
8B
330
1F
100
AcDbEntity
  8
0
  6
Continuous
 62
     7
370
    25
100
AcDbLine
 10
16.6772446722
 20
18.4537544551
 30
0.0
 11
16.6772446722
 21
18.6588893497
 31
0.0
  0
LINE
  5
8C
330
1F
100
AcDbEntity
  8
0
  6
Continuous
 62
     7
370
    25
100
AcDbLine
 10
13.4095281367
 20
18.4537544551
 30
0.0
 11
16.6772446722
 21
18.4537544551
 31
0.0
  0
LINE
  5
8D
330
1F
100
AcDbEntity
  8
0
  6
Continuous
 62
     7
370
    25
100
AcDbLine
 10
13.4095281367
 20
18.6588893497
 30
0.0
 11
13.4095281367
 21
18.4537544551
 31
0.0
  0
LINE
  5
8E
330
1F
100
AcDbEntity
  8
0
  6
Continuous
 62
     7
370
    25
100
AcDbLine
 10
34.7874808926
 20
18.6588893497
 30
0.0
 11
31.5197643572
 21
18.6588893497
 31
0.0
  0
LINE
  5
8F
330
1F
100
AcDbEntity
  8
0
  6
Continuous
 62
     7
370
    25
100
AcDbLine
 10
34.7874808926
 20
18.4537544551
 30
0.0
 11
34.7874808926
 21
18.6588893497
 31
0.0
  0
LINE
  5
90
330
1F
100
AcDbEntity
  8
0
  6
Continuous
 62
     7
370
    25
100
AcDbLine
 10
31.5197643572
 20
18.4537544551
 30
0.0
 11
34.7874808926
 21
18.4537544551
 31
0.0
  0
LINE
  5
91
330
1F
100
AcDbEntity
  8
0
  6
Continuous
 62
     7
370
    25
100
AcDbLine
 10
31.5197643572
 20
18.6588893497
 30
0.0
 11
31.5197643572
 21
18.4537544551
 31
0.0
  0
LINE
  5
92
330
1F
100
AcDbEntity
  8
0
  6
Continuous
 62
     7
370
    25
100
AcDbLine
 10
26.1260635698
 20
18.6588893497
 30
0.0
 11
22.8583470344
 21
18.6588893497
 31
0.0
  0
LINE
  5
93
330
1F
100
AcDbEntity
  8
0
  6
Continuous
 62
     7
370
    25
100
AcDbLine
 10
26.1260635698
 20
18.4537544551
 30
0.0
 11
26.1260635698
 21
18.6588893497
 31
0.0
  0
LINE
  5
94
330
1F
100
AcDbEntity
  8
0
  6
Continuous
 62
     7
370
    25
100
AcDbLine
 10
22.8583470344
 20
18.4537544551
 30
0.0
 11
26.1260635698
 21
18.4537544551
 31
0.0
  0
LINE
  5
95
330
1F
100
AcDbEntity
  8
0
  6
Continuous
 62
     7
370
    25
100
AcDbLine
 10
22.8583470344
 20
18.6588893497
 30
0.0
 11
22.8583470344
 21
18.4537544551
 31
0.0
  0
ARC
  5
96
330
1F
100
AcDbEntity
  8
0
  6
Continuous
 62
     7
370
    25
100
AcDbCircle
 10
17.7492481182
 20
18.6347764174
 30
0.0
 40
0.1812461165072208
100
AcDbArc
 50
172.3547184706
 51
267.1501537889
  0
LINE
  5
97
330
1F
100
AcDbEntity
  8
0
  6
Continuous
 62
     7
370
    25
100
AcDbLine
 10
17.7402367981
 20
18.6588893497
 30
0.0
 11
17.5696131515
 21
18.6588893497
 31
0.0
  0
LINE
  5
98
330
1F
100
AcDbEntity
  8
0
  6
Continuous
 62
     7
370
    25
100
AcDbLine
 10
16.8478683188
 20
18.6588893497
 30
0.0
 11
16.6772446722
 21
18.6588893497
 31
0.0
  0
ARC
  5
99
330
1F
100
AcDbEntity
  8
0
  6
Continuous
 62
     7
370
    25
100
AcDbCircle
 10
16.6665747079
 20
18.6361560166
 30
0.0
 40
0.1827133759919096
100
AcDbArc
 50
273.347822346
 51
7.1473053964
  0
ARC
  5
9A
330
1F
100
AcDbEntity
  8
0
  6
Continuous
 62
     7
370
    25
100
AcDbCircle
 10
31.5287756772
 20
18.6347764174
 30
0.0
 40
0.181246116507228
100
AcDbArc
 50
172.3547184706
 51
267.1501537889
  0
LINE
  5
9B
330
1F
100
AcDbEntity
  8
0
  6
Continuous
 62
     7
370
    25
100
AcDbLine
 10
31.5197643572
 20
18.6588893497
 30
0.0
 11
31.3491407106
 21
18.6588893497
 31
0.0
  0
LINE
  5
9C
330
1F
100
AcDbEntity
  8
0
  6
Continuous
 62
     7
370
    25
100
AcDbLine
 10
26.2966872164
 20
18.6588893497
 30
0.0
 11
26.1260635698
 21
18.6588893497
 31
0.0
  0
ARC
  5
9D
330
1F
100
AcDbEntity
  8
0
  6
Continuous
 62
     7
370
    25
100
AcDbCircle
 10
26.1153936056
 20
18.6361560166
 30
0.0
 40
0.1827133759919128
100
AcDbArc
 50
273.347822346
 51
7.1473053964
  0
LINE
  5
9E
330
1F
100
AcDbEntity
  8
0
  6
Continuous
 62
     7
370
    25
100
AcDbLine
 10
34.9581045393
 20
18.6588893497
 30
0.0
 11
34.7874808926
 21
18.6588893497
 31
0.0
  0
ARC
  5
9F
330
1F
100
AcDbEntity
  8
0
  6
Continuous
 62
     7
370
    25
100
AcDbCircle
 10
34.7768109284
 20
18.6361560166
 30
0.0
 40
0.1827133759919128
100
AcDbArc
 50
273.347822346
 51
7.1473053964
  0
ARC
  5
A0
330
1F
100
AcDbEntity
  8
0
  6
Continuous
 62
     7
370
    25
100
AcDbCircle
 10
22.8673583544
 20
18.6347764174
 30
0.0
 40
0.1812461165072277
100
AcDbArc
 50
172.3547184706
 51
267.1501537889
  0
LINE
  5
A1
330
1F
100
AcDbEntity
  8
0
  6
Continuous
 62
     7
370
    25
100
AcDbLine
 10
22.8583470344
 20
18.6588893497
 30
0.0
 11
22.6877233877
 21
18.6588893497
 31
0.0
  0
ARC
  5
A2
330
1F
100
AcDbEntity
  8
0
  6
Continuous
 62
     7
370
    25
100
AcDbCircle
 10
13.4185394568
 20
18.6347764174
 30
0.0
 40
0.1812461165072317
100
AcDbArc
 50
172.3547184706
 51
267.1501537889
  0
LINE
  5
A3
330
1F
100
AcDbEntity
  8
0
  6
Continuous
 62
     7
370
    25
100
AcDbLine
 10
13.4095281367
 20
18.6588893497
 30
0.0
 11
13.2389044901
 21
18.6588893497
 31
0.0
  0
LINE
  5
A4
330
1F
100
AcDbEntity
  8
0
  6
Continuous
 62
     7
370
    25
100
AcDbLine
 10
21.1785769802
 20
18.6588893497
 30
0.0
 11
21.0079533336
 21
18.6588893497
 31
0.0
  0
ARC
  5
A5
330
1F
100
AcDbEntity
  8
0
  6
Continuous
 62
     7
370
    25
100
AcDbCircle
 10
20.9972833694
 20
18.6361560166
 30
0.0
 40
0.1827133759919096
100
AcDbArc
 50
273.347822346
 51
7.1473053964
  0
ARC
  5
A6
330
1F
100
AcDbEntity
  8
0
  6
Continuous
 62
     7
370
    25
100
AcDbCircle
 10
26.3388132513
 20
19.6359408707
 30
0.0
 40
0.1153143754713172
100
AcDbArc
 50
92.1933130735
 51
111.4269503233
  0
ELLIPSE
  5
A7
330
1F
100
AcDbEntity
  8
0
  6
Continuous
 62
     7
370
    25
100
AcDbEllipse
 10
26.1260635698
 20
19.7511707657
 30
0.0
 11
0.1771653543307039
 21
0.0
 31
0.0
210
0.0
220
0.0
230
1.0
 40
0.1653217702
 41
4.712388980384691
 42
6.010591088052488
  0
ELLIPSE
  5
A8
330
1F
100
AcDbEntity
  8
0
  6
Continuous
 62
     7
370
    25
100
AcDbEllipse
 10
26.1260635698
 20
19.7511707657
 30
0.0
 11
0.1377952755905483
 21
0.0
 31
0.0
210
0.0
220
0.0
230
1.0
 40
0.2125565617
 41
4.712388980384692
 42
6.01059108805246
  0
LINE
  5
A9
330
1F
100
AcDbEntity
  8
0
  6
Continuous
 62
     7
370
    25
100
AcDbLine
 10
26.2765869331
 20
19.7511707657
 30
0.0
 11
26.2587708505
 21
19.7432851876
 31
0.0
  0
LINE
  5
AA
330
1F
100
AcDbEntity
  8
0
  6
Continuous
 62
     7
370
    25
100
AcDbLine
 10
26.2765869331
 20
19.7511707657
 30
0.0
 11
26.3344000334
 21
19.7511707657
 31
0.0
  0
ELLIPSE
  5
AB
330
1F
100
AcDbEntity
  8
0
  6
Continuous
 62
     7
370
    25
100
AcDbEllipse
 10
22.8583470344
 20
19.2393597421
 30
0.0
 11
0.1771653543307075
 21
0.0
 31
0.0
210
0.0
220
0.0
230
1.0
 40
0.1653217702
 41
3.41418687271704
 42
4.712388980384691
  0
ARC
  5
AC
330
1F
100
AcDbEntity
  8
0
  6
Continuous
 62
     7
370
    25
100
AcDbCircle
 10
22.6508434855
 20
19.1492195029
 30
0.0
 40
0.0901440872539728
100
AcDbArc
 50
65.8503266495
 51
90.5294099538
  0
LINE
  5
AD
330
1F
100
AcDbEntity
  8
0
  6
Continuous
 62
     7
370
    25
100
AcDbLine
 10
22.7078236711
 20
19.2393597421
 30
0.0
 11
22.6500105707
 21
19.2393597421
 31
0.0
  0
LINE
  5
AE
330
1F
100
AcDbEntity
  8
0
  6
Continuous
 62
     7
370
    25
100
AcDbLine
 10
22.7256397537
 20
19.231474164
 30
0.0
 11
22.7078236711
 21
19.2393597421
 31
0.0
  0
ELLIPSE
  5
AF
330
1F
100
AcDbEntity
  8
0
  6
Continuous
 62
     7
370
    25
100
AcDbEllipse
 10
22.8583470344
 20
19.2393597421
 30
0.0
 11
0.1377952755905483
 21
0.0
 31
0.0
210
0.0
220
0.0
230
1.0
 40
0.2125565617
 41
3.414186872717016
 42
4.712388980384692
  0
LINE
  5
B0
330
1F
100
AcDbEntity
  8
0
  6
Continuous
 62
     7
370
    25
100
AcDbLine
 10
34.7874808926
 20
18.6588893497
 30
0.0
 11
34.7874808926
 21
18.6982594285
 31
0.0
  0
ELLIPSE
  5
B1
330
1F
100
AcDbEntity
  8
0
  6
Continuous
 62
     7
370
    25
100
AcDbEllipse
 10
34.7874808926
 20
18.7275487185
 30
0.0
 11
0.177165354330711
 21
0.0
 31
0.0
210
0.0
220
0.0
230
1.0
 40
0.1653217702
 41
4.712388980384691
 42
6.010591088052488
  0
LINE
  5
B2
330
1F
100
AcDbEntity
  8
0
  6
Continuous
 62
     7
370
    25
100
AcDbLine
 10
34.9581045393
 20
18.6588893497
 30
0.0
 11
34.9581045393
 21
18.7196631404
 31
0.0
  0
LINE
  5
B3
330
1F
100
AcDbEntity
  8
0
  6
Continuous
 62
     7
370
    25
100
AcDbLine
 10
13.4095281367
 20
19.7218814757
 30
0.0
 11
13.4095281367
 21
19.682511397
 31
0.0
  0
LINE
  5
B4
330
1F
100
AcDbEntity
  8
0
  6
Continuous
 62
     7
370
    25
100
AcDbLine
 10
13.4095281367
 20
19.682511397
 30
0.0
 11
13.2389044901
 21
19.682511397
 31
0.0
  0
LINE
  5
B5
330
1F
100
AcDbEntity
  8
0
  6
Continuous
 62
     7
370
    25
100
AcDbLine
 10
13.2389044901
 20
19.7432851876
 30
0.0
 11
13.2389044901
 21
19.682511397
 31
0.0
  0
ELLIPSE
  5
B6
330
1F
100
AcDbEntity
  8
0
  6
Continuous
 62
     7
370
    25
100
AcDbEllipse
 10
13.4095281367
 20
19.7511707657
 30
0.0
 11
0.1771653543307075
 21
0.0
 31
0.0
210
0.0
220
0.0
230
1.0
 40
0.1653217702
 41
3.414186872716777
 42
4.712388980384691
  0
LINE
  5
B7
330
1F
100
AcDbEntity
  8
0
  6
Continuous
 62
     7
370
    25
100
AcDbLine
 10
13.4095281367
 20
18.6982594285
 30
0.0
 11
13.4095281367
 21
18.6588893497
 31
0.0
  0
LINE
  5
B8
330
1F
100
AcDbEntity
  8
0
  6
Continuous
 62
     7
370
    25
100
AcDbLine
 10
13.2389044901
 20
18.7196631404
 30
0.0
 11
13.2389044901
 21
18.6588893497
 31
0.0
  0
ELLIPSE
  5
B9
330
1F
100
AcDbEntity
  8
0
  6
Continuous
 62
     7
370
    25
100
AcDbEllipse
 10
13.4095281367
 20
18.7275487185
 30
0.0
 11
0.1771653543307075
 21
0.0
 31
0.0
210
0.0
220
0.0
230
1.0
 40
0.1653217702
 41
3.414186872717011
 42
4.712388980384691
  0
LINE
  5
BA
330
1F
100
AcDbEntity
  8
0
  6
Continuous
 62
     7
370
    25
100
AcDbLine
 10
34.9581045393
 20
19.1707003733
 30
0.0
 11
34.7874808926
 21
19.1707003733
 31
0.0
  0
ARC
  5
BB
330
1F
100
AcDbEntity
  8
0
  6
Continuous
 62
     7
370
    25
100
AcDbCircle
 10
34.7768109284
 20
19.1479670402
 30
0.0
 40
0.182713375991911
100
AcDbArc
 50
273.347822346
 51
7.1473053964
  0
LINE
  5
BC
330
1F
100
AcDbEntity
  8
0
  6
Continuous
 62
     7
370
    25
100
AcDbLine
 10
34.7874808926
 20
18.9655654787
 30
0.0
 11
34.7874808926
 21
19.1707003733
 31
0.0
  0
ELLIPSE
  5
BD
330
1F
100
AcDbEntity
  8
0
  6
Continuous
 62
     7
370
    25
100
AcDbEllipse
 10
13.4095281367
 20
19.2393597421
 30
0.0
 11
0.1771653543307075
 21
0.0
 31
0.0
210
0.0
220
0.0
230
1.0
 40
0.1653217702
 41
3.414186872717043
 42
4.712388980384691
  0
ARC
  5
BE
330
1F
100
AcDbEntity
  8
0
  6
Continuous
 62
     7
370
    25
100
AcDbCircle
 10
13.2020245878
 20
19.1492195029
 30
0.0
 40
0.0901440872539408
100
AcDbArc
 50
65.8503266495
 51
90.5294099538
  0
LINE
  5
BF
330
1F
100
AcDbEntity
  8
0
  6
Continuous
 62
     7
370
    25
100
AcDbLine
 10
13.2590047735
 20
19.2393597421
 30
0.0
 11
13.2011916731
 21
19.2393597421
 31
0.0
  0
LINE
  5
C0
330
1F
100
AcDbEntity
  8
0
  6
Continuous
 62
     7
370
    25
100
AcDbLine
 10
13.276820856
 20
19.231474164
 30
0.0
 11
13.2590047735
 21
19.2393597421
 31
0.0
  0
ELLIPSE
  5
C1
330
1F
100
AcDbEntity
  8
0
  6
Continuous
 62
     7
370
    25
100
AcDbEllipse
 10
13.4095281367
 20
19.2393597421
 30
0.0
 11
0.13779527559055
 21
0.0
 31
0.0
210
0.0
220
0.0
230
1.0
 40
0.2125565617
 41
3.414186872717024
 42
4.712388980384692
  0
LINE
  5
C2
330
1F
100
AcDbEntity
  8
0
  6
Continuous
 62
     7
370
    25
100
AcDbLine
 10
22.8583470344
 20
19.682511397
 30
0.0
 11
22.8583470344
 21
19.4773765023
 31
0.0
  0
ARC
  5
C3
330
1F
100
AcDbEntity
  8
0
  6
Continuous
 62
     7
370
    25
100
AcDbCircle
 10
22.8673583544
 20
19.6583984647
 30
0.0
 40
0.1812461165072312
100
AcDbArc
 50
172.3547184706
 51
267.1501537889
  0
LINE
  5
C4
330
1F
100
AcDbEntity
  8
0
  6
Continuous
 62
     7
370
    25
100
AcDbLine
 10
22.8583470344
 20
19.682511397
 30
0.0
 11
22.6877233877
 21
19.682511397
 31
0.0
  0
LINE
  5
C5
330
1F
100
AcDbEntity
  8
0
  6
Continuous
 62
     7
370
    25
100
AcDbLine
 10
31.5197643572
 20
19.2100704521
 30
0.0
 11
31.5197643572
 21
19.1707003733
 31
0.0
  0
LINE
  5
C6
330
1F
100
AcDbEntity
  8
0
  6
Continuous
 62
     7
370
    25
100
AcDbLine
 10
31.5197643572
 20
19.1707003733
 30
0.0
 11
31.3491407106
 21
19.1707003733
 31
0.0
  0
LINE
  5
C7
330
1F
100
AcDbEntity
  8
0
  6
Continuous
 62
     7
370
    25
100
AcDbLine
 10
31.3491407106
 20
19.231474164
 30
0.0
 11
31.3491407106
 21
19.1707003733
 31
0.0
  0
ELLIPSE
  5
C8
330
1F
100
AcDbEntity
  8
0
  6
Continuous
 62
     7
370
    25
100
AcDbEllipse
 10
31.5197643572
 20
19.2393597421
 30
0.0
 11
0.177165354330711
 21
0.0
 31
0.0
210
0.0
220
0.0
230
1.0
 40
0.1653217702
 41
3.414186872717056
 42
4.712388980384691
  0
ARC
  5
C9
330
1F
100
AcDbEntity
  8
0
  6
Continuous
 62
     7
370
    25
100
AcDbCircle
 10
16.8899943537
 20
19.6359408707
 30
0.0
 40
0.1153143754713459
100
AcDbArc
 50
92.1933130735
 51
111.4269503232
  0
ELLIPSE
  5
CA
330
1F
100
AcDbEntity
  8
0
  6
Continuous
 62
     7
370
    25
100
AcDbEllipse
 10
16.6772446722
 20
19.7511707657
 30
0.0
 11
0.1771653543307075
 21
0.0
 31
0.0
210
0.0
220
0.0
230
1.0
 40
0.1653217702
 41
4.712388980384691
 42
6.010591088052493
  0
ELLIPSE
  5
CB
330
1F
100
AcDbEntity
  8
0
  6
Continuous
 62
     7
370
    25
100
AcDbEllipse
 10
16.6772446722
 20
19.7511707657
 30
0.0
 11
0.1377952755905518
 21
0.0
 31
0.0
210
0.0
220
0.0
230
1.0
 40
0.2125565617
 41
4.712388980384692
 42
6.010591088052462
  0
LINE
  5
CC
330
1F
100
AcDbEntity
  8
0
  6
Continuous
 62
     7
370
    25
100
AcDbLine
 10
16.8277680354
 20
19.7511707657
 30
0.0
 11
16.8099519529
 21
19.7432851876
 31
0.0
  0
LINE
  5
CD
330
1F
100
AcDbEntity
  8
0
  6
Continuous
 62
     7
370
    25
100
AcDbLine
 10
16.8277680354
 20
19.7511707657
 30
0.0
 11
16.8855811358
 21
19.7511707657
 31
0.0
  0
LINE
  5
CE
330
1F
100
AcDbEntity
  8
0
  6
Continuous
 62
     7
370
    25
100
AcDbLine
 10
16.6772446722
 20
18.6982594285
 30
0.0
 11
13.4095281367
 21
18.6982594285
 31
0.0
  0
LINE
  5
CF
330
1F
100
AcDbEntity
  8
0
  6
Continuous
 62
     7
370
    25
100
AcDbLine
 10
16.6772446722
 20
18.6588893497
 30
0.0
 11
16.6772446722
 21
18.6982594285
 31
0.0
  0
ELLIPSE
  5
D0
330
1F
100
AcDbEntity
  8
0
  6
Continuous
 62
     7
370
    25
100
AcDbEllipse
 10
31.5197643572
 20
18.7275487185
 30
0.0
 11
0.177165354330711
 21
0.0
 31
0.0
210
0.0
220
0.0
230
1.0
 40
0.1653217702
 41
3.414186872717024
 42
4.712388980384691
  0
ARC
  5
D1
330
1F
100
AcDbEntity
  8
0
  6
Continuous
 62
     7
370
    25
100
AcDbCircle
 10
31.3122608083
 20
18.6374084793
 30
0.0
 40
0.0901440872541893
100
AcDbArc
 50
65.8503266495
 51
90.5294099537
  0
LINE
  5
D2
330
1F
100
AcDbEntity
  8
0
  6
Continuous
 62
     7
370
    25
100
AcDbLine
 10
31.369240994
 20
18.7275487185
 30
0.0
 11
31.3114278936
 21
18.7275487185
 31
0.0
  0
LINE
  5
D3
330
1F
100
AcDbEntity
  8
0
  6
Continuous
 62
     7
370
    25
100
AcDbLine
 10
31.3870570765
 20
18.7196631404
 30
0.0
 11
31.369240994
 21
18.7275487185
 31
0.0
  0
ELLIPSE
  5
D4
330
1F
100
AcDbEntity
  8
0
  6
Continuous
 62
     7
370
    25
100
AcDbEllipse
 10
31.5197643572
 20
18.7275487185
 30
0.0
 11
0.1377952755905518
 21
0.0
 31
0.0
210
0.0
220
0.0
230
1.0
 40
0.2125565617
 41
3.414186872716999
 42
4.712388980384692
  0
LINE
  5
D5
330
1F
100
AcDbEntity
  8
0
  6
Continuous
 62
     7
370
    25
100
AcDbLine
 10
31.5197643572
 20
19.7218814757
 30
0.0
 11
31.5197643572
 21
19.682511397
 31
0.0
  0
LINE
  5
D6
330
1F
100
AcDbEntity
  8
0
  6
Continuous
 62
     7
370
    25
100
AcDbLine
 10
34.7874808926
 20
19.7218814757
 30
0.0
 11
31.5197643572
 21
19.7218814757
 31
0.0
  0
LINE
  5
D7
330
1F
100
AcDbEntity
  8
0
  6
Continuous
 62
     7
370
    25
100
AcDbLine
 10
34.7874808926
 20
19.682511397
 30
0.0
 11
34.7874808926
 21
19.7218814757
 31
0.0
  0
LINE
  5
D8
330
1F
100
AcDbEntity
  8
0
  6
Continuous
 62
     7
370
    25
100
AcDbLine
 10
34.7874808926
 20
19.682511397
 30
0.0
 11
31.5197643572
 21
19.682511397
 31
0.0
  0
ELLIPSE
  5
D9
330
1F
100
AcDbEntity
  8
0
  6
Continuous
 62
     7
370
    25
100
AcDbEllipse
 10
22.8583470344
 20
19.7511707657
 30
0.0
 11
0.1771653543307075
 21
0.0
 31
0.0
210
0.0
220
0.0
230
1.0
 40
0.1653217702
 41
3.414186872716774
 42
4.712388980384691
  0
ARC
  5
DA
330
1F
100
AcDbEntity
  8
0
  6
Continuous
 62
     7
370
    25
100
AcDbCircle
 10
22.6508434855
 20
19.6610305265
 30
0.0
 40
0.0901440872540793
100
AcDbArc
 50
65.8503266495
 51
90.5294099538
  0
LINE
  5
DB
330
1F
100
AcDbEntity
  8
0
  6
Continuous
 62
     7
370
    25
100
AcDbLine
 10
22.7078236711
 20
19.7511707657
 30
0.0
 11
22.6500105707
 21
19.7511707657
 31
0.0
  0
LINE
  5
DC
330
1F
100
AcDbEntity
  8
0
  6
Continuous
 62
     7
370
    25
100
AcDbLine
 10
22.7256397537
 20
19.7432851876
 30
0.0
 11
22.7078236711
 21
19.7511707657
 31
0.0
  0
ELLIPSE
  5
DD
330
1F
100
AcDbEntity
  8
0
  6
Continuous
 62
     7
370
    25
100
AcDbEllipse
 10
22.8583470344
 20
19.7511707657
 30
0.0
 11
0.1377952755905483
 21
0.0
 31
0.0
210
0.0
220
0.0
230
1.0
 40
0.2125565617
 41
3.414186872716752
 42
4.712388980384692
  0
LINE
  5
DE
330
1F
100
AcDbEntity
  8
0
  6
Continuous
 62
     7
370
    25
100
AcDbLine
 10
13.4095281367
 20
19.2100704521
 30
0.0
 11
13.4095281367
 21
19.1707003733
 31
0.0
  0
LINE
  5
DF
330
1F
100
AcDbEntity
  8
0
  6
Continuous
 62
     7
370
    25
100
AcDbLine
 10
16.6772446722
 20
19.2100704521
 30
0.0
 11
13.4095281367
 21
19.2100704521
 31
0.0
  0
LINE
  5
E0
330
1F
100
AcDbEntity
  8
0
  6
Continuous
 62
     7
370
    25
100
AcDbLine
 10
16.6772446722
 20
19.1707003733
 30
0.0
 11
16.6772446722
 21
19.2100704521
 31
0.0
  0
LINE
  5
E1
330
1F
100
AcDbEntity
  8
0
  6
Continuous
 62
     7
370
    25
100
AcDbLine
 10
16.6772446722
 20
19.1707003733
 30
0.0
 11
13.4095281367
 21
19.1707003733
 31
0.0
  0
ARC
  5
E2
330
1F
100
AcDbEntity
  8
0
  6
Continuous
 62
     7
370
    25
100
AcDbCircle
 10
26.3388132513
 20
19.1241298471
 30
0.0
 40
0.1153143754714109
100
AcDbArc
 50
92.1933130735
 51
111.4269503232
  0
ELLIPSE
  5
E3
330
1F
100
AcDbEntity
  8
0
  6
Continuous
 62
     7
370
    25
100
AcDbEllipse
 10
26.1260635698
 20
19.2393597421
 30
0.0
 11
0.1771653543307039
 21
0.0
 31
0.0
210
0.0
220
0.0
230
1.0
 40
0.1653217702
 41
4.712388980384691
 42
6.010591088052457
  0
ELLIPSE
  5
E4
330
1F
100
AcDbEntity
  8
0
  6
Continuous
 62
     7
370
    25
100
AcDbEllipse
 10
26.1260635698
 20
19.2393597421
 30
0.0
 11
0.1377952755905483
 21
0.0
 31
0.0
210
0.0
220
0.0
230
1.0
 40
0.2125565617
 41
4.712388980384692
 42
6.010591088052429
  0
LINE
  5
E5
330
1F
100
AcDbEntity
  8
0
  6
Continuous
 62
     7
370
    25
100
AcDbLine
 10
26.2765869331
 20
19.2393597421
 30
0.0
 11
26.2587708505
 21
19.231474164
 31
0.0
  0
LINE
  5
E6
330
1F
100
AcDbEntity
  8
0
  6
Continuous
 62
     7
370
    25
100
AcDbLine
 10
26.2765869331
 20
19.2393597421
 30
0.0
 11
26.3344000334
 21
19.2393597421
 31
0.0
  0
ARC
  5
E7
330
1F
100
AcDbEntity
  8
0
  6
Continuous
 62
     7
370
    25
100
AcDbCircle
 10
35.0002305742
 20
18.6123188235
 30
0.0
 40
0.1153143754716929
100
AcDbArc
 50
92.1933130735
 51
111.4269503232
  0
ELLIPSE
  5
E8
330
1F
100
AcDbEntity
  8
0
  6
Continuous
 62
     7
370
    25
100
AcDbEllipse
 10
34.7874808926
 20
18.7275487185
 30
0.0
 11
0.1377952755905483
 21
0.0
 31
0.0
210
0.0
220
0.0
230
1.0
 40
0.2125565617
 41
4.712388980384692
 42
6.010591088052453
  0
LINE
  5
E9
330
1F
100
AcDbEntity
  8
0
  6
Continuous
 62
     7
370
    25
100
AcDbLine
 10
34.9380042559
 20
18.7275487185
 30
0.0
 11
34.9201881733
 21
18.7196631404
 31
0.0
  0
LINE
  5
EA
330
1F
100
AcDbEntity
  8
0
  6
Continuous
 62
     7
370
    25
100
AcDbLine
 10
34.9380042559
 20
18.7275487185
 30
0.0
 11
34.9958173563
 21
18.7275487185
 31
0.0
  0
ARC
  5
EB
330
1F
100
AcDbEntity
  8
0
  6
Continuous
 62
     7
370
    25
100
AcDbCircle
 10
35.0002305742
 20
19.6359408707
 30
0.0
 40
0.1153143754713246
100
AcDbArc
 50
92.1933130735
 51
111.4269503233
  0
ELLIPSE
  5
EC
330
1F
100
AcDbEntity
  8
0
  6
Continuous
 62
     7
370
    25
100
AcDbEllipse
 10
34.7874808926
 20
19.7511707657
 30
0.0
 11
0.177165354330711
 21
0.0
 31
0.0
210
0.0
220
0.0
230
1.0
 40
0.1653217702
 41
4.712388980384691
 42
6.010591088052488
  0
ELLIPSE
  5
ED
330
1F
100
AcDbEntity
  8
0
  6
Continuous
 62
     7
370
    25
100
AcDbEllipse
 10
34.7874808926
 20
19.7511707657
 30
0.0
 11
0.1377952755905483
 21
0.0
 31
0.0
210
0.0
220
0.0
230
1.0
 40
0.2125565617
 41
4.712388980384692
 42
6.010591088052453
  0
LINE
  5
EE
330
1F
100
AcDbEntity
  8
0
  6
Continuous
 62
     7
370
    25
100
AcDbLine
 10
34.9380042559
 20
19.7511707657
 30
0.0
 11
34.9201881733
 21
19.7432851876
 31
0.0
  0
LINE
  5
EF
330
1F
100
AcDbEntity
  8
0
  6
Continuous
 62
     7
370
    25
100
AcDbLine
 10
34.9380042559
 20
19.7511707657
 30
0.0
 11
34.9958173563
 21
19.7511707657
 31
0.0
  0
LINE
  5
F0
330
1F
100
AcDbEntity
  8
0
  6
Continuous
 62
     7
370
    25
100
AcDbLine
 10
34.9581045393
 20
19.682511397
 30
0.0
 11
34.7874808926
 21
19.682511397
 31
0.0
  0
ARC
  5
F1
330
1F
100
AcDbEntity
  8
0
  6
Continuous
 62
     7
370
    25
100
AcDbCircle
 10
34.7768109284
 20
19.6597780638
 30
0.0
 40
0.182713375991915
100
AcDbArc
 50
273.347822346
 51
7.1473053964
  0
LINE
  5
F2
330
1F
100
AcDbEntity
  8
0
  6
Continuous
 62
     7
370
    25
100
AcDbLine
 10
34.7874808926
 20
19.4773765023
 30
0.0
 11
34.7874808926
 21
19.682511397
 31
0.0
  0
ELLIPSE
  5
F3
330
1F
100
AcDbEntity
  8
0
  6
Continuous
 62
     7
370
    25
100
AcDbEllipse
 10
17.7402367981
 20
18.7275487185
 30
0.0
 11
0.177165354330711
 21
0.0
 31
0.0
210
0.0
220
0.0
230
1.0
 40
0.1653217702
 41
3.414186872717029
 42
4.712388980384691
  0
ARC
  5
F4
330
1F
100
AcDbEntity
  8
0
  6
Continuous
 62
     7
370
    25
100
AcDbCircle
 10
17.5327332492
 20
18.6374084793
 30
0.0
 40
0.0901440872542813
100
AcDbArc
 50
65.8503266495
 51
90.5294099537
  0
LINE
  5
F5
330
1F
100
AcDbEntity
  8
0
  6
Continuous
 62
     7
370
    25
100
AcDbLine
 10
17.5897134349
 20
18.7275487185
 30
0.0
 11
17.5319003345
 21
18.7275487185
 31
0.0
  0
LINE
  5
F6
330
1F
100
AcDbEntity
  8
0
  6
Continuous
 62
     7
370
    25
100
AcDbLine
 10
17.6075295174
 20
18.7196631404
 30
0.0
 11
17.5897134349
 21
18.7275487185
 31
0.0
  0
ELLIPSE
  5
F7
330
1F
100
AcDbEntity
  8
0
  6
Continuous
 62
     7
370
    25
100
AcDbEllipse
 10
17.7402367981
 20
18.7275487185
 30
0.0
 11
0.1377952755905518
 21
0.0
 31
0.0
210
0.0
220
0.0
230
1.0
 40
0.2125565617
 41
3.414186872717013
 42
4.712388980384692
  0
ARC
  5
F8
330
1F
100
AcDbEntity
  8
0
  6
Continuous
 62
     7
370
    25
100
AcDbCircle
 10
21.2207030151
 20
19.6359408707
 30
0.0
 40
0.1153143754713674
100
AcDbArc
 50
92.1933130735
 51
111.4269503232
  0
ELLIPSE
  5
F9
330
1F
100
AcDbEntity
  8
0
  6
Continuous
 62
     7
370
    25
100
AcDbEllipse
 10
21.0079533336
 20
19.7511707657
 30
0.0
 11
0.177165354330711
 21
0.0
 31
0.0
210
0.0
220
0.0
230
1.0
 40
0.1653217702
 41
4.712388980384691
 42
6.010591088052488
  0
ELLIPSE
  5
FA
330
1F
100
AcDbEntity
  8
0
  6
Continuous
 62
     7
370
    25
100
AcDbEllipse
 10
21.0079533336
 20
19.7511707657
 30
0.0
 11
0.1377952755905518
 21
0.0
 31
0.0
210
0.0
220
0.0
230
1.0
 40
0.2125565617
 41
4.712388980384692
 42
6.010591088052462
  0
LINE
  5
FB
330
1F
100
AcDbEntity
  8
0
  6
Continuous
 62
     7
370
    25
100
AcDbLine
 10
21.1584766968
 20
19.7511707657
 30
0.0
 11
21.1406606143
 21
19.7432851876
 31
0.0
  0
LINE
  5
FC
330
1F
100
AcDbEntity
  8
0
  6
Continuous
 62
     7
370
    25
100
AcDbLine
 10
21.1584766968
 20
19.7511707657
 30
0.0
 11
21.2162897972
 21
19.7511707657
 31
0.0
  0
LINE
  5
FD
330
1F
100
AcDbEntity
  8
0
  6
Continuous
 62
     7
370
    25
100
AcDbLine
 10
34.7874808926
 20
19.1707003733
 30
0.0
 11
31.5197643572
 21
19.1707003733
 31
0.0
  0
LINE
  5
FE
330
1F
100
AcDbEntity
  8
0
  6
Continuous
 62
     7
370
    25
100
AcDbLine
 10
31.5197643572
 20
18.9655654787
 30
0.0
 11
34.7874808926
 21
18.9655654787
 31
0.0
  0
LINE
  5
FF
330
1F
100
AcDbEntity
  8
0
  6
Continuous
 62
     7
370
    25
100
AcDbLine
 10
31.5197643572
 20
19.1707003733
 30
0.0
 11
31.5197643572
 21
18.9655654787
 31
0.0
  0
LINE
  5
100
330
1F
100
AcDbEntity
  8
0
  6
Continuous
 62
     7
370
    25
100
AcDbLine
 10
26.1260635698
 20
19.1707003733
 30
0.0
 11
22.8583470344
 21
19.1707003733
 31
0.0
  0
LINE
  5
101
330
1F
100
AcDbEntity
  8
0
  6
Continuous
 62
     7
370
    25
100
AcDbLine
 10
26.1260635698
 20
18.9655654787
 30
0.0
 11
26.1260635698
 21
19.1707003733
 31
0.0
  0
LINE
  5
102
330
1F
100
AcDbEntity
  8
0
  6
Continuous
 62
     7
370
    25
100
AcDbLine
 10
22.8583470344
 20
18.9655654787
 30
0.0
 11
26.1260635698
 21
18.9655654787
 31
0.0
  0
LINE
  5
103
330
1F
100
AcDbEntity
  8
0
  6
Continuous
 62
     7
370
    25
100
AcDbLine
 10
22.8583470344
 20
19.1707003733
 30
0.0
 11
22.8583470344
 21
18.9655654787
 31
0.0
  0
ARC
  5
104
330
1F
100
AcDbEntity
  8
0
  6
Continuous
 62
     7
370
    25
100
AcDbCircle
 10
22.8673583544
 20
19.1465874411
 30
0.0
 40
0.1812461165072334
100
AcDbArc
 50
172.3547184706
 51
267.1501537889
  0
LINE
  5
105
330
1F
100
AcDbEntity
  8
0
  6
Continuous
 62
     7
370
    25
100
AcDbLine
 10
22.8583470344
 20
19.1707003733
 30
0.0
 11
22.6877233877
 21
19.1707003733
 31
0.0
  0
ARC
  5
106
330
1F
100
AcDbEntity
  8
0
  6
Continuous
 62
     7
370
    25
100
AcDbCircle
 10
21.2207030151
 20
19.1241298471
 30
0.0
 40
0.1153143754714604
100
AcDbArc
 50
92.1933130735
 51
111.4269503232
  0
ELLIPSE
  5
107
330
1F
100
AcDbEntity
  8
0
  6
Continuous
 62
     7
370
    25
100
AcDbEllipse
 10
21.0079533336
 20
19.2393597421
 30
0.0
 11
0.177165354330711
 21
0.0
 31
0.0
210
0.0
220
0.0
230
1.0
 40
0.1653217702
 41
4.712388980384691
 42
6.010591088052457
  0
ELLIPSE
  5
108
330
1F
100
AcDbEntity
  8
0
  6
Continuous
 62
     7
370
    25
100
AcDbEllipse
 10
21.0079533336
 20
19.2393597421
 30
0.0
 11
0.1377952755905518
 21
0.0
 31
0.0
210
0.0
220
0.0
230
1.0
 40
0.2125565617
 41
4.712388980384692
 42
6.01059108805243
  0
LINE
  5
109
330
1F
100
AcDbEntity
  8
0
  6
Continuous
 62
     7
370
    25
100
AcDbLine
 10
21.1584766968
 20
19.2393597421
 30
0.0
 11
21.1406606143
 21
19.231474164
 31
0.0
  0
LINE
  5
10A
330
1F
100
AcDbEntity
  8
0
  6
Continuous
 62
     7
370
    25
100
AcDbLine
 10
21.1584766968
 20
19.2393597421
 30
0.0
 11
21.2162897972
 21
19.2393597421
 31
0.0
  0
LINE
  5
10B
330
1F
100
AcDbEntity
  8
0
  6
Continuous
 62
     7
370
    25
100
AcDbLine
 10
26.1260635698
 20
19.682511397
 30
0.0
 11
22.8583470344
 21
19.682511397
 31
0.0
  0
LINE
  5
10C
330
1F
100
AcDbEntity
  8
0
  6
Continuous
 62
     7
370
    25
100
AcDbLine
 10
26.1260635698
 20
19.4773765023
 30
0.0
 11
26.1260635698
 21
19.682511397
 31
0.0
  0
LINE
  5
10D
330
1F
100
AcDbEntity
  8
0
  6
Continuous
 62
     7
370
    25
100
AcDbLine
 10
22.8583470344
 20
19.4773765023
 30
0.0
 11
26.1260635698
 21
19.4773765023
 31
0.0
  0
LINE
  5
10E
330
1F
100
AcDbEntity
  8
0
  6
Continuous
 62
     7
370
    25
100
AcDbLine
 10
13.4095281367
 20
19.682511397
 30
0.0
 11
13.4095281367
 21
19.4773765023
 31
0.0
  0
ARC
  5
10F
330
1F
100
AcDbEntity
  8
0
  6
Continuous
 62
     7
370
    25
100
AcDbCircle
 10
13.4185394568
 20
19.6583984647
 30
0.0
 40
0.1812461165072334
100
AcDbArc
 50
172.3547184706
 51
267.1501537889
  0
LINE
  5
110
330
1F
100
AcDbEntity
  8
0
  6
Continuous
 62
     7
370
    25
100
AcDbLine
 10
17.7402367981
 20
19.7218814757
 30
0.0
 11
17.7402367981
 21
19.682511397
 31
0.0
  0
LINE
  5
111
330
1F
100
AcDbEntity
  8
0
  6
Continuous
 62
     7
370
    25
100
AcDbLine
 10
17.7402367981
 20
19.682511397
 30
0.0
 11
17.5696131515
 21
19.682511397
 31
0.0
  0
LINE
  5
112
330
1F
100
AcDbEntity
  8
0
  6
Continuous
 62
     7
370
    25
100
AcDbLine
 10
17.5696131515
 20
19.7432851876
 30
0.0
 11
17.5696131515
 21
19.682511397
 31
0.0
  0
ELLIPSE
  5
113
330
1F
100
AcDbEntity
  8
0
  6
Continuous
 62
     7
370
    25
100
AcDbEllipse
 10
17.7402367981
 20
19.7511707657
 30
0.0
 11
0.177165354330711
 21
0.0
 31
0.0
210
0.0
220
0.0
230
1.0
 40
0.1653217702
 41
3.414186872716794
 42
4.712388980384691
  0
LINE
  5
114
330
1F
100
AcDbEntity
  8
0
  6
Continuous
 62
     7
370
    25
100
AcDbLine
 10
34.9581045393
 20
19.682511397
 30
0.0
 11
34.9581045393
 21
19.7432851876
 31
0.0
  0
LINE
  5
115
330
1F
100
AcDbEntity
  8
0
  6
Continuous
 62
     7
370
    25
100
AcDbLine
 10
16.8478683188
 20
19.682511397
 30
0.0
 11
16.6772446722
 21
19.682511397
 31
0.0
  0
ARC
  5
116
330
1F
100
AcDbEntity
  8
0
  6
Continuous
 62
     7
370
    25
100
AcDbCircle
 10
16.6665747079
 20
19.6597780638
 30
0.0
 40
0.1827133759919096
100
AcDbArc
 50
273.347822346
 51
7.1473053964
  0
LINE
  5
117
330
1F
100
AcDbEntity
  8
0
  6
Continuous
 62
     7
370
    25
100
AcDbLine
 10
16.6772446722
 20
19.4773765023
 30
0.0
 11
16.6772446722
 21
19.682511397
 31
0.0
  0
LINE
  5
118
330
1F
100
AcDbEntity
  8
0
  6
Continuous
 62
     7
370
    25
100
AcDbLine
 10
17.7402367981
 20
19.2100704521
 30
0.0
 11
17.7402367981
 21
19.1707003733
 31
0.0
  0
LINE
  5
119
330
1F
100
AcDbEntity
  8
0
  6
Continuous
 62
     7
370
    25
100
AcDbLine
 10
21.0079533336
 20
19.2100704521
 30
0.0
 11
17.7402367981
 21
19.2100704521
 31
0.0
  0
LINE
  5
11A
330
1F
100
AcDbEntity
  8
0
  6
Continuous
 62
     7
370
    25
100
AcDbLine
 10
21.0079533336
 20
19.1707003733
 30
0.0
 11
21.0079533336
 21
19.2100704521
 31
0.0
  0
LINE
  5
11B
330
1F
100
AcDbEntity
  8
0
  6
Continuous
 62
     7
370
    25
100
AcDbLine
 10
21.0079533336
 20
19.1707003733
 30
0.0
 11
17.7402367981
 21
19.1707003733
 31
0.0
  0
LINE
  5
11C
330
1F
100
AcDbEntity
  8
0
  6
Continuous
 62
     7
370
    25
100
AcDbLine
 10
22.8583470344
 20
18.6982594285
 30
0.0
 11
22.8583470344
 21
18.6588893497
 31
0.0
  0
LINE
  5
11D
330
1F
100
AcDbEntity
  8
0
  6
Continuous
 62
     7
370
    25
100
AcDbLine
 10
22.6877233877
 20
18.7196631404
 30
0.0
 11
22.6877233877
 21
18.6588893497
 31
0.0
  0
ELLIPSE
  5
11E
330
1F
100
AcDbEntity
  8
0
  6
Continuous
 62
     7
370
    25
100
AcDbEllipse
 10
22.8583470344
 20
18.7275487185
 30
0.0
 11
0.1771653543307075
 21
0.0
 31
0.0
210
0.0
220
0.0
230
1.0
 40
0.1653217702
 41
3.414186872717009
 42
4.712388980384691
  0
LINE
  5
11F
330
1F
100
AcDbEntity
  8
0
  6
Continuous
 62
     7
370
    25
100
AcDbLine
 10
16.6772446722
 20
19.682511397
 30
0.0
 11
13.4095281367
 21
19.682511397
 31
0.0
  0
LINE
  5
120
330
1F
100
AcDbEntity
  8
0
  6
Continuous
 62
     7
370
    25
100
AcDbLine
 10
13.4095281367
 20
19.4773765023
 30
0.0
 11
16.6772446722
 21
19.4773765023
 31
0.0
  0
LINE
  5
121
330
1F
100
AcDbEntity
  8
0
  6
Continuous
 62
     7
370
    25
100
AcDbLine
 10
34.7874808926
 20
19.1707003733
 30
0.0
 11
34.7874808926
 21
19.2100704521
 31
0.0
  0
ELLIPSE
  5
122
330
1F
100
AcDbEntity
  8
0
  6
Continuous
 62
     7
370
    25
100
AcDbEllipse
 10
34.7874808926
 20
19.2393597421
 30
0.0
 11
0.177165354330711
 21
0.0
 31
0.0
210
0.0
220
0.0
230
1.0
 40
0.1653217702
 41
4.712388980384691
 42
6.010591088052457
  0
LINE
  5
123
330
1F
100
AcDbEntity
  8
0
  6
Continuous
 62
     7
370
    25
100
AcDbLine
 10
34.9581045393
 20
19.1707003733
 30
0.0
 11
34.9581045393
 21
19.231474164
 31
0.0
  0
LINE
  5
124
330
1F
100
AcDbEntity
  8
0
  6
Continuous
 62
     7
370
    25
100
AcDbLine
 10
26.1260635698
 20
19.1707003733
 30
0.0
 11
26.1260635698
 21
19.2100704521
 31
0.0
  0
LINE
  5
125
330
1F
100
AcDbEntity
  8
0
  6
Continuous
 62
     7
370
    25
100
AcDbLine
 10
26.2966872164
 20
19.1707003733
 30
0.0
 11
26.2966872164
 21
19.231474164
 31
0.0
  0
LINE
  5
126
330
1F
100
AcDbEntity
  8
0
  6
Continuous
 62
     7
370
    25
100
AcDbLine
 10
26.2966872164
 20
19.1707003733
 30
0.0
 11
26.1260635698
 21
19.1707003733
 31
0.0
  0
LINE
  5
127
330
1F
100
AcDbEntity
  8
0
  6
Continuous
 62
     7
370
    25
100
AcDbLine
 10
17.7402367981
 20
18.6982594285
 30
0.0
 11
17.7402367981
 21
18.6588893497
 31
0.0
  0
LINE
  5
128
330
1F
100
AcDbEntity
  8
0
  6
Continuous
 62
     7
370
    25
100
AcDbLine
 10
17.5696131515
 20
18.7196631404
 30
0.0
 11
17.5696131515
 21
18.6588893497
 31
0.0
  0
LINE
  5
129
330
1F
100
AcDbEntity
  8
0
  6
Continuous
 62
     7
370
    25
100
AcDbLine
 10
26.2966872164
 20
19.682511397
 30
0.0
 11
26.1260635698
 21
19.682511397
 31
0.0
  0
ARC
  5
12A
330
1F
100
AcDbEntity
  8
0
  6
Continuous
 62
     7
370
    25
100
AcDbCircle
 10
26.1153936056
 20
19.6597780638
 30
0.0
 40
0.1827133759919152
100
AcDbArc
 50
273.347822346
 51
7.1473053964
  0
ARC
  5
12B
330
1F
100
AcDbEntity
  8
0
  6
Continuous
 62
     7
370
    25
100
AcDbCircle
 10
31.3122608083
 20
19.1492195029
 30
0.0
 40
0.0901440872540579
100
AcDbArc
 50
65.8503266495
 51
90.5294099537
  0
LINE
  5
12C
330
1F
100
AcDbEntity
  8
0
  6
Continuous
 62
     7
370
    25
100
AcDbLine
 10
31.369240994
 20
19.2393597421
 30
0.0
 11
31.3114278936
 21
19.2393597421
 31
0.0
  0
LINE
  5
12D
330
1F
100
AcDbEntity
  8
0
  6
Continuous
 62
     7
370
    25
100
AcDbLine
 10
31.3870570765
 20
19.231474164
 30
0.0
 11
31.369240994
 21
19.2393597421
 31
0.0
  0
ELLIPSE
  5
12E
330
1F
100
AcDbEntity
  8
0
  6
Continuous
 62
     7
370
    25
100
AcDbEllipse
 10
31.5197643572
 20
19.2393597421
 30
0.0
 11
0.1377952755905518
 21
0.0
 31
0.0
210
0.0
220
0.0
230
1.0
 40
0.2125565617
 41
3.414186872717031
 42
4.712388980384692
  0
LINE
  5
12F
330
1F
100
AcDbEntity
  8
0
  6
Continuous
 62
     7
370
    25
100
AcDbLine
 10
22.8583470344
 20
19.7218814757
 30
0.0
 11
22.8583470344
 21
19.682511397
 31
0.0
  0
LINE
  5
130
330
1F
100
AcDbEntity
  8
0
  6
Continuous
 62
     7
370
    25
100
AcDbLine
 10
22.6877233877
 20
19.7432851876
 30
0.0
 11
22.6877233877
 21
19.682511397
 31
0.0
  0
LINE
  5
131
330
1F
100
AcDbEntity
  8
0
  6
Continuous
 62
     7
370
    25
100
AcDbLine
 10
31.5197643572
 20
18.6982594285
 30
0.0
 11
31.5197643572
 21
18.6588893497
 31
0.0
  0
LINE
  5
132
330
1F
100
AcDbEntity
  8
0
  6
Continuous
 62
     7
370
    25
100
AcDbLine
 10
31.3491407106
 20
18.7196631404
 30
0.0
 11
31.3491407106
 21
18.6588893497
 31
0.0
  0
LINE
  5
133
330
1F
100
AcDbEntity
  8
0
  6
Continuous
 62
     7
370
    25
100
AcDbLine
 10
21.1785769802
 20
19.682511397
 30
0.0
 11
21.0079533336
 21
19.682511397
 31
0.0
  0
ARC
  5
134
330
1F
100
AcDbEntity
  8
0
  6
Continuous
 62
     7
370
    25
100
AcDbCircle
 10
20.9972833694
 20
19.6597780638
 30
0.0
 40
0.1827133759919096
100
AcDbArc
 50
273.347822346
 51
7.1473053964
  0
LINE
  5
135
330
1F
100
AcDbEntity
  8
0
  6
Continuous
 62
     7
370
    25
100
AcDbLine
 10
21.0079533336
 20
19.4773765023
 30
0.0
 11
21.0079533336
 21
19.682511397
 31
0.0
  0
ELLIPSE
  5
136
330
1F
100
AcDbEntity
  8
0
  6
Continuous
 62
     7
370
    25
100
AcDbEllipse
 10
16.6772446722
 20
19.2393597421
 30
0.0
 11
0.1771653543307075
 21
0.0
 31
0.0
210
0.0
220
0.0
230
1.0
 40
0.1653217702
 41
4.712388980384691
 42
6.010591088052461
  0
LINE
  5
137
330
1F
100
AcDbEntity
  8
0
  6
Continuous
 62
     7
370
    25
100
AcDbLine
 10
16.8478683188
 20
19.1707003733
 30
0.0
 11
16.8478683188
 21
19.231474164
 31
0.0
  0
LINE
  5
138
330
1F
100
AcDbEntity
  8
0
  6
Continuous
 62
     7
370
    25
100
AcDbLine
 10
16.8478683188
 20
19.1707003733
 30
0.0
 11
16.6772446722
 21
19.1707003733
 31
0.0
  0
ARC
  5
139
330
1F
100
AcDbEntity
  8
0
  6
Continuous
 62
     7
370
    25
100
AcDbCircle
 10
35.0002305742
 20
19.1241298471
 30
0.0
 40
0.1153143754714174
100
AcDbArc
 50
92.1933130735
 51
111.4269503232
  0
ELLIPSE
  5
13A
330
1F
100
AcDbEntity
  8
0
  6
Continuous
 62
     7
370
    25
100
AcDbEllipse
 10
34.7874808926
 20
19.2393597421
 30
0.0
 11
0.1377952755905483
 21
0.0
 31
0.0
210
0.0
220
0.0
230
1.0
 40
0.2125565617
 41
4.712388980384692
 42
6.010591088052421
  0
LINE
  5
13B
330
1F
100
AcDbEntity
  8
0
  6
Continuous
 62
     7
370
    25
100
AcDbLine
 10
34.9380042559
 20
19.2393597421
 30
0.0
 11
34.9201881733
 21
19.231474164
 31
0.0
  0
LINE
  5
13C
330
1F
100
AcDbEntity
  8
0
  6
Continuous
 62
     7
370
    25
100
AcDbLine
 10
34.9380042559
 20
19.2393597421
 30
0.0
 11
34.9958173563
 21
19.2393597421
 31
0.0
  0
LINE
  5
13D
330
1F
100
AcDbEntity
  8
0
  6
Continuous
 62
     7
370
    25
100
AcDbLine
 10
21.0079533336
 20
19.682511397
 30
0.0
 11
17.7402367981
 21
19.682511397
 31
0.0
  0
LINE
  5
13E
330
1F
100
AcDbEntity
  8
0
  6
Continuous
 62
     7
370
    25
100
AcDbLine
 10
17.7402367981
 20
19.4773765023
 30
0.0
 11
21.0079533336
 21
19.4773765023
 31
0.0
  0
LINE
  5
13F
330
1F
100
AcDbEntity
  8
0
  6
Continuous
 62
     7
370
    25
100
AcDbLine
 10
17.7402367981
 20
19.682511397
 30
0.0
 11
17.7402367981
 21
19.4773765023
 31
0.0
  0
ARC
  5
140
330
1F
100
AcDbEntity
  8
0
  6
Continuous
 62
     7
370
    25
100
AcDbCircle
 10
17.5327332492
 20
19.6610305265
 30
0.0
 40
0.0901440872542567
100
AcDbArc
 50
65.8503266495
 51
90.5294099537
  0
LINE
  5
141
330
1F
100
AcDbEntity
  8
0
  6
Continuous
 62
     7
370
    25
100
AcDbLine
 10
17.5897134349
 20
19.7511707657
 30
0.0
 11
17.5319003345
 21
19.7511707657
 31
0.0
  0
LINE
  5
142
330
1F
100
AcDbEntity
  8
0
  6
Continuous
 62
     7
370
    25
100
AcDbLine
 10
17.6075295174
 20
19.7432851876
 30
0.0
 11
17.5897134349
 21
19.7511707657
 31
0.0
  0
ELLIPSE
  5
143
330
1F
100
AcDbEntity
  8
0
  6
Continuous
 62
     7
370
    25
100
AcDbEllipse
 10
17.7402367981
 20
19.7511707657
 30
0.0
 11
0.1377952755905518
 21
0.0
 31
0.0
210
0.0
220
0.0
230
1.0
 40
0.2125565617
 41
3.41418687271678
 42
4.712388980384692
  0
ARC
  5
144
330
1F
100
AcDbEntity
  8
0
  6
Continuous
 62
     7
370
    25
100
AcDbCircle
 10
31.5287756772
 20
19.1465874411
 30
0.0
 40
0.1812461165072316
100
AcDbArc
 50
172.3547184706
 51
267.1501537889
  0
LINE
  5
145
330
1F
100
AcDbEntity
  8
0
  6
Continuous
 62
     7
370
    25
100
AcDbLine
 10
21.0079533336
 20
18.6588893497
 30
0.0
 11
21.0079533336
 21
18.6982594285
 31
0.0
  0
ELLIPSE
  5
146
330
1F
100
AcDbEntity
  8
0
  6
Continuous
 62
     7
370
    25
100
AcDbEllipse
 10
21.0079533336
 20
18.7275487185
 30
0.0
 11
0.177165354330711
 21
0.0
 31
0.0
210
0.0
220
0.0
230
1.0
 40
0.1653217702
 41
4.712388980384691
 42
6.010591088052488
  0
LINE
  5
147
330
1F
100
AcDbEntity
  8
0
  6
Continuous
 62
     7
370
    25
100
AcDbLine
 10
21.1785769802
 20
18.6588893497
 30
0.0
 11
21.1785769802
 21
18.7196631404
 31
0.0
  0
ARC
  5
148
330
1F
100
AcDbEntity
  8
0
  6
Continuous
 62
     7
370
    25
100
AcDbCircle
 10
16.6665747079
 20
19.1479670402
 30
0.0
 40
0.182713375991907
100
AcDbArc
 50
273.347822346
 51
7.1473053964
  0
LINE
  5
149
330
1F
100
AcDbEntity
  8
0
  6
Continuous
 62
     7
370
    25
100
AcDbLine
 10
16.6772446722
 20
18.9655654787
 30
0.0
 11
16.6772446722
 21
19.1707003733
 31
0.0
  0
ARC
  5
14A
330
1F
100
AcDbEntity
  8
0
  6
Continuous
 62
     7
370
    25
100
AcDbCircle
 10
13.2020245878
 20
18.6374084793
 30
0.0
 40
0.0901440872540689
100
AcDbArc
 50
65.8503266495
 51
90.5294099537
  0
LINE
  5
14B
330
1F
100
AcDbEntity
  8
0
  6
Continuous
 62
     7
370
    25
100
AcDbLine
 10
13.2590047735
 20
18.7275487185
 30
0.0
 11
13.2011916731
 21
18.7275487185
 31
0.0
  0
LINE
  5
14C
330
1F
100
AcDbEntity
  8
0
  6
Continuous
 62
     7
370
    25
100
AcDbLine
 10
13.276820856
 20
18.7196631404
 30
0.0
 11
13.2590047735
 21
18.7275487185
 31
0.0
  0
ELLIPSE
  5
14D
330
1F
100
AcDbEntity
  8
0
  6
Continuous
 62
     7
370
    25
100
AcDbEllipse
 10
13.4095281367
 20
18.7275487185
 30
0.0
 11
0.13779527559055
 21
0.0
 31
0.0
210
0.0
220
0.0
230
1.0
 40
0.2125565617
 41
3.414186872716992
 42
4.712388980384692
  0
LINE
  5
14E
330
1F
100
AcDbEntity
  8
0
  6
Continuous
 62
     7
370
    25
100
AcDbLine
 10
34.7874808926
 20
19.2100704521
 30
0.0
 11
31.5197643572
 21
19.2100704521
 31
0.0
  0
ELLIPSE
  5
14F
330
1F
100
AcDbEntity
  8
0
  6
Continuous
 62
     7
370
    25
100
AcDbEllipse
 10
16.6772446722
 20
18.7275487185
 30
0.0
 11
0.1771653543307075
 21
0.0
 31
0.0
210
0.0
220
0.0
230
1.0
 40
0.1653217702
 41
4.712388980384691
 42
6.010591088052493
  0
LINE
  5
150
330
1F
100
AcDbEntity
  8
0
  6
Continuous
 62
     7
370
    25
100
AcDbLine
 10
16.8478683188
 20
18.6588893497
 30
0.0
 11
16.8478683188
 21
18.7196631404
 31
0.0
  0
LINE
  5
151
330
1F
100
AcDbEntity
  8
0
  6
Continuous
 62
     7
370
    25
100
AcDbLine
 10
21.1785769802
 20
19.1707003733
 30
0.0
 11
21.1785769802
 21
19.231474164
 31
0.0
  0
LINE
  5
152
330
1F
100
AcDbEntity
  8
0
  6
Continuous
 62
     7
370
    25
100
AcDbLine
 10
21.1785769802
 20
19.1707003733
 30
0.0
 11
21.0079533336
 21
19.1707003733
 31
0.0
  0
ARC
  5
153
330
1F
100
AcDbEntity
  8
0
  6
Continuous
 62
     7
370
    25
100
AcDbCircle
 10
22.6508434855
 20
18.6374084793
 30
0.0
 40
0.090144087254104
100
AcDbArc
 50
65.8503266495
 51
90.5294099537
  0
LINE
  5
154
330
1F
100
AcDbEntity
  8
0
  6
Continuous
 62
     7
370
    25
100
AcDbLine
 10
22.7078236711
 20
18.7275487185
 30
0.0
 11
22.6500105707
 21
18.7275487185
 31
0.0
  0
LINE
  5
155
330
1F
100
AcDbEntity
  8
0
  6
Continuous
 62
     7
370
    25
100
AcDbLine
 10
22.7256397537
 20
18.7196631404
 30
0.0
 11
22.7078236711
 21
18.7275487185
 31
0.0
  0
ELLIPSE
  5
156
330
1F
100
AcDbEntity
  8
0
  6
Continuous
 62
     7
370
    25
100
AcDbEllipse
 10
22.8583470344
 20
18.7275487185
 30
0.0
 11
0.1377952755905483
 21
0.0
 31
0.0
210
0.0
220
0.0
230
1.0
 40
0.2125565617
 41
3.414186872716985
 42
4.712388980384692
  0
ARC
  5
157
330
1F
100
AcDbEntity
  8
0
  6
Continuous
 62
     7
370
    25
100
AcDbCircle
 10
21.2207030151
 20
18.6123188235
 30
0.0
 40
0.115314375471736
100
AcDbArc
 50
92.1933130735
 51
111.4269503232
  0
ELLIPSE
  5
158
330
1F
100
AcDbEntity
  8
0
  6
Continuous
 62
     7
370
    25
100
AcDbEllipse
 10
21.0079533336
 20
18.7275487185
 30
0.0
 11
0.1377952755905518
 21
0.0
 31
0.0
210
0.0
220
0.0
230
1.0
 40
0.2125565617
 41
4.712388980384692
 42
6.010591088052462
  0
LINE
  5
159
330
1F
100
AcDbEntity
  8
0
  6
Continuous
 62
     7
370
    25
100
AcDbLine
 10
21.1584766968
 20
18.7275487185
 30
0.0
 11
21.1406606143
 21
18.7196631404
 31
0.0
  0
LINE
  5
15A
330
1F
100
AcDbEntity
  8
0
  6
Continuous
 62
     7
370
    25
100
AcDbLine
 10
21.1584766968
 20
18.7275487185
 30
0.0
 11
21.2162897972
 21
18.7275487185
 31
0.0
  0
ELLIPSE
  5
15B
330
1F
100
AcDbEntity
  8
0
  6
Continuous
 62
     7
370
    25
100
AcDbEllipse
 10
31.5197643572
 20
19.7511707657
 30
0.0
 11
0.177165354330711
 21
0.0
 31
0.0
210
0.0
220
0.0
230
1.0
 40
0.1653217702
 41
3.414186872716789
 42
4.712388980384691
  0
ARC
  5
15C
330
1F
100
AcDbEntity
  8
0
  6
Continuous
 62
     7
370
    25
100
AcDbCircle
 10
31.3122608083
 20
19.6610305265
 30
0.0
 40
0.0901440872541626
100
AcDbArc
 50
65.8503266495
 51
90.5294099537
  0
LINE
  5
15D
330
1F
100
AcDbEntity
  8
0
  6
Continuous
 62
     7
370
    25
100
AcDbLine
 10
31.369240994
 20
19.7511707657
 30
0.0
 11
31.3114278936
 21
19.7511707657
 31
0.0
  0
LINE
  5
15E
330
1F
100
AcDbEntity
  8
0
  6
Continuous
 62
     7
370
    25
100
AcDbLine
 10
31.3870570765
 20
19.7432851876
 30
0.0
 11
31.369240994
 21
19.7511707657
 31
0.0
  0
ELLIPSE
  5
15F
330
1F
100
AcDbEntity
  8
0
  6
Continuous
 62
     7
370
    25
100
AcDbEllipse
 10
31.5197643572
 20
19.7511707657
 30
0.0
 11
0.1377952755905518
 21
0.0
 31
0.0
210
0.0
220
0.0
230
1.0
 40
0.2125565617
 41
3.414186872716766
 42
4.712388980384692
  0
LINE
  5
160
330
1F
100
AcDbEntity
  8
0
  6
Continuous
 62
     7
370
    25
100
AcDbLine
 10
22.8583470344
 20
19.2100704521
 30
0.0
 11
22.8583470344
 21
19.1707003733
 31
0.0
  0
LINE
  5
161
330
1F
100
AcDbEntity
  8
0
  6
Continuous
 62
     7
370
    25
100
AcDbLine
 10
22.6877233877
 20
19.231474164
 30
0.0
 11
22.6877233877
 21
19.1707003733
 31
0.0
  0
LINE
  5
162
330
1F
100
AcDbEntity
  8
0
  6
Continuous
 62
     7
370
    25
100
AcDbLine
 10
13.4095281367
 20
18.9655654787
 30
0.0
 11
16.6772446722
 21
18.9655654787
 31
0.0
  0
LINE
  5
163
330
1F
100
AcDbEntity
  8
0
  6
Continuous
 62
     7
370
    25
100
AcDbLine
 10
13.4095281367
 20
19.1707003733
 30
0.0
 11
13.4095281367
 21
18.9655654787
 31
0.0
  0
LINE
  5
164
330
1F
100
AcDbEntity
  8
0
  6
Continuous
 62
     7
370
    25
100
AcDbLine
 10
21.0079533336
 20
18.6982594285
 30
0.0
 11
17.7402367981
 21
18.6982594285
 31
0.0
  0
ELLIPSE
  5
165
330
1F
100
AcDbEntity
  8
0
  6
Continuous
 62
     7
370
    25
100
AcDbEllipse
 10
17.7402367981
 20
19.2393597421
 30
0.0
 11
0.177165354330711
 21
0.0
 31
0.0
210
0.0
220
0.0
230
1.0
 40
0.1653217702
 41
3.414186872717061
 42
4.712388980384691
  0
ARC
  5
166
330
1F
100
AcDbEntity
  8
0
  6
Continuous
 62
     7
370
    25
100
AcDbCircle
 10
17.5327332492
 20
19.1492195029
 30
0.0
 40
0.0901440872541501
100
AcDbArc
 50
65.8503266495
 51
90.5294099537
  0
LINE
  5
167
330
1F
100
AcDbEntity
  8
0
  6
Continuous
 62
     7
370
    25
100
AcDbLine
 10
17.5897134349
 20
19.2393597421
 30
0.0
 11
17.5319003345
 21
19.2393597421
 31
0.0
  0
LINE
  5
168
330
1F
100
AcDbEntity
  8
0
  6
Continuous
 62
     7
370
    25
100
AcDbLine
 10
17.6075295174
 20
19.231474164
 30
0.0
 11
17.5897134349
 21
19.2393597421
 31
0.0
  0
ELLIPSE
  5
169
330
1F
100
AcDbEntity
  8
0
  6
Continuous
 62
     7
370
    25
100
AcDbEllipse
 10
17.7402367981
 20
19.2393597421
 30
0.0
 11
0.1377952755905518
 21
0.0
 31
0.0
210
0.0
220
0.0
230
1.0
 40
0.2125565617
 41
3.414186872717045
 42
4.712388980384692
  0
LINE
  5
16A
330
1F
100
AcDbEntity
  8
0
  6
Continuous
 62
     7
370
    25
100
AcDbLine
 10
31.5197643572
 20
19.4773765023
 30
0.0
 11
34.7874808926
 21
19.4773765023
 31
0.0
  0
LINE
  5
16B
330
1F
100
AcDbEntity
  8
0
  6
Continuous
 62
     7
370
    25
100
AcDbLine
 10
31.5197643572
 20
19.682511397
 30
0.0
 11
31.5197643572
 21
19.4773765023
 31
0.0
  0
ARC
  5
16C
330
1F
100
AcDbEntity
  8
0
  6
Continuous
 62
     7
370
    25
100
AcDbCircle
 10
13.2020245878
 20
19.6610305265
 30
0.0
 40
0.090144087254048
100
AcDbArc
 50
65.8503266495
 51
90.5294099538
  0
LINE
  5
16D
330
1F
100
AcDbEntity
  8
0
  6
Continuous
 62
     7
370
    25
100
AcDbLine
 10
13.2590047735
 20
19.7511707657
 30
0.0
 11
13.2011916731
 21
19.7511707657
 31
0.0
  0
LINE
  5
16E
330
1F
100
AcDbEntity
  8
0
  6
Continuous
 62
     7
370
    25
100
AcDbLine
 10
13.276820856
 20
19.7432851876
 30
0.0
 11
13.2590047735
 21
19.7511707657
 31
0.0
  0
ELLIPSE
  5
16F
330
1F
100
AcDbEntity
  8
0
  6
Continuous
 62
     7
370
    25
100
AcDbEllipse
 10
13.4095281367
 20
19.7511707657
 30
0.0
 11
0.13779527559055
 21
0.0
 31
0.0
210
0.0
220
0.0
230
1.0
 40
0.2125565617
 41
3.414186872716759
 42
4.712388980384692
  0
LINE
  5
170
330
1F
100
AcDbEntity
  8
0
  6
Continuous
 62
     7
370
    25
100
AcDbLine
 10
26.1260635698
 20
18.6588893497
 30
0.0
 11
26.1260635698
 21
18.6982594285
 31
0.0
  0
LINE
  5
171
330
1F
100
AcDbEntity
  8
0
  6
Continuous
 62
     7
370
    25
100
AcDbLine
 10
26.1260635698
 20
18.6982594285
 30
0.0
 11
22.8583470344
 21
18.6982594285
 31
0.0
  0
ARC
  5
172
330
1F
100
AcDbEntity
  8
0
  6
Continuous
 62
     7
370
    25
100
AcDbCircle
 10
31.5287756772
 20
19.6583984647
 30
0.0
 40
0.181246116507228
100
AcDbArc
 50
172.3547184706
 51
267.1501537889
  0
LINE
  5
173
330
1F
100
AcDbEntity
  8
0
  6
Continuous
 62
     7
370
    25
100
AcDbLine
 10
31.5197643572
 20
19.682511397
 30
0.0
 11
31.3491407106
 21
19.682511397
 31
0.0
  0
LINE
  5
174
330
1F
100
AcDbEntity
  8
0
  6
Continuous
 62
     7
370
    25
100
AcDbLine
 10
21.0079533336
 20
19.7218814757
 30
0.0
 11
17.7402367981
 21
19.7218814757
 31
0.0
  0
LINE
  5
175
330
1F
100
AcDbEntity
  8
0
  6
Continuous
 62
     7
370
    25
100
AcDbLine
 10
21.0079533336
 20
19.682511397
 30
0.0
 11
21.0079533336
 21
19.7218814757
 31
0.0
  0
ARC
  5
176
330
1F
100
AcDbEntity
  8
0
  6
Continuous
 62
     7
370
    25
100
AcDbCircle
 10
17.7492481182
 20
19.6583984647
 30
0.0
 40
0.1812461165072243
100
AcDbArc
 50
172.3547184706
 51
267.1501537889
  0
ARC
  5
177
330
1F
100
AcDbEntity
  8
0
  6
Continuous
 62
     7
370
    25
100
AcDbCircle
 10
20.9972833694
 20
19.1479670402
 30
0.0
 40
0.1827133759919108
100
AcDbArc
 50
273.347822346
 51
7.1473053964
  0
LINE
  5
178
330
1F
100
AcDbEntity
  8
0
  6
Continuous
 62
     7
370
    25
100
AcDbLine
 10
21.0079533336
 20
18.9655654787
 30
0.0
 11
21.0079533336
 21
19.1707003733
 31
0.0
  0
ARC
  5
179
330
1F
100
AcDbEntity
  8
0
  6
Continuous
 62
     7
370
    25
100
AcDbCircle
 10
16.8899943537
 20
19.1241298471
 30
0.0
 40
0.115314375471439
100
AcDbArc
 50
92.1933130735
 51
111.4269503232
  0
ELLIPSE
  5
17A
330
1F
100
AcDbEntity
  8
0
  6
Continuous
 62
     7
370
    25
100
AcDbEllipse
 10
16.6772446722
 20
19.2393597421
 30
0.0
 11
0.1377952755905518
 21
0.0
 31
0.0
210
0.0
220
0.0
230
1.0
 40
0.2125565617
 41
4.712388980384692
 42
6.01059108805243
  0
LINE
  5
17B
330
1F
100
AcDbEntity
  8
0
  6
Continuous
 62
     7
370
    25
100
AcDbLine
 10
16.8277680354
 20
19.2393597421
 30
0.0
 11
16.8099519529
 21
19.231474164
 31
0.0
  0
LINE
  5
17C
330
1F
100
AcDbEntity
  8
0
  6
Continuous
 62
     7
370
    25
100
AcDbLine
 10
16.8277680354
 20
19.2393597421
 30
0.0
 11
16.8855811358
 21
19.2393597421
 31
0.0
  0
LINE
  5
17D
330
1F
100
AcDbEntity
  8
0
  6
Continuous
 62
     7
370
    25
100
AcDbLine
 10
26.1260635698
 20
19.682511397
 30
0.0
 11
26.1260635698
 21
19.7218814757
 31
0.0
  0
LINE
  5
17E
330
1F
100
AcDbEntity
  8
0
  6
Continuous
 62
     7
370
    25
100
AcDbLine
 10
26.2966872164
 20
19.682511397
 30
0.0
 11
26.2966872164
 21
19.7432851876
 31
0.0
  0
LINE
  5
17F
330
1F
100
AcDbEntity
  8
0
  6
Continuous
 62
     7
370
    25
100
AcDbLine
 10
17.7402367981
 20
18.9655654787
 30
0.0
 11
21.0079533336
 21
18.9655654787
 31
0.0
  0
LINE
  5
180
330
1F
100
AcDbEntity
  8
0
  6
Continuous
 62
     7
370
    25
100
AcDbLine
 10
17.7402367981
 20
19.1707003733
 30
0.0
 11
17.7402367981
 21
18.9655654787
 31
0.0
  0
ARC
  5
181
330
1F
100
AcDbEntity
  8
0
  6
Continuous
 62
     7
370
    25
100
AcDbCircle
 10
26.1153936056
 20
19.1479670402
 30
0.0
 40
0.1827133759919077
100
AcDbArc
 50
273.347822346
 51
7.1473053964
  0
ELLIPSE
  5
182
330
1F
100
AcDbEntity
  8
0
  6
Continuous
 62
     7
370
    25
100
AcDbEllipse
 10
26.1260635698
 20
18.7275487185
 30
0.0
 11
0.1771653543307039
 21
0.0
 31
0.0
210
0.0
220
0.0
230
1.0
 40
0.1653217702
 41
4.712388980384691
 42
6.010591088052488
  0
LINE
  5
183
330
1F
100
AcDbEntity
  8
0
  6
Continuous
 62
     7
370
    25
100
AcDbLine
 10
26.2966872164
 20
18.6588893497
 30
0.0
 11
26.2966872164
 21
18.7196631404
 31
0.0
  0
LINE
  5
184
330
1F
100
AcDbEntity
  8
0
  6
Continuous
 62
     7
370
    25
100
AcDbLine
 10
34.7874808926
 20
18.6982594285
 30
0.0
 11
31.5197643572
 21
18.6982594285
 31
0.0
  0
ARC
  5
185
330
1F
100
AcDbEntity
  8
0
  6
Continuous
 62
     7
370
    25
100
AcDbCircle
 10
13.4185394568
 20
19.1465874411
 30
0.0
 40
0.1812461165072334
100
AcDbArc
 50
172.3547184706
 51
267.1501537889
  0
LINE
  5
186
330
1F
100
AcDbEntity
  8
0
  6
Continuous
 62
     7
370
    25
100
AcDbLine
 10
13.4095281367
 20
19.1707003733
 30
0.0
 11
13.2389044901
 21
19.1707003733
 31
0.0
  0
LINE
  5
187
330
1F
100
AcDbEntity
  8
0
  6
Continuous
 62
     7
370
    25
100
AcDbLine
 10
26.1260635698
 20
19.2100704521
 30
0.0
 11
22.8583470344
 21
19.2100704521
 31
0.0
  0
LINE
  5
188
330
1F
100
AcDbEntity
  8
0
  6
Continuous
 62
     7
370
    25
100
AcDbLine
 10
13.2389044901
 20
19.231474164
 30
0.0
 11
13.2389044901
 21
19.1707003733
 31
0.0
  0
ARC
  5
189
330
1F
100
AcDbEntity
  8
0
  6
Continuous
 62
     7
370
    25
100
AcDbCircle
 10
17.7492481182
 20
19.1465874411
 30
0.0
 40
0.1812461165072208
100
AcDbArc
 50
172.3547184706
 51
267.1501537889
  0
LINE
  5
18A
330
1F
100
AcDbEntity
  8
0
  6
Continuous
 62
     7
370
    25
100
AcDbLine
 10
17.7402367981
 20
19.1707003733
 30
0.0
 11
17.5696131515
 21
19.1707003733
 31
0.0
  0
LINE
  5
18B
330
1F
100
AcDbEntity
  8
0
  6
Continuous
 62
     7
370
    25
100
AcDbLine
 10
16.6772446722
 20
19.682511397
 30
0.0
 11
16.6772446722
 21
19.7218814757
 31
0.0
  0
LINE
  5
18C
330
1F
100
AcDbEntity
  8
0
  6
Continuous
 62
     7
370
    25
100
AcDbLine
 10
16.6772446722
 20
19.7218814757
 30
0.0
 11
13.4095281367
 21
19.7218814757
 31
0.0
  0
LINE
  5
18D
330
1F
100
AcDbEntity
  8
0
  6
Continuous
 62
     7
370
    25
100
AcDbLine
 10
21.1785769802
 20
19.682511397
 30
0.0
 11
21.1785769802
 21
19.7432851876
 31
0.0
  0
ARC
  5
18E
330
1F
100
AcDbEntity
  8
0
  6
Continuous
 62
     7
370
    25
100
AcDbCircle
 10
26.3388132513
 20
18.6123188235
 30
0.0
 40
0.1153143754716863
100
AcDbArc
 50
92.1933130735
 51
111.4269503232
  0
ELLIPSE
  5
18F
330
1F
100
AcDbEntity
  8
0
  6
Continuous
 62
     7
370
    25
100
AcDbEllipse
 10
26.1260635698
 20
18.7275487185
 30
0.0
 11
0.1377952755905483
 21
0.0
 31
0.0
210
0.0
220
0.0
230
1.0
 40
0.2125565617
 41
4.712388980384692
 42
6.01059108805246
  0
LINE
  5
190
330
1F
100
AcDbEntity
  8
0
  6
Continuous
 62
     7
370
    25
100
AcDbLine
 10
26.2765869331
 20
18.7275487185
 30
0.0
 11
26.2587708505
 21
18.7196631404
 31
0.0
  0
LINE
  5
191
330
1F
100
AcDbEntity
  8
0
  6
Continuous
 62
     7
370
    25
100
AcDbLine
 10
26.2765869331
 20
18.7275487185
 30
0.0
 11
26.3344000334
 21
18.7275487185
 31
0.0
  0
LINE
  5
192
330
1F
100
AcDbEntity
  8
0
  6
Continuous
 62
     7
370
    25
100
AcDbLine
 10
31.3491407106
 20
19.7432851876
 30
0.0
 11
31.3491407106
 21
19.682511397
 31
0.0
  0
ARC
  5
193
330
1F
100
AcDbEntity
  8
0
  6
Continuous
 62
     7
370
    25
100
AcDbCircle
 10
16.8899943537
 20
18.6123188235
 30
0.0
 40
0.1153143754717145
100
AcDbArc
 50
92.1933130735
 51
111.4269503232
  0
ELLIPSE
  5
194
330
1F
100
AcDbEntity
  8
0
  6
Continuous
 62
     7
370
    25
100
AcDbEllipse
 10
16.6772446722
 20
18.7275487185
 30
0.0
 11
0.1377952755905518
 21
0.0
 31
0.0
210
0.0
220
0.0
230
1.0
 40
0.2125565617
 41
4.712388980384692
 42
6.010591088052462
  0
LINE
  5
195
330
1F
100
AcDbEntity
  8
0
  6
Continuous
 62
     7
370
    25
100
AcDbLine
 10
16.8277680354
 20
18.7275487185
 30
0.0
 11
16.8099519529
 21
18.7196631404
 31
0.0
  0
LINE
  5
196
330
1F
100
AcDbEntity
  8
0
  6
Continuous
 62
     7
370
    25
100
AcDbLine
 10
16.8277680354
 20
18.7275487185
 30
0.0
 11
16.8855811358
 21
18.7275487185
 31
0.0
  0
LINE
  5
197
330
1F
100
AcDbEntity
  8
0
  6
Continuous
 62
     7
370
    25
100
AcDbLine
 10
16.8478683188
 20
19.682511397
 30
0.0
 11
16.8478683188
 21
19.7432851876
 31
0.0
  0
LINE
  5
198
330
1F
100
AcDbEntity
  8
0
  6
Continuous
 62
     7
370
    25
100
AcDbLine
 10
26.1260635698
 20
19.7218814757
 30
0.0
 11
22.8583470344
 21
19.7218814757
 31
0.0
  0
LINE
  5
199
330
1F
100
AcDbEntity
  8
0
  6
Continuous
 62
     7
370
    25
100
AcDbLine
 10
17.5696131515
 20
19.231474164
 30
0.0
 11
17.5696131515
 21
19.1707003733
 31
0.0
  0
LINE
  5
19A
330
1F
100
AcDbEntity
  8
0
  6
Continuous
 62
     7
370
    25
100
AcDbLine
 10
34.9581045393
 20
18.6588893497
 30
0.0
 11
35.0339372711
 21
18.6588893497
 31
0.0
  0
ARC
  5
19B
330
1F
100
AcDbEntity
  8
0
  6
Continuous
 62
     7
370
    25
100
AcDbCircle
 10
34.7787049234
 20
18.6368589411
 30
0.0
 40
0.2561813619128396
100
AcDbArc
 50
271.963157629
 51
4.9332644324
  0
LINE
  5
19C
330
1F
100
AcDbEntity
  8
0
  6
Continuous
 62
     7
370
    25
100
AcDbLine
 10
34.7874808926
 20
18.4537544551
 30
0.0
 11
34.7874808926
 21
18.3808279419
 31
0.0
  0
LINE
  5
19D
330
1F
100
AcDbEntity
  8
0
  6
Continuous
 62
     7
370
    25
100
AcDbLine
 10
21.1785769802
 20
18.6588893497
 30
0.0
 11
21.254409712
 21
18.6588893497
 31
0.0
  0
ARC
  5
19E
330
1F
100
AcDbEntity
  8
0
  6
Continuous
 62
     7
370
    25
100
AcDbCircle
 10
20.9991773644
 20
18.6368589411
 30
0.0
 40
0.2561813619128289
100
AcDbArc
 50
271.963157629
 51
4.9332644324
  0
LINE
  5
19F
330
1F
100
AcDbEntity
  8
0
  6
Continuous
 62
     7
370
    25
100
AcDbLine
 10
21.0079533336
 20
18.4537544551
 30
0.0
 11
21.0079533336
 21
18.3808279419
 31
0.0
  0
LINE
  5
1A0
330
1F
100
AcDbEntity
  8
0
  6
Continuous
 62
     7
370
    25
100
AcDbLine
 10
34.9581045393
 20
19.682511397
 30
0.0
 11
35.0339372711
 21
19.682511397
 31
0.0
  0
ARC
  5
1A1
330
1F
100
AcDbEntity
  8
0
  6
Continuous
 62
     7
370
    25
100
AcDbCircle
 10
34.7787049234
 20
19.6604809883
 30
0.0
 40
0.2561813619128396
100
AcDbArc
 50
271.963157629
 51
4.9332644324
  0
LINE
  5
1A2
330
1F
100
AcDbEntity
  8
0
  6
Continuous
 62
     7
370
    25
100
AcDbLine
 10
34.7874808926
 20
19.4773765023
 30
0.0
 11
34.7874808926
 21
19.4044499891
 31
0.0
  0
LINE
  5
1A3
330
1F
100
AcDbEntity
  8
0
  6
Continuous
 62
     7
370
    25
100
AcDbLine
 10
16.8478683188
 20
18.6588893497
 30
0.0
 11
16.9237010506
 21
18.6588893497
 31
0.0
  0
ARC
  5
1A4
330
1F
100
AcDbEntity
  8
0
  6
Continuous
 62
     7
370
    25
100
AcDbCircle
 10
16.668468703
 20
18.6368589411
 30
0.0
 40
0.2561813619128321
100
AcDbArc
 50
271.963157629
 51
4.9332644324
  0
LINE
  5
1A5
330
1F
100
AcDbEntity
  8
0
  6
Continuous
 62
     7
370
    25
100
AcDbLine
 10
16.6772446722
 20
18.4537544551
 30
0.0
 11
16.6772446722
 21
18.3808279419
 31
0.0
  0
LINE
  5
1A6
330
1F
100
AcDbEntity
  8
0
  6
Continuous
 62
     7
370
    25
100
AcDbLine
 10
34.9581045393
 20
19.1707003733
 30
0.0
 11
35.0339372711
 21
19.1707003733
 31
0.0
  0
ARC
  5
1A7
330
1F
100
AcDbEntity
  8
0
  6
Continuous
 62
     7
370
    25
100
AcDbCircle
 10
34.7787049234
 20
19.1486699647
 30
0.0
 40
0.2561813619128396
100
AcDbArc
 50
271.963157629
 51
4.9332644324
  0
LINE
  5
1A8
330
1F
100
AcDbEntity
  8
0
  6
Continuous
 62
     7
370
    25
100
AcDbLine
 10
34.7874808926
 20
18.9655654787
 30
0.0
 11
34.7874808926
 21
18.8926389655
 31
0.0
  0
LINE
  5
1A9
330
1F
100
AcDbEntity
  8
0
  6
Continuous
 62
     7
370
    25
100
AcDbLine
 10
26.2966872164
 20
18.6588893497
 30
0.0
 11
26.3725199483
 21
18.6588893497
 31
0.0
  0
ARC
  5
1AA
330
1F
100
AcDbEntity
  8
0
  6
Continuous
 62
     7
370
    25
100
AcDbCircle
 10
26.1172876006
 20
18.6368589411
 30
0.0
 40
0.2561813619128253
100
AcDbArc
 50
271.963157629
 51
4.9332644324
  0
LINE
  5
1AB
330
1F
100
AcDbEntity
  8
0
  6
Continuous
 62
     7
370
    25
100
AcDbLine
 10
26.1260635698
 20
18.4537544551
 30
0.0
 11
26.1260635698
 21
18.3808279419
 31
0.0
  0
LINE
  5
1AC
330
1F
100
AcDbEntity
  8
0
  6
Continuous
 62
     7
370
    25
100
AcDbLine
 10
21.1785769802
 20
19.682511397
 30
0.0
 11
21.254409712
 21
19.682511397
 31
0.0
  0
ARC
  5
1AD
330
1F
100
AcDbEntity
  8
0
  6
Continuous
 62
     7
370
    25
100
AcDbCircle
 10
20.9991773644
 20
19.6604809883
 30
0.0
 40
0.2561813619128249
100
AcDbArc
 50
271.963157629
 51
4.9332644324
  0
LINE
  5
1AE
330
1F
100
AcDbEntity
  8
0
  6
Continuous
 62
     7
370
    25
100
AcDbLine
 10
21.0079533336
 20
19.4773765023
 30
0.0
 11
21.0079533336
 21
19.4044499891
 31
0.0
  0
LINE
  5
1AF
330
1F
100
AcDbEntity
  8
0
  6
Continuous
 62
     7
370
    25
100
AcDbLine
 10
21.1785769802
 20
19.1707003733
 30
0.0
 11
21.254409712
 21
19.1707003733
 31
0.0
  0
ARC
  5
1B0
330
1F
100
AcDbEntity
  8
0
  6
Continuous
 62
     7
370
    25
100
AcDbCircle
 10
20.9991773644
 20
19.1486699647
 30
0.0
 40
0.2561813619128295
100
AcDbArc
 50
271.963157629
 51
4.9332644325
  0
LINE
  5
1B1
330
1F
100
AcDbEntity
  8
0
  6
Continuous
 62
     7
370
    25
100
AcDbLine
 10
21.0079533336
 20
18.9655654787
 30
0.0
 11
21.0079533336
 21
18.8926389655
 31
0.0
  0
LINE
  5
1B2
330
1F
100
AcDbEntity
  8
0
  6
Continuous
 62
     7
370
    25
100
AcDbLine
 10
22.8583470344
 20
18.4537544551
 30
0.0
 11
22.8583470344
 21
18.3808279419
 31
0.0
  0
ARC
  5
1B3
330
1F
100
AcDbEntity
  8
0
  6
Continuous
 62
     7
370
    25
100
AcDbCircle
 10
22.8687492004
 20
18.6383003011
 30
0.0
 40
0.2576824030104804
100
AcDbArc
 50
175.417132138
 51
267.686445802
  0
LINE
  5
1B4
330
1F
100
AcDbEntity
  8
0
  6
Continuous
 62
     7
370
    25
100
AcDbLine
 10
22.6877233877
 20
18.6588893497
 30
0.0
 11
22.6118906559
 21
18.6588893497
 31
0.0
  0
LINE
  5
1B5
330
1F
100
AcDbEntity
  8
0
  6
Continuous
 62
     7
370
    25
100
AcDbLine
 10
31.5197643572
 20
19.4773765023
 30
0.0
 11
31.5197643572
 21
19.4044499891
 31
0.0
  0
ARC
  5
1B6
330
1F
100
AcDbEntity
  8
0
  6
Continuous
 62
     7
370
    25
100
AcDbCircle
 10
31.5301665233
 20
19.6619223483
 30
0.0
 40
0.2576824030104656
100
AcDbArc
 50
175.417132138
 51
267.686445802
  0
LINE
  5
1B7
330
1F
100
AcDbEntity
  8
0
  6
Continuous
 62
     7
370
    25
100
AcDbLine
 10
31.3491407106
 20
19.682511397
 30
0.0
 11
31.2733079787
 21
19.682511397
 31
0.0
  0
LINE
  5
1B8
330
1F
100
AcDbEntity
  8
0
  6
Continuous
 62
     7
370
    25
100
AcDbLine
 10
31.5197643572
 20
18.9655654787
 30
0.0
 11
31.5197643572
 21
18.8926389655
 31
0.0
  0
ARC
  5
1B9
330
1F
100
AcDbEntity
  8
0
  6
Continuous
 62
     7
370
    25
100
AcDbCircle
 10
31.5301665233
 20
19.1501113247
 30
0.0
 40
0.2576824030104696
100
AcDbArc
 50
175.417132138
 51
267.686445802
  0
LINE
  5
1BA
330
1F
100
AcDbEntity
  8
0
  6
Continuous
 62
     7
370
    25
100
AcDbLine
 10
31.3491407106
 20
19.1707003733
 30
0.0
 11
31.2733079787
 21
19.1707003733
 31
0.0
  0
LINE
  5
1BB
330
1F
100
AcDbEntity
  8
0
  6
Continuous
 62
     7
370
    25
100
AcDbLine
 10
22.8583470344
 20
19.4773765023
 30
0.0
 11
22.8583470344
 21
19.4044499891
 31
0.0
  0
ARC
  5
1BC
330
1F
100
AcDbEntity
  8
0
  6
Continuous
 62
     7
370
    25
100
AcDbCircle
 10
22.8687492004
 20
19.6619223483
 30
0.0
 40
0.2576824030104692
100
AcDbArc
 50
175.417132138
 51
267.686445802
  0
LINE
  5
1BD
330
1F
100
AcDbEntity
  8
0
  6
Continuous
 62
     7
370
    25
100
AcDbLine
 10
22.6877233877
 20
19.682511397
 30
0.0
 11
22.6118906559
 21
19.682511397
 31
0.0
  0
LINE
  5
1BE
330
1F
100
AcDbEntity
  8
0
  6
Continuous
 62
     7
370
    25
100
AcDbLine
 10
31.5197643572
 20
18.4537544551
 30
0.0
 11
31.5197643572
 21
18.3808279419
 31
0.0
  0
ARC
  5
1BF
330
1F
100
AcDbEntity
  8
0
  6
Continuous
 62
     7
370
    25
100
AcDbCircle
 10
31.5301665233
 20
18.6383003011
 30
0.0
 40
0.257682403010477
100
AcDbArc
 50
175.417132138
 51
267.686445802
  0
LINE
  5
1C0
330
1F
100
AcDbEntity
  8
0
  6
Continuous
 62
     7
370
    25
100
AcDbLine
 10
31.3491407106
 20
18.6588893497
 30
0.0
 11
31.2733079787
 21
18.6588893497
 31
0.0
  0
LINE
  5
1C1
330
1F
100
AcDbEntity
  8
0
  6
Continuous
 62
     7
370
    25
100
AcDbLine
 10
22.8583470344
 20
18.9655654787
 30
0.0
 11
22.8583470344
 21
18.8926389655
 31
0.0
  0
ARC
  5
1C2
330
1F
100
AcDbEntity
  8
0
  6
Continuous
 62
     7
370
    25
100
AcDbCircle
 10
22.8687492004
 20
19.1501113247
 30
0.0
 40
0.2576824030104694
100
AcDbArc
 50
175.417132138
 51
267.686445802
  0
LINE
  5
1C3
330
1F
100
AcDbEntity
  8
0
  6
Continuous
 62
     7
370
    25
100
AcDbLine
 10
22.6877233877
 20
19.1707003733
 30
0.0
 11
22.6118906559
 21
19.1707003733
 31
0.0
  0
LINE
  5
1C4
330
1F
100
AcDbEntity
  8
0
  6
Continuous
 62
     7
370
    25
100
AcDbLine
 10
13.4095281367
 20
19.4773765023
 30
0.0
 11
13.4095281367
 21
19.4044499891
 31
0.0
  0
ARC
  5
1C5
330
1F
100
AcDbEntity
  8
0
  6
Continuous
 62
     7
370
    25
100
AcDbCircle
 10
13.4199303028
 20
19.6619223483
 30
0.0
 40
0.2576824030104767
100
AcDbArc
 50
175.417132138
 51
267.686445802
  0
LINE
  5
1C6
330
1F
100
AcDbEntity
  8
0
  6
Continuous
 62
     7
370
    25
100
AcDbLine
 10
13.2389044901
 20
19.682511397
 30
0.0
 11
13.1630717583
 21
19.682511397
 31
0.0
  0
LINE
  5
1C7
330
1F
100
AcDbEntity
  8
0
  6
Continuous
 62
     7
370
    25
100
AcDbLine
 10
17.7402367981
 20
18.4537544551
 30
0.0
 11
17.7402367981
 21
18.3808279419
 31
0.0
  0
ARC
  5
1C8
330
1F
100
AcDbEntity
  8
0
  6
Continuous
 62
     7
370
    25
100
AcDbCircle
 10
17.7506389642
 20
18.6383003011
 30
0.0
 40
0.2576824030104797
100
AcDbArc
 50
175.417132138
 51
267.686445802
  0
LINE
  5
1C9
330
1F
100
AcDbEntity
  8
0
  6
Continuous
 62
     7
370
    25
100
AcDbLine
 10
17.5696131515
 20
18.6588893497
 30
0.0
 11
17.4937804197
 21
18.6588893497
 31
0.0
  0
LINE
  5
1CA
330
1F
100
AcDbEntity
  8
0
  6
Continuous
 62
     7
370
    25
100
AcDbLine
 10
13.4095281367
 20
18.9655654787
 30
0.0
 11
13.4095281367
 21
18.8926389655
 31
0.0
  0
ARC
  5
1CB
330
1F
100
AcDbEntity
  8
0
  6
Continuous
 62
     7
370
    25
100
AcDbCircle
 10
13.4199303028
 20
19.1501113247
 30
0.0
 40
0.2576824030104761
100
AcDbArc
 50
175.417132138
 51
267.686445802
  0
LINE
  5
1CC
330
1F
100
AcDbEntity
  8
0
  6
Continuous
 62
     7
370
    25
100
AcDbLine
 10
13.2389044901
 20
19.1707003733
 30
0.0
 11
13.1630717583
 21
19.1707003733
 31
0.0
  0
LINE
  5
1CD
330
1F
100
AcDbEntity
  8
0
  6
Continuous
 62
     7
370
    25
100
AcDbLine
 10
16.8478683188
 20
19.1707003733
 30
0.0
 11
16.9237010506
 21
19.1707003733
 31
0.0
  0
ARC
  5
1CE
330
1F
100
AcDbEntity
  8
0
  6
Continuous
 62
     7
370
    25
100
AcDbCircle
 10
16.668468703
 20
19.1486699647
 30
0.0
 40
0.2561813619128324
100
AcDbArc
 50
271.963157629
 51
4.9332644324
  0
LINE
  5
1CF
330
1F
100
AcDbEntity
  8
0
  6
Continuous
 62
     7
370
    25
100
AcDbLine
 10
16.6772446722
 20
18.9655654787
 30
0.0
 11
16.6772446722
 21
18.8926389655
 31
0.0
  0
LINE
  5
1D0
330
1F
100
AcDbEntity
  8
0
  6
Continuous
 62
     7
370
    25
100
AcDbLine
 10
26.2966872164
 20
19.1707003733
 30
0.0
 11
26.3725199483
 21
19.1707003733
 31
0.0
  0
ARC
  5
1D1
330
1F
100
AcDbEntity
  8
0
  6
Continuous
 62
     7
370
    25
100
AcDbCircle
 10
26.1172876006
 20
19.1486699647
 30
0.0
 40
0.2561813619128259
100
AcDbArc
 50
271.963157629
 51
4.9332644325
  0
LINE
  5
1D2
330
1F
100
AcDbEntity
  8
0
  6
Continuous
 62
     7
370
    25
100
AcDbLine
 10
26.1260635698
 20
18.9655654787
 30
0.0
 11
26.1260635698
 21
18.8926389655
 31
0.0
  0
LINE
  5
1D3
330
1F
100
AcDbEntity
  8
0
  6
Continuous
 62
     7
370
    25
100
AcDbLine
 10
26.2966872164
 20
19.682511397
 30
0.0
 11
26.3725199483
 21
19.682511397
 31
0.0
  0
ARC
  5
1D4
330
1F
100
AcDbEntity
  8
0
  6
Continuous
 62
     7
370
    25
100
AcDbCircle
 10
26.1172876006
 20
19.6604809883
 30
0.0
 40
0.256181361912825
100
AcDbArc
 50
271.963157629
 51
4.9332644324
  0
LINE
  5
1D5
330
1F
100
AcDbEntity
  8
0
  6
Continuous
 62
     7
370
    25
100
AcDbLine
 10
26.1260635698
 20
19.4773765023
 30
0.0
 11
26.1260635698
 21
19.4044499891
 31
0.0
  0
LINE
  5
1D6
330
1F
100
AcDbEntity
  8
0
  6
Continuous
 62
     7
370
    25
100
AcDbLine
 10
16.8478683188
 20
19.682511397
 30
0.0
 11
16.9237010506
 21
19.682511397
 31
0.0
  0
ARC
  5
1D7
330
1F
100
AcDbEntity
  8
0
  6
Continuous
 62
     7
370
    25
100
AcDbCircle
 10
16.668468703
 20
19.6604809883
 30
0.0
 40
0.2561813619128285
100
AcDbArc
 50
271.963157629
 51
4.9332644324
  0
LINE
  5
1D8
330
1F
100
AcDbEntity
  8
0
  6
Continuous
 62
     7
370
    25
100
AcDbLine
 10
16.6772446722
 20
19.4773765023
 30
0.0
 11
16.6772446722
 21
19.4044499891
 31
0.0
  0
LINE
  5
1D9
330
1F
100
AcDbEntity
  8
0
  6
Continuous
 62
     7
370
    25
100
AcDbLine
 10
13.4095281367
 20
18.4537544551
 30
0.0
 11
13.4095281367
 21
18.3808279419
 31
0.0
  0
ARC
  5
1DA
330
1F
100
AcDbEntity
  8
0
  6
Continuous
 62
     7
370
    25
100
AcDbCircle
 10
13.4199303028
 20
18.6383003011
 30
0.0
 40
0.2576824030104878
100
AcDbArc
 50
175.417132138
 51
267.686445802
  0
LINE
  5
1DB
330
1F
100
AcDbEntity
  8
0
  6
Continuous
 62
     7
370
    25
100
AcDbLine
 10
13.2389044901
 20
18.6588893497
 30
0.0
 11
13.1630717583
 21
18.6588893497
 31
0.0
  0
LINE
  5
1DC
330
1F
100
AcDbEntity
  8
0
  6
Continuous
 62
     7
370
    25
100
AcDbLine
 10
17.7402367981
 20
19.4773765023
 30
0.0
 11
17.7402367981
 21
19.4044499891
 31
0.0
  0
ARC
  5
1DD
330
1F
100
AcDbEntity
  8
0
  6
Continuous
 62
     7
370
    25
100
AcDbCircle
 10
17.7506389642
 20
19.6619223483
 30
0.0
 40
0.2576824030104696
100
AcDbArc
 50
175.417132138
 51
267.686445802
  0
LINE
  5
1DE
330
1F
100
AcDbEntity
  8
0
  6
Continuous
 62
     7
370
    25
100
AcDbLine
 10
17.5696131515
 20
19.682511397
 30
0.0
 11
17.4937804197
 21
19.682511397
 31
0.0
  0
LINE
  5
1DF
330
1F
100
AcDbEntity
  8
0
  6
Continuous
 62
     7
370
    25
100
AcDbLine
 10
17.7402367981
 20
18.9655654787
 30
0.0
 11
17.7402367981
 21
18.8926389655
 31
0.0
  0
ARC
  5
1E0
330
1F
100
AcDbEntity
  8
0
  6
Continuous
 62
     7
370
    25
100
AcDbCircle
 10
17.7506389642
 20
19.1501113247
 30
0.0
 40
0.2576824030104696
100
AcDbArc
 50
175.417132138
 51
267.686445802
  0
LINE
  5
1E1
330
1F
100
AcDbEntity
  8
0
  6
Continuous
 62
     7
370
    25
100
AcDbLine
 10
17.5696131515
 20
19.1707003733
 30
0.0
 11
17.4937804197
 21
19.1707003733
 31
0.0
  0
LINE
  5
1E2
330
1F
100
AcDbEntity
  8
0
  6
Continuous
 62
     7
370
    25
100
AcDbLine
 10
17.4937804197
 20
19.1707003733
 30
0.0
 11
17.4937804197
 21
19.2414518342
 31
0.0
  0
ELLIPSE
  5
1E3
330
1F
100
AcDbEntity
  8
0
  6
Continuous
 62
     7
370
    25
100
AcDbEllipse
 10
17.4937804197
 20
19.2247150971
 30
0.0
 11
0.07874015748031482
 21
0.0
 31
0.0
210
0.0
220
0.0
230
1.0
 40
0.2125565617
 41
1.065435816510664
 42
1.570796326794897
  0
ELLIPSE
  5
1E4
330
1F
100
AcDbEntity
  8
0
  6
Continuous
 62
     7
370
    25
100
AcDbEllipse
 10
35.0339372711
 20
18.7129040735
 30
0.0
 11
0.07874015748031837
 21
0.0
 31
0.0
210
0.0
220
0.0
230
1.0
 40
0.2125565617
 41
1.570796326794897
 42
2.076156837079382
  0
LINE
  5
1E5
330
1F
100
AcDbEntity
  8
0
  6
Continuous
 62
     7
370
    25
100
AcDbLine
 10
35.0339372711
 20
18.7296408106
 30
0.0
 11
35.0339372711
 21
18.6588893497
 31
0.0
  0
ELLIPSE
  5
1E6
330
1F
100
AcDbEntity
  8
0
  6
Continuous
 62
     7
370
    25
100
AcDbEllipse
 10
35.0339372711
 20
19.7365261207
 30
0.0
 11
0.07874015748031837
 21
0.0
 31
0.0
210
0.0
220
0.0
230
1.0
 40
0.2125565617
 41
1.570796326794897
 42
2.076156837079382
  0
LINE
  5
1E7
330
1F
100
AcDbEntity
  8
0
  6
Continuous
 62
     7
370
    25
100
AcDbLine
 10
35.0339372711
 20
19.7532628578
 30
0.0
 11
35.0339372711
 21
19.682511397
 31
0.0
  0
ELLIPSE
  5
1E8
330
1F
100
AcDbEntity
  8
0
  6
Continuous
 62
     7
370
    25
100
AcDbEllipse
 10
21.254409712
 20
19.7365261207
 30
0.0
 11
0.07874015748031482
 21
0.0
 31
0.0
210
0.0
220
0.0
230
1.0
 40
0.2125565617
 41
1.570796326794897
 42
2.076156837079322
  0
LINE
  5
1E9
330
1F
100
AcDbEntity
  8
0
  6
Continuous
 62
     7
370
    25
100
AcDbLine
 10
21.254409712
 20
19.7532628578
 30
0.0
 11
21.254409712
 21
19.682511397
 31
0.0
  0
ELLIPSE
  5
1EA
330
1F
100
AcDbEntity
  8
0
  6
Continuous
 62
     7
370
    25
100
AcDbEllipse
 10
16.9237010506
 20
18.7129040735
 30
0.0
 11
0.07874015748031482
 21
0.0
 31
0.0
210
0.0
220
0.0
230
1.0
 40
0.2125565617
 41
1.570796326794897
 42
2.076156837079362
  0
LINE
  5
1EB
330
1F
100
AcDbEntity
  8
0
  6
Continuous
 62
     7
370
    25
100
AcDbLine
 10
16.9237010506
 20
18.7296408106
 30
0.0
 11
16.9237010506
 21
18.6588893497
 31
0.0
  0
ELLIPSE
  5
1EC
330
1F
100
AcDbEntity
  8
0
  6
Continuous
 62
     7
370
    25
100
AcDbEllipse
 10
26.3725199483
 20
18.7129040735
 30
0.0
 11
0.07874015748031482
 21
0.0
 31
0.0
210
0.0
220
0.0
230
1.0
 40
0.2125565617
 41
1.570796326794897
 42
2.076156837079282
  0
LINE
  5
1ED
330
1F
100
AcDbEntity
  8
0
  6
Continuous
 62
     7
370
    25
100
AcDbLine
 10
26.3725199483
 20
18.7296408106
 30
0.0
 11
26.3725199483
 21
18.6588893497
 31
0.0
  0
LINE
  5
1EE
330
1F
100
AcDbEntity
  8
0
  6
Continuous
 62
     7
370
    25
100
AcDbLine
 10
22.6118906559
 20
19.1707003733
 30
0.0
 11
22.6118906559
 21
19.2414518342
 31
0.0
  0
ELLIPSE
  5
1EF
330
1F
100
AcDbEntity
  8
0
  6
Continuous
 62
     7
370
    25
100
AcDbEllipse
 10
22.6118906559
 20
19.2247150971
 30
0.0
 11
0.07874015748031482
 21
0.0
 31
0.0
210
0.0
220
0.0
230
1.0
 40
0.2125565617
 41
1.065435816510585
 42
1.570796326794897
  0
ELLIPSE
  5
1F0
330
1F
100
AcDbEntity
  8
0
  6
Continuous
 62
     7
370
    25
100
AcDbEllipse
 10
21.254409712
 20
18.7129040735
 30
0.0
 11
0.07874015748031482
 21
0.0
 31
0.0
210
0.0
220
0.0
230
1.0
 40
0.2125565617
 41
1.570796326794897
 42
2.076156837079322
  0
LINE
  5
1F1
330
1F
100
AcDbEntity
  8
0
  6
Continuous
 62
     7
370
    25
100
AcDbLine
 10
21.254409712
 20
18.7296408106
 30
0.0
 11
21.254409712
 21
18.6588893497
 31
0.0
  0
ELLIPSE
  5
1F2
330
1F
100
AcDbEntity
  8
0
  6
Continuous
 62
     7
370
    25
100
AcDbEllipse
 10
16.9237010506
 20
19.7365261207
 30
0.0
 11
0.07874015748031482
 21
0.0
 31
0.0
210
0.0
220
0.0
230
1.0
 40
0.2125565617
 41
1.570796326794897
 42
2.076156837079362
  0
LINE
  5
1F3
330
1F
100
AcDbEntity
  8
0
  6
Continuous
 62
     7
370
    25
100
AcDbLine
 10
16.9237010506
 20
19.7532628578
 30
0.0
 11
16.9237010506
 21
19.682511397
 31
0.0
  0
LINE
  5
1F4
330
1F
100
AcDbEntity
  8
0
  6
Continuous
 62
     7
370
    25
100
AcDbLine
 10
31.2733079787
 20
19.1707003733
 30
0.0
 11
31.2733079787
 21
19.2414518342
 31
0.0
  0
ELLIPSE
  5
1F5
330
1F
100
AcDbEntity
  8
0
  6
Continuous
 62
     7
370
    25
100
AcDbEllipse
 10
31.2733079787
 20
19.2247150971
 30
0.0
 11
0.07874015748031482
 21
0.0
 31
0.0
210
0.0
220
0.0
230
1.0
 40
0.2125565617
 41
1.065435816510585
 42
1.570796326794897
  0
LINE
  5
1F6
330
1F
100
AcDbEntity
  8
0
  6
Continuous
 62
     7
370
    25
100
AcDbLine
 10
13.1630717583
 20
19.1707003733
 30
0.0
 11
13.1630717583
 21
19.2414518342
 31
0.0
  0
ELLIPSE
  5
1F7
330
1F
100
AcDbEntity
  8
0
  6
Continuous
 62
     7
370
    25
100
AcDbEllipse
 10
13.1630717583
 20
19.2247150971
 30
0.0
 11
0.0787401574803166
 21
0.0
 31
0.0
210
0.0
220
0.0
230
1.0
 40
0.2125565617
 41
1.065435816510595
 42
1.570796326794897
  0
ELLIPSE
  5
1F8
330
1F
100
AcDbEntity
  8
0
  6
Continuous
 62
     7
370
    25
100
AcDbEllipse
 10
26.3725199483
 20
19.7365261207
 30
0.0
 11
0.07874015748031482
 21
0.0
 31
0.0
210
0.0
220
0.0
230
1.0
 40
0.2125565617
 41
1.570796326794897
 42
2.076156837079282
  0
LINE
  5
1F9
330
1F
100
AcDbEntity
  8
0
  6
Continuous
 62
     7
370
    25
100
AcDbLine
 10
26.3725199483
 20
19.7532628578
 30
0.0
 11
26.3725199483
 21
19.682511397
 31
0.0
  0
LINE
  5
1FA
330
1F
100
AcDbEntity
  8
0
  6
Continuous
 62
     7
370
    25
100
AcDbLine
 10
31.2733079787
 20
18.6588893497
 30
0.0
 11
31.2733079787
 21
18.7296408106
 31
0.0
  0
ELLIPSE
  5
1FB
330
1F
100
AcDbEntity
  8
0
  6
Continuous
 62
     7
370
    25
100
AcDbEllipse
 10
31.2733079787
 20
18.7129040735
 30
0.0
 11
0.07874015748031482
 21
0.0
 31
0.0
210
0.0
220
0.0
230
1.0
 40
0.2125565617
 41
1.065435816510392
 42
1.570796326794897
  0
ELLIPSE
  5
1FC
330
1F
100
AcDbEntity
  8
0
  6
Continuous
 62
     7
370
    25
100
AcDbEllipse
 10
35.0339372711
 20
19.2247150971
 30
0.0
 11
0.07874015748031837
 21
0.0
 31
0.0
210
0.0
220
0.0
230
1.0
 40
0.2125565617
 41
1.570796326794897
 42
2.076156837079189
  0
LINE
  5
1FD
330
1F
100
AcDbEntity
  8
0
  6
Continuous
 62
     7
370
    25
100
AcDbLine
 10
35.0339372711
 20
19.2414518342
 30
0.0
 11
35.0339372711
 21
19.1707003733
 31
0.0
  0
ELLIPSE
  5
1FE
330
1F
100
AcDbEntity
  8
0
  6
Continuous
 62
     7
370
    25
100
AcDbEllipse
 10
21.254409712
 20
19.2247150971
 30
0.0
 11
0.07874015748031482
 21
0.0
 31
0.0
210
0.0
220
0.0
230
1.0
 40
0.2125565617
 41
1.570796326794897
 42
2.076156837079129
  0
LINE
  5
1FF
330
1F
100
AcDbEntity
  8
0
  6
Continuous
 62
     7
370
    25
100
AcDbLine
 10
21.254409712
 20
19.2414518342
 30
0.0
 11
21.254409712
 21
19.1707003733
 31
0.0
  0
LINE
  5
200
330
1F
100
AcDbEntity
  8
0
  6
Continuous
 62
     7
370
    25
100
AcDbLine
 10
13.1630717583
 20
18.6588893497
 30
0.0
 11
13.1630717583
 21
18.7296408106
 31
0.0
  0
ELLIPSE
  5
201
330
1F
100
AcDbEntity
  8
0
  6
Continuous
 62
     7
370
    25
100
AcDbEllipse
 10
13.1630717583
 20
18.7129040735
 30
0.0
 11
0.0787401574803166
 21
0.0
 31
0.0
210
0.0
220
0.0
230
1.0
 40
0.2125565617
 41
1.065435816510402
 42
1.570796326794897
  0
LINE
  5
202
330
1F
100
AcDbEntity
  8
0
  6
Continuous
 62
     7
370
    25
100
AcDbLine
 10
31.2733079787
 20
19.682511397
 30
0.0
 11
31.2733079787
 21
19.7532628578
 31
0.0
  0
ELLIPSE
  5
203
330
1F
100
AcDbEntity
  8
0
  6
Continuous
 62
     7
370
    25
100
AcDbEllipse
 10
31.2733079787
 20
19.7365261207
 30
0.0
 11
0.07874015748031482
 21
0.0
 31
0.0
210
0.0
220
0.0
230
1.0
 40
0.2125565617
 41
1.065435816510392
 42
1.570796326794897
  0
ELLIPSE
  5
204
330
1F
100
AcDbEntity
  8
0
  6
Continuous
 62
     7
370
    25
100
AcDbEllipse
 10
26.3725199483
 20
19.2247150971
 30
0.0
 11
0.07874015748031482
 21
0.0
 31
0.0
210
0.0
220
0.0
230
1.0
 40
0.2125565617
 41
1.570796326794897
 42
2.07615683707909
  0
LINE
  5
205
330
1F
100
AcDbEntity
  8
0
  6
Continuous
 62
     7
370
    25
100
AcDbLine
 10
26.3725199483
 20
19.2414518342
 30
0.0
 11
26.3725199483
 21
19.1707003733
 31
0.0
  0
LINE
  5
206
330
1F
100
AcDbEntity
  8
0
  6
Continuous
 62
     7
370
    25
100
AcDbLine
 10
17.4937804197
 20
19.682511397
 30
0.0
 11
17.4937804197
 21
19.7532628578
 31
0.0
  0
ELLIPSE
  5
207
330
1F
100
AcDbEntity
  8
0
  6
Continuous
 62
     7
370
    25
100
AcDbEllipse
 10
17.4937804197
 20
19.7365261207
 30
0.0
 11
0.07874015748031482
 21
0.0
 31
0.0
210
0.0
220
0.0
230
1.0
 40
0.2125565617
 41
1.065435816510471
 42
1.570796326794897
  0
ELLIPSE
  5
208
330
1F
100
AcDbEntity
  8
0
  6
Continuous
 62
     7
370
    25
100
AcDbEllipse
 10
16.9237010506
 20
19.2247150971
 30
0.0
 11
0.07874015748031482
 21
0.0
 31
0.0
210
0.0
220
0.0
230
1.0
 40
0.2125565617
 41
1.570796326794897
 42
2.076156837079169
  0
LINE
  5
209
330
1F
100
AcDbEntity
  8
0
  6
Continuous
 62
     7
370
    25
100
AcDbLine
 10
16.9237010506
 20
19.2414518342
 30
0.0
 11
16.9237010506
 21
19.1707003733
 31
0.0
  0
LINE
  5
20A
330
1F
100
AcDbEntity
  8
0
  6
Continuous
 62
     7
370
    25
100
AcDbLine
 10
22.6118906559
 20
19.682511397
 30
0.0
 11
22.6118906559
 21
19.7532628578
 31
0.0
  0
ELLIPSE
  5
20B
330
1F
100
AcDbEntity
  8
0
  6
Continuous
 62
     7
370
    25
100
AcDbEllipse
 10
22.6118906559
 20
19.7365261207
 30
0.0
 11
0.07874015748031482
 21
0.0
 31
0.0
210
0.0
220
0.0
230
1.0
 40
0.2125565617
 41
1.065435816510392
 42
1.570796326794897
  0
LINE
  5
20C
330
1F
100
AcDbEntity
  8
0
  6
Continuous
 62
     7
370
    25
100
AcDbLine
 10
22.6118906559
 20
18.6588893497
 30
0.0
 11
22.6118906559
 21
18.7296408106
 31
0.0
  0
ELLIPSE
  5
20D
330
1F
100
AcDbEntity
  8
0
  6
Continuous
 62
     7
370
    25
100
AcDbEllipse
 10
22.6118906559
 20
18.7129040735
 30
0.0
 11
0.07874015748031482
 21
0.0
 31
0.0
210
0.0
220
0.0
230
1.0
 40
0.2125565617
 41
1.065435816510392
 42
1.570796326794897
  0
LINE
  5
20E
330
1F
100
AcDbEntity
  8
0
  6
Continuous
 62
     7
370
    25
100
AcDbLine
 10
17.4937804197
 20
18.6588893497
 30
0.0
 11
17.4937804197
 21
18.7296408106
 31
0.0
  0
ELLIPSE
  5
20F
330
1F
100
AcDbEntity
  8
0
  6
Continuous
 62
     7
370
    25
100
AcDbEllipse
 10
17.4937804197
 20
18.7129040735
 30
0.0
 11
0.07874015748031482
 21
0.0
 31
0.0
210
0.0
220
0.0
230
1.0
 40
0.2125565617
 41
1.065435816510471
 42
1.570796326794897
  0
LINE
  5
210
330
1F
100
AcDbEntity
  8
0
  6
Continuous
 62
     7
370
    25
100
AcDbLine
 10
13.1630717583
 20
19.682511397
 30
0.0
 11
13.1630717583
 21
19.7532628578
 31
0.0
  0
ELLIPSE
  5
211
330
1F
100
AcDbEntity
  8
0
  6
Continuous
 62
     7
370
    25
100
AcDbEllipse
 10
13.1630717583
 20
19.7365261207
 30
0.0
 11
0.0787401574803166
 21
0.0
 31
0.0
210
0.0
220
0.0
230
1.0
 40
0.2125565617
 41
1.065435816510402
 42
1.570796326794897
  0
LINE
  5
212
330
1F
100
AcDbEntity
  8
0
  6
Continuous
 62
     7
370
    25
100
AcDbLine
 10
26.1260635698
 20
18.3808279419
 30
0.0
 11
22.8583470344
 21
18.3808279419
 31
0.0
  0
LINE
  5
213
330
1F
100
AcDbEntity
  8
0
  6
Continuous
 62
     7
370
    25
100
AcDbLine
 10
16.6772446722
 20
18.3808279419
 30
0.0
 11
13.4095281367
 21
18.3808279419
 31
0.0
  0
LINE
  5
214
330
1F
100
AcDbEntity
  8
0
  6
Continuous
 62
     7
370
    25
100
AcDbLine
 10
21.0079533336
 20
18.3808279419
 30
0.0
 11
17.7402367981
 21
18.3808279419
 31
0.0
  0
LINE
  5
215
330
1F
100
AcDbEntity
  8
0
  6
Continuous
 62
     7
370
    25
100
AcDbLine
 10
34.7874808926
 20
18.3808279419
 30
0.0
 11
31.5197643572
 21
18.3808279419
 31
0.0
  0
LINE
  5
216
330
1F
100
AcDbEntity
  8
0
  6
Continuous
 62
     7
370
    25
100
AcDbLine
 10
34.7874808926
 20
18.8926389655
 30
0.0
 11
31.5197643572
 21
18.8926389655
 31
0.0
  0
LINE
  5
217
330
1F
100
AcDbEntity
  8
0
  6
Continuous
 62
     7
370
    25
100
AcDbLine
 10
34.7874808926
 20
19.4044499891
 30
0.0
 11
31.5197643572
 21
19.4044499891
 31
0.0
  0
LINE
  5
218
330
1F
100
AcDbEntity
  8
0
  6
Continuous
 62
     7
370
    25
100
AcDbLine
 10
16.6772446722
 20
19.4044499891
 30
0.0
 11
13.4095281367
 21
19.4044499891
 31
0.0
  0
LINE
  5
219
330
1F
100
AcDbEntity
  8
0
  6
Continuous
 62
     7
370
    25
100
AcDbLine
 10
26.1260635698
 20
19.4044499891
 30
0.0
 11
22.8583470344
 21
19.4044499891
 31
0.0
  0
LINE
  5
21A
330
1F
100
AcDbEntity
  8
0
  6
Continuous
 62
     7
370
    25
100
AcDbLine
 10
21.0079533336
 20
19.4044499891
 30
0.0
 11
17.7402367981
 21
19.4044499891
 31
0.0
  0
LINE
  5
21B
330
1F
100
AcDbEntity
  8
0
  6
Continuous
 62
     7
370
    25
100
AcDbLine
 10
26.1260635698
 20
18.8926389655
 30
0.0
 11
22.8583470344
 21
18.8926389655
 31
0.0
  0
LINE
  5
21C
330
1F
100
AcDbEntity
  8
0
  6
Continuous
 62
     7
370
    25
100
AcDbLine
 10
16.6772446722
 20
18.8926389655
 30
0.0
 11
13.4095281367
 21
18.8926389655
 31
0.0
  0
LINE
  5
21D
330
1F
100
AcDbEntity
  8
0
  6
Continuous
 62
     7
370
    25
100
AcDbLine
 10
21.0079533336
 20
18.8926389655
 30
0.0
 11
17.7402367981
 21
18.8926389655
 31
0.0
  0
LINE
  5
21E
330
1F
100
AcDbEntity
  8
0
  6
Continuous
 62
     7
370
    25
100
AcDbLine
 10
16.8356668783
 20
19.2414518342
 30
0.0
 11
16.9237010506
 21
19.2414518342
 31
0.0
  0
ELLIPSE
  5
21F
330
1F
100
AcDbEntity
  8
0
  6
Continuous
 62
     7
370
    25
100
AcDbEllipse
 10
16.9237010506
 20
19.2247150971
 30
0.0
 11
0.1181102362204705
 21
0.0
 31
0.0
210
0.0
220
0.0
230
1.0
 40
0.2125565617
 41
2.411864997362784
 42
2.518766068177714
  0
LINE
  5
220
330
1F
100
AcDbEntity
  8
0
  6
Continuous
 62
     7
370
    25
100
AcDbLine
 10
17.4937804197
 20
19.7532628578
 30
0.0
 11
17.581814592
 21
19.7532628578
 31
0.0
  0
ELLIPSE
  5
221
330
1F
100
AcDbEntity
  8
0
  6
Continuous
 62
     7
370
    25
100
AcDbEllipse
 10
17.4937804197
 20
19.7365261207
 30
0.0
 11
0.118110236220474
 21
0.0
 31
0.0
210
0.0
220
0.0
230
1.0
 40
0.2125565617
 41
0.6228265854119791
 42
0.7297276562268832
  0
LINE
  5
222
330
1F
100
AcDbEntity
  8
0
  6
Continuous
 62
     7
370
    25
100
AcDbLine
 10
21.1663755397
 20
19.7532628578
 30
0.0
 11
21.254409712
 21
19.7532628578
 31
0.0
  0
ELLIPSE
  5
223
330
1F
100
AcDbEntity
  8
0
  6
Continuous
 62
     7
370
    25
100
AcDbEllipse
 10
21.254409712
 20
19.7365261207
 30
0.0
 11
0.118110236220474
 21
0.0
 31
0.0
210
0.0
220
0.0
230
1.0
 40
0.2125565617
 41
2.411864997362769
 42
2.518766068177779
  0
LINE
  5
224
330
1F
100
AcDbEntity
  8
0
  6
Continuous
 62
     7
370
    25
100
AcDbLine
 10
16.8356668783
 20
19.7532628578
 30
0.0
 11
16.9237010506
 21
19.7532628578
 31
0.0
  0
ELLIPSE
  5
225
330
1F
100
AcDbEntity
  8
0
  6
Continuous
 62
     7
370
    25
100
AcDbEllipse
 10
16.9237010506
 20
19.7365261207
 30
0.0
 11
0.1181102362204705
 21
0.0
 31
0.0
210
0.0
220
0.0
230
1.0
 40
0.2125565617
 41
2.411864997362784
 42
2.518766068177828
  0
LINE
  5
226
330
1F
100
AcDbEntity
  8
0
  6
Continuous
 62
     7
370
    25
100
AcDbLine
 10
13.1630717583
 20
19.7532628578
 30
0.0
 11
13.2511059306
 21
19.7532628578
 31
0.0
  0
ELLIPSE
  5
227
330
1F
100
AcDbEntity
  8
0
  6
Continuous
 62
     7
370
    25
100
AcDbEllipse
 10
13.1630717583
 20
19.7365261207
 30
0.0
 11
0.118110236220474
 21
0.0
 31
0.0
210
0.0
220
0.0
230
1.0
 40
0.2125565617
 41
0.6228265854119791
 42
0.7297276562268932
  0
LINE
  5
228
330
1F
100
AcDbEntity
  8
0
  6
Continuous
 62
     7
370
    25
100
AcDbLine
 10
34.9459030987
 20
19.2414518342
 30
0.0
 11
35.0339372711
 21
19.2414518342
 31
0.0
  0
ELLIPSE
  5
229
330
1F
100
AcDbEntity
  8
0
  6
Continuous
 62
     7
370
    25
100
AcDbEllipse
 10
35.0339372711
 20
19.2247150971
 30
0.0
 11
0.1181102362204669
 21
0.0
 31
0.0
210
0.0
220
0.0
230
1.0
 40
0.2125565617
 41
2.41186499736284
 42
2.518766068177745
  0
LINE
  5
22A
330
1F
100
AcDbEntity
  8
0
  6
Continuous
 62
     7
370
    25
100
AcDbLine
 10
26.2844857759
 20
18.7296408106
 30
0.0
 11
26.3725199483
 21
18.7296408106
 31
0.0
  0
ELLIPSE
  5
22B
330
1F
100
AcDbEntity
  8
0
  6
Continuous
 62
     7
370
    25
100
AcDbEllipse
 10
26.3725199483
 20
18.7129040735
 30
0.0
 11
0.1181102362204705
 21
0.0
 31
0.0
210
0.0
220
0.0
230
1.0
 40
0.2125565617
 41
2.411864997362799
 42
2.518766068177761
  0
LINE
  5
22C
330
1F
100
AcDbEntity
  8
0
  6
Continuous
 62
     7
370
    25
100
AcDbLine
 10
21.1663755397
 20
19.2414518342
 30
0.0
 11
21.254409712
 21
19.2414518342
 31
0.0
  0
ELLIPSE
  5
22D
330
1F
100
AcDbEntity
  8
0
  6
Continuous
 62
     7
370
    25
100
AcDbEllipse
 10
21.254409712
 20
19.2247150971
 30
0.0
 11
0.118110236220474
 21
0.0
 31
0.0
210
0.0
220
0.0
230
1.0
 40
0.2125565617
 41
2.411864997362769
 42
2.518766068177664
  0
LINE
  5
22E
330
1F
100
AcDbEntity
  8
0
  6
Continuous
 62
     7
370
    25
100
AcDbLine
 10
34.9459030987
 20
19.7532628578
 30
0.0
 11
35.0339372711
 21
19.7532628578
 31
0.0
  0
ELLIPSE
  5
22F
330
1F
100
AcDbEntity
  8
0
  6
Continuous
 62
     7
370
    25
100
AcDbEllipse
 10
35.0339372711
 20
19.7365261207
 30
0.0
 11
0.1181102362204669
 21
0.0
 31
0.0
210
0.0
220
0.0
230
1.0
 40
0.2125565617
 41
2.41186499736284
 42
2.518766068177861
  0
LINE
  5
230
330
1F
100
AcDbEntity
  8
0
  6
Continuous
 62
     7
370
    25
100
AcDbLine
 10
22.6118906559
 20
19.7532628578
 30
0.0
 11
22.6999248283
 21
19.7532628578
 31
0.0
  0
ELLIPSE
  5
231
330
1F
100
AcDbEntity
  8
0
  6
Continuous
 62
     7
370
    25
100
AcDbEllipse
 10
22.6118906559
 20
19.7365261207
 30
0.0
 11
0.118110236220474
 21
0.0
 31
0.0
210
0.0
220
0.0
230
1.0
 40
0.2125565617
 41
0.6228265854119616
 42
0.7297276562268631
  0
LINE
  5
232
330
1F
100
AcDbEntity
  8
0
  6
Continuous
 62
     7
370
    25
100
AcDbLine
 10
21.1663755397
 20
18.7296408106
 30
0.0
 11
21.254409712
 21
18.7296408106
 31
0.0
  0
ELLIPSE
  5
233
330
1F
100
AcDbEntity
  8
0
  6
Continuous
 62
     7
370
    25
100
AcDbEllipse
 10
21.254409712
 20
18.7129040735
 30
0.0
 11
0.118110236220474
 21
0.0
 31
0.0
210
0.0
220
0.0
230
1.0
 40
0.2125565617
 41
2.411864997362805
 42
2.518766068177712
  0
LINE
  5
234
330
1F
100
AcDbEntity
  8
0
  6
Continuous
 62
     7
370
    25
100
AcDbLine
 10
34.9459030987
 20
18.7296408106
 30
0.0
 11
35.0339372711
 21
18.7296408106
 31
0.0
  0
ELLIPSE
  5
235
330
1F
100
AcDbEntity
  8
0
  6
Continuous
 62
     7
370
    25
100
AcDbEllipse
 10
35.0339372711
 20
18.7129040735
 30
0.0
 11
0.1181102362204669
 21
0.0
 31
0.0
210
0.0
220
0.0
230
1.0
 40
0.2125565617
 41
2.411864997362875
 42
2.518766068177794
  0
LINE
  5
236
330
1F
100
AcDbEntity
  8
0
  6
Continuous
 62
     7
370
    25
100
AcDbLine
 10
17.4937804197
 20
19.2414518342
 30
0.0
 11
17.581814592
 21
19.2414518342
 31
0.0
  0
ELLIPSE
  5
237
330
1F
100
AcDbEntity
  8
0
  6
Continuous
 62
     7
370
    25
100
AcDbEllipse
 10
17.4937804197
 20
19.2247150971
 30
0.0
 11
0.118110236220474
 21
0.0
 31
0.0
210
0.0
220
0.0
230
1.0
 40
0.2125565617
 41
0.6228265854120941
 42
0.7297276562268832
  0
LINE
  5
238
330
1F
100
AcDbEntity
  8
0
  6
Continuous
 62
     7
370
    25
100
AcDbLine
 10
26.2844857759
 20
19.7532628578
 30
0.0
 11
26.3725199483
 21
19.7532628578
 31
0.0
  0
ELLIPSE
  5
239
330
1F
100
AcDbEntity
  8
0
  6
Continuous
 62
     7
370
    25
100
AcDbEllipse
 10
26.3725199483
 20
19.7365261207
 30
0.0
 11
0.1181102362204705
 21
0.0
 31
0.0
210
0.0
220
0.0
230
1.0
 40
0.2125565617
 41
2.411864997362765
 42
2.518766068177828
  0
LINE
  5
23A
330
1F
100
AcDbEntity
  8
0
  6
Continuous
 62
     7
370
    25
100
AcDbLine
 10
16.8356668783
 20
18.7296408106
 30
0.0
 11
16.9237010506
 21
18.7296408106
 31
0.0
  0
ELLIPSE
  5
23B
330
1F
100
AcDbEntity
  8
0
  6
Continuous
 62
     7
370
    25
100
AcDbEllipse
 10
16.9237010506
 20
18.7129040735
 30
0.0
 11
0.1181102362204705
 21
0.0
 31
0.0
210
0.0
220
0.0
230
1.0
 40
0.2125565617
 41
2.41186499736282
 42
2.518766068177761
  0
LINE
  5
23C
330
1F
100
AcDbEntity
  8
0
  6
Continuous
 62
     7
370
    25
100
AcDbLine
 10
17.4937804197
 20
18.7296408106
 30
0.0
 11
17.581814592
 21
18.7296408106
 31
0.0
  0
ELLIPSE
  5
23D
330
1F
100
AcDbEntity
  8
0
  6
Continuous
 62
     7
370
    25
100
AcDbEllipse
 10
17.4937804197
 20
18.7129040735
 30
0.0
 11
0.118110236220474
 21
0.0
 31
0.0
210
0.0
220
0.0
230
1.0
 40
0.2125565617
 41
0.6228265854120462
 42
0.729727656226848
  0
LINE
  5
23E
330
1F
100
AcDbEntity
  8
0
  6
Continuous
 62
     7
370
    25
100
AcDbLine
 10
31.2733079787
 20
18.7296408106
 30
0.0
 11
31.3613421511
 21
18.7296408106
 31
0.0
  0
ELLIPSE
  5
23F
330
1F
100
AcDbEntity
  8
0
  6
Continuous
 62
     7
370
    25
100
AcDbEllipse
 10
31.2733079787
 20
18.7129040735
 30
0.0
 11
0.1181102362204705
 21
0.0
 31
0.0
210
0.0
220
0.0
230
1.0
 40
0.2125565617
 41
0.6228265854120318
 42
0.729727656226833
  0
LINE
  5
240
330
1F
100
AcDbEntity
  8
0
  6
Continuous
 62
     7
370
    25
100
AcDbLine
 10
26.2844857759
 20
19.2414518342
 30
0.0
 11
26.3725199483
 21
19.2414518342
 31
0.0
  0
ELLIPSE
  5
241
330
1F
100
AcDbEntity
  8
0
  6
Continuous
 62
     7
370
    25
100
AcDbEllipse
 10
26.3725199483
 20
19.2247150971
 30
0.0
 11
0.1181102362204705
 21
0.0
 31
0.0
210
0.0
220
0.0
230
1.0
 40
0.2125565617
 41
2.411864997362765
 42
2.518766068177714
  0
LINE
  5
242
330
1F
100
AcDbEntity
  8
0
  6
Continuous
 62
     7
370
    25
100
AcDbLine
 10
31.2733079787
 20
19.2414518342
 30
0.0
 11
31.3613421511
 21
19.2414518342
 31
0.0
  0
ELLIPSE
  5
243
330
1F
100
AcDbEntity
  8
0
  6
Continuous
 62
     7
370
    25
100
AcDbEllipse
 10
31.2733079787
 20
19.2247150971
 30
0.0
 11
0.1181102362204705
 21
0.0
 31
0.0
210
0.0
220
0.0
230
1.0
 40
0.2125565617
 41
0.6228265854120797
 42
0.7297276562268682
  0
LINE
  5
244
330
1F
100
AcDbEntity
  8
0
  6
Continuous
 62
     7
370
    25
100
AcDbLine
 10
22.6118906559
 20
18.7296408106
 30
0.0
 11
22.6999248283
 21
18.7296408106
 31
0.0
  0
ELLIPSE
  5
245
330
1F
100
AcDbEntity
  8
0
  6
Continuous
 62
     7
370
    25
100
AcDbEllipse
 10
22.6118906559
 20
18.7129040735
 30
0.0
 11
0.118110236220474
 21
0.0
 31
0.0
210
0.0
220
0.0
230
1.0
 40
0.2125565617
 41
0.6228265854120285
 42
0.7297276562268279
  0
LINE
  5
246
330
1F
100
AcDbEntity
  8
0
  6
Continuous
 62
     7
370
    25
100
AcDbLine
 10
22.6118906559
 20
19.2414518342
 30
0.0
 11
22.6999248283
 21
19.2414518342
 31
0.0
  0
ELLIPSE
  5
247
330
1F
100
AcDbEntity
  8
0
  6
Continuous
 62
     7
370
    25
100
AcDbEllipse
 10
22.6118906559
 20
19.2247150971
 30
0.0
 11
0.118110236220474
 21
0.0
 31
0.0
210
0.0
220
0.0
230
1.0
 40
0.2125565617
 41
0.6228265854120765
 42
0.7297276562268631
  0
LINE
  5
248
330
1F
100
AcDbEntity
  8
0
  6
Continuous
 62
     7
370
    25
100
AcDbLine
 10
31.2733079787
 20
19.7532628578
 30
0.0
 11
31.3613421511
 21
19.7532628578
 31
0.0
  0
ELLIPSE
  5
249
330
1F
100
AcDbEntity
  8
0
  6
Continuous
 62
     7
370
    25
100
AcDbEllipse
 10
31.2733079787
 20
19.7365261207
 30
0.0
 11
0.1181102362204705
 21
0.0
 31
0.0
210
0.0
220
0.0
230
1.0
 40
0.2125565617
 41
0.6228265854119649
 42
0.7297276562268682
  0
LINE
  5
24A
330
1F
100
AcDbEntity
  8
0
  6
Continuous
 62
     7
370
    25
100
AcDbLine
 10
13.1630717583
 20
19.2414518342
 30
0.0
 11
13.2511059306
 21
19.2414518342
 31
0.0
  0
ELLIPSE
  5
24B
330
1F
100
AcDbEntity
  8
0
  6
Continuous
 62
     7
370
    25
100
AcDbEllipse
 10
13.1630717583
 20
19.2247150971
 30
0.0
 11
0.118110236220474
 21
0.0
 31
0.0
210
0.0
220
0.0
230
1.0
 40
0.2125565617
 41
0.6228265854120941
 42
0.7297276562268932
  0
LINE
  5
24C
330
1F
100
AcDbEntity
  8
0
  6
Continuous
 62
     7
370
    25
100
AcDbLine
 10
13.1630717583
 20
18.7296408106
 30
0.0
 11
13.2511059306
 21
18.7296408106
 31
0.0
  0
ELLIPSE
  5
24D
330
1F
100
AcDbEntity
  8
0
  6
Continuous
 62
     7
370
    25
100
AcDbEllipse
 10
13.1630717583
 20
18.7129040735
 30
0.0
 11
0.118110236220474
 21
0.0
 31
0.0
210
0.0
220
0.0
230
1.0
 40
0.2125565617
 41
0.6228265854120462
 42
0.729727656226858
  0
ARC
  5
24E
330
1F
100
AcDbEntity
  8
0
  6
Continuous
 62
     7
370
    25
100
AcDbCircle
 10
36.4582351639
 20
18.6283417975
 30
0.0
 40
0.1574803149606296
100
AcDbArc
 50
180.0
 51
270.0
  0
LINE
  5
24F
330
1F
100
AcDbEntity
  8
0
  6
Continuous
 62
     7
370
    25
100
AcDbLine
 10
36.3007548489
 20
18.6283417975
 30
0.0
 11
36.3401249277
 21
18.6283417975
 31
0.0
  0
ARC
  5
250
330
1F
100
AcDbEntity
  8
0
  6
Continuous
 62
     7
370
    25
100
AcDbCircle
 10
36.4582351639
 20
18.6283417975
 30
0.0
 40
0.118110236220474
100
AcDbArc
 50
180.0
 51
270.0
  0
LINE
  5
251
330
1F
100
AcDbEntity
  8
0
  6
Continuous
 62
     7
370
    25
100
AcDbLine
 10
36.4582351639
 20
18.4708614825
 30
0.0
 11
36.4582351639
 21
18.5102315613
 31
0.0
  0
ARC
  5
252
330
1F
100
AcDbEntity
  8
0
  6
Continuous
 62
     7
370
    25
100
AcDbCircle
 10
37.4836991096
 20
18.6283417975
 30
0.0
 40
0.157480314960651
100
AcDbArc
 50
270.0
 51
0.0
  0
LINE
  5
253
330
1F
100
AcDbEntity
  8
0
  6
Continuous
 62
     7
370
    25
100
AcDbLine
 10
37.4836991096
 20
18.4708614825
 30
0.0
 11
37.4836991096
 21
18.5102315613
 31
0.0
  0
ARC
  5
254
330
1F
100
AcDbEntity
  8
0
  6
Continuous
 62
     7
370
    25
100
AcDbCircle
 10
37.4836991096
 20
18.6283417975
 30
0.0
 40
0.118110236220474
100
AcDbArc
 50
270.0
 51
0.0
  0
LINE
  5
255
330
1F
100
AcDbEntity
  8
0
  6
Continuous
 62
     7
370
    25
100
AcDbLine
 10
37.6018093458
 20
18.6283417975
 30
0.0
 11
37.6411794245
 21
18.6283417975
 31
0.0
  0
CIRCLE
  5
256
330
1F
100
AcDbEntity
  8
0
  6
Continuous
 62
     7
370
    25
100
AcDbCircle
 10
5.9292131739
 20
19.0495797082
 30
0.0
 40
0.0688976377952741
  0
CIRCLE
  5
257
330
1F
100
AcDbEntity
  8
0
  6
Continuous
 62
     7
370
    25
100
AcDbCircle
 10
38.5670084495
 20
19.0495797082
 30
0.0
 40
0.0688976377952741
  0
LINE
  5
258
330
1F
100
AcDbEntity
  8
0
  6
Continuous
 62
     7
370
    25
100
AcDbLine
 10
38.8229139613
 20
17.7109962063
 30
0.0
 11
38.8229139613
 21
19.7936440032
 31
0.0
  0
LINE
  5
259
330
1F
100
AcDbEntity
  8
0
  6
Continuous
 62
     7
370
    25
100
AcDbLine
 10
5.6733076621
 20
17.7109983999
 30
0.0
 11
38.8229139613
 21
17.7109962063
 31
0.0
  0
LINE
  5
25A
330
1F
100
AcDbEntity
  8
0
  6
Continuous
 62
     7
370
    25
100
AcDbLine
 10
36.6181894208
 20
17.9196568558
 30
0.0
 11
36.6181894339
 21
18.1558773282
 31
0.0
  0
LINE
  5
25B
330
1F
100
AcDbEntity
  8
0
  6
Continuous
 62
     7
370
    25
100
AcDbLine
 10
16.8356668783
 20
19.7532628578
 30
0.0
 11
13.2511059306
 21
19.7532628578
 31
0.0
  0
LINE
  5
25C
330
1F
100
AcDbEntity
  8
0
  6
Continuous
 62
     7
370
    25
100
AcDbLine
 10
16.8356668783
 20
19.2414518342
 30
0.0
 11
13.2511059306
 21
19.2414518342
 31
0.0
  0
LINE
  5
25D
330
1F
100
AcDbEntity
  8
0
  6
Continuous
 62
     7
370
    25
100
AcDbLine
 10
16.8356668783
 20
18.7296408106
 30
0.0
 11
13.2511059306
 21
18.7296408106
 31
0.0
  0
LINE
  5
25E
330
1F
100
AcDbEntity
  8
0
  6
Continuous
 62
     7
370
    25
100
AcDbLine
 10
21.1663755397
 20
19.7532628578
 30
0.0
 11
17.581814592
 21
19.7532628578
 31
0.0
  0
LINE
  5
25F
330
1F
100
AcDbEntity
  8
0
  6
Continuous
 62
     7
370
    25
100
AcDbLine
 10
21.1663755397
 20
19.2414518342
 30
0.0
 11
17.581814592
 21
19.2414518342
 31
0.0
  0
LINE
  5
260
330
1F
100
AcDbEntity
  8
0
  6
Continuous
 62
     7
370
    25
100
AcDbLine
 10
21.1663755397
 20
18.7296408106
 30
0.0
 11
17.581814592
 21
18.7296408106
 31
0.0
  0
LINE
  5
261
330
1F
100
AcDbEntity
  8
0
  6
Continuous
 62
     7
370
    25
100
AcDbLine
 10
26.2844857759
 20
19.7532628578
 30
0.0
 11
22.6999248283
 21
19.7532628578
 31
0.0
  0
LINE
  5
262
330
1F
100
AcDbEntity
  8
0
  6
Continuous
 62
     7
370
    25
100
AcDbLine
 10
26.2844857759
 20
19.2414518342
 30
0.0
 11
22.6999248283
 21
19.2414518342
 31
0.0
  0
LINE
  5
263
330
1F
100
AcDbEntity
  8
0
  6
Continuous
 62
     7
370
    25
100
AcDbLine
 10
26.2844857759
 20
18.7296408106
 30
0.0
 11
22.6999248283
 21
18.7296408106
 31
0.0
  0
LINE
  5
264
330
1F
100
AcDbEntity
  8
0
  6
Continuous
 62
     7
370
    25
100
AcDbLine
 10
37.4836991096
 20
18.4708614825
 30
0.0
 11
36.4582351639
 21
18.4708614825
 31
0.0
  0
LINE
  5
265
330
1F
100
AcDbEntity
  8
0
  6
Continuous
 62
     7
370
    25
100
AcDbLine
 10
37.6411794245
 20
19.6243776672
 30
0.0
 11
37.6411794245
 21
18.6283417975
 31
0.0
  0
ARC
  5
266
330
1F
100
AcDbEntity
  8
0
  6
Continuous
 62
     7
370
    25
100
AcDbCircle
 10
37.4836991096
 20
19.6243776672
 30
0.0
 40
0.1574803149606296
100
AcDbArc
 50
0.0
 51
90.0
  0
LINE
  5
267
330
1F
100
AcDbEntity
  8
0
  6
Continuous
 62
     7
370
    25
100
AcDbLine
 10
36.4582351639
 20
19.7818579821
 30
0.0
 11
37.4836991096
 21
19.7818579821
 31
0.0
  0
ARC
  5
268
330
1F
100
AcDbEntity
  8
0
  6
Continuous
 62
     7
370
    25
100
AcDbCircle
 10
36.4582351639
 20
19.6243776672
 30
0.0
 40
0.1574803149606296
100
AcDbArc
 50
90.0
 51
180.0
  0
LINE
  5
269
330
1F
100
AcDbEntity
  8
0
  6
Continuous
 62
     7
370
    25
100
AcDbLine
 10
36.3007548489
 20
18.6283417975
 30
0.0
 11
36.3007548489
 21
19.6243776672
 31
0.0
  0
LINE
  5
26A
330
1F
100
AcDbEntity
  8
0
  6
Continuous
 62
     7
370
    25
100
AcDbLine
 10
34.9459030987
 20
19.7532628578
 30
0.0
 11
31.3613421511
 21
19.7532628578
 31
0.0
  0
LINE
  5
26B
330
1F
100
AcDbEntity
  8
0
  6
Continuous
 62
     7
370
    25
100
AcDbLine
 10
34.9459030987
 20
19.2414518342
 30
0.0
 11
31.3613421511
 21
19.2414518342
 31
0.0
  0
LINE
  5
26C
330
1F
100
AcDbEntity
  8
0
  6
Continuous
 62
     7
370
    25
100
AcDbLine
 10
34.9459030987
 20
18.7296408106
 30
0.0
 11
31.3613421511
 21
18.7296408106
 31
0.0
  0
LINE
  5
26D
330
1F
100
AcDbEntity
  8
0
  6
Continuous
 62
     7
370
    25
100
AcDbLine
 10
13.56700833
 20
18.1558785943
 30
0.0
 11
13.5670083169
 21
17.9196581218
 31
0.0
  0
LINE
  5
26E
330
1F
100
AcDbEntity
  8
0
  6
Continuous
 62
     7
370
    25
100
AcDbLine
 10
18.5079532119
 20
18.1558783196
 30
0.0
 11
19.3347248654
 21
18.1558782736
 31
0.0
  0
LINE
  5
26F
330
1F
100
AcDbEntity
  8
0
  6
Continuous
 62
     7
370
    25
100
AcDbLine
 10
19.3347248654
 20
18.1558782736
 30
0.0
 11
19.3347248523
 21
17.9196578012
 31
0.0
  0
LINE
  5
270
330
1F
100
AcDbEntity
  8
0
  6
Continuous
 62
     7
370
    25
100
AcDbLine
 10
6.972520141
 20
18.1558789608
 30
0.0
 11
7.7992917946
 21
18.1558789149
 31
0.0
  0
LINE
  5
271
330
1F
100
AcDbEntity
  8
0
  6
Continuous
 62
     7
370
    25
100
AcDbLine
 10
29.7677957331
 20
18.155877709
 30
0.0
 11
29.76779572
 21
17.9196572366
 31
0.0
  0
LINE
  5
272
330
1F
100
AcDbEntity
  8
0
  6
Continuous
 62
     7
370
    25
100
AcDbLine
 10
29.76779572
 20
17.9196572366
 30
0.0
 11
28.9410240664
 21
17.9196572825
 31
0.0
  0
CIRCLE
  5
273
330
1F
100
AcDbEntity
  8
0
  6
Continuous
 62
     7
370
    25
100
AcDbCircle
 10
38.5670084495
 20
18.3802883696
 30
0.0
 40
0.0688976377952741
  0
LINE
  5
274
330
1F
100
AcDbEntity
  8
0
  6
Continuous
 62
     7
370
    25
100
AcDbLine
 10
28.9410240796
 20
18.155877755
 30
0.0
 11
29.7677957331
 21
18.155877709
 31
0.0
  0
LINE
  5
275
330
1F
100
AcDbEntity
  8
0
  6
Continuous
 62
     7
370
    25
100
AcDbLine
 10
7.7992917946
 20
18.1558789149
 30
0.0
 11
7.7992917814
 21
17.9196584424
 31
0.0
  0
LINE
  5
276
330
1F
100
AcDbEntity
  8
0
  6
Continuous
 62
     7
370
    25
100
AcDbLine
 10
19.3347248523
 20
17.9196578012
 30
0.0
 11
18.5079531988
 21
17.9196578472
 31
0.0
  0
LINE
  5
277
330
1F
100
AcDbEntity
  8
0
  6
Continuous
 62
     7
370
    25
100
AcDbLine
 10
28.9410240664
 20
17.9196572825
 30
0.0
 11
28.9410240796
 21
18.155877755
 31
0.0
  0
LINE
  5
278
330
1F
100
AcDbEntity
  8
0
  6
Continuous
 62
     7
370
    25
100
AcDbLine
 10
5.6733076621
 20
17.7109983999
 30
0.0
 11
5.6733076621
 21
19.7936440032
 31
0.0
  0
LINE
  5
279
330
1F
100
AcDbEntity
  8
0
  6
Continuous
 62
     7
370
    25
100
AcDbLine
 10
18.5079531988
 20
17.9196578472
 30
0.0
 11
18.5079532119
 21
18.1558783196
 31
0.0
  0
LINE
  5
27A
330
1F
100
AcDbEntity
  8
0
  6
Continuous
 62
     7
370
    25
100
AcDbLine
 10
7.7992917814
 20
17.9196584424
 30
0.0
 11
6.9725201279
 21
17.9196584884
 31
0.0
  0
CIRCLE
  5
27B
330
1F
100
AcDbEntity
  8
0
  6
Continuous
 62
     7
370
    25
100
AcDbCircle
 10
5.9292131739
 20
18.3802883696
 30
0.0
 40
0.0688976377952741
  0
LINE
  5
27C
330
1F
100
AcDbEntity
  8
0
  6
Continuous
 62
     7
370
    25
100
AcDbLine
 10
22.0906303641
 20
17.9196576633
 30
0.0
 11
21.2638587106
 21
17.9196577093
 31
0.0
  0
LINE
  5
27D
330
1F
100
AcDbEntity
  8
0
  6
Continuous
 62
     7
370
    25
100
AcDbLine
 10
37.4449610874
 20
18.1558772822
 30
0.0
 11
37.4449610743
 21
17.9196568098
 31
0.0
  0
LINE
  5
27E
330
1F
100
AcDbEntity
  8
0
  6
Continuous
 62
     7
370
    25
100
AcDbLine
 10
36.6181894339
 20
18.1558773282
 30
0.0
 11
37.4449610874
 21
18.1558772822
 31
0.0
  0
LINE
  5
27F
330
1F
100
AcDbEntity
  8
0
  6
Continuous
 62
     7
370
    25
100
AcDbLine
 10
37.4449610743
 20
17.9196568098
 30
0.0
 11
36.6181894208
 21
17.9196568558
 31
0.0
  0
LINE
  5
280
330
1F
100
AcDbEntity
  8
0
  6
Continuous
 62
     7
370
    25
100
AcDbLine
 10
12.7402366633
 20
17.9196581678
 30
0.0
 11
12.7402366765
 21
18.1558786402
 31
0.0
  0
LINE
  5
281
330
1F
100
AcDbEntity
  8
0
  6
Continuous
 62
     7
370
    25
100
AcDbLine
 10
21.2638587237
 20
18.1558781817
 30
0.0
 11
22.0906303773
 21
18.1558781358
 31
0.0
  0
LINE
  5
282
330
1F
100
AcDbEntity
  8
0
  6
Continuous
 62
     7
370
    25
100
AcDbLine
 10
22.0906303773
 20
18.1558781358
 30
0.0
 11
22.0906303641
 21
17.9196576633
 31
0.0
  0
LINE
  5
283
330
1F
100
AcDbEntity
  8
0
  6
Continuous
 62
     7
370
    25
100
AcDbLine
 10
12.7402366765
 20
18.1558786402
 30
0.0
 11
13.56700833
 21
18.1558785943
 31
0.0
  0
LINE
  5
284
330
1F
100
AcDbEntity
  8
0
  6
Continuous
 62
     7
370
    25
100
AcDbLine
 10
21.2638587106
 20
17.9196577093
 30
0.0
 11
21.2638587237
 21
18.1558781817
 31
0.0
  0
LINE
  5
285
330
1F
100
AcDbEntity
  8
0
  6
Continuous
 62
     7
370
    25
100
AcDbLine
 10
13.5670083169
 20
17.9196581218
 30
0.0
 11
12.7402366633
 21
17.9196581678
 31
0.0
  0
LINE
  5
286
330
1F
100
AcDbEntity
  8
0
  6
Continuous
 62
     7
370
    25
100
AcDbLine
 10
6.9725201279
 20
17.9196584884
 30
0.0
 11
6.972520141
 21
18.1558789608
 31
0.0
  0
LINE
  5
287
330
1F
100
AcDbEntity
  8
0
  6
Continuous
 62
     7
370
    25
100
AcDbLine
 10
36.4582351639
 20
18.5102315613
 30
0.0
 11
37.4836991096
 21
18.5102315613
 31
0.0
  0
LINE
  5
288
330
1F
100
AcDbEntity
  8
0
  6
Continuous
 62
     7
370
    25
100
AcDbLine
 10
38.8229139613
 20
17.6716261275
 30
0.0
 11
5.6733076621
 21
17.6716283212
 31
0.0
  0
LINE
  5
289
330
1F
100
AcDbEntity
  8
0
  6
Continuous
 62
     7
370
    25
100
AcDbLine
 10
38.8229139613
 20
17.7109962063
 30
0.0
 11
38.8229139613
 21
17.6716261275
 31
0.0
  0
LINE
  5
28A
330
1F
100
AcDbEntity
  8
0
  6
Continuous
 62
     7
370
    25
100
AcDbLine
 10
5.6733076621
 20
17.6716283212
 30
0.0
 11
5.6733076621
 21
17.7109983999
 31
0.0
  0
LINE
  5
28B
330
1F
100
AcDbEntity
  8
0
  6
Continuous
 62
     7
370
    25
100
AcDbLine
 10
37.4836991096
 20
19.7424879034
 30
0.0
 11
36.4582351639
 21
19.7424879034
 31
0.0
  0
LINE
  5
28C
330
1F
100
AcDbEntity
  8
0
  6
Continuous
 62
     7
370
    25
100
AcDbLine
 10
36.4582351639
 20
19.7424879034
 30
0.0
 11
36.4582351639
 21
19.7818579821
 31
0.0
  0
LINE
  5
28D
330
1F
100
AcDbEntity
  8
0
  6
Continuous
 62
     7
370
    25
100
AcDbLine
 10
37.4836991096
 20
19.7424879034
 30
0.0
 11
37.4836991096
 21
19.7818579821
 31
0.0
  0
LINE
  5
28E
330
1F
100
AcDbEntity
  8
0
  6
Continuous
 62
     7
370
    25
100
AcDbLine
 10
37.6018093458
 20
18.6283417975
 30
0.0
 11
37.6018093458
 21
19.6243776672
 31
0.0
  0
LINE
  5
28F
330
1F
100
AcDbEntity
  8
0
  6
Continuous
 62
     7
370
    25
100
AcDbLine
 10
37.6018093458
 20
19.6243776672
 30
0.0
 11
37.6411794245
 21
19.6243776672
 31
0.0
  0
ARC
  5
290
330
1F
100
AcDbEntity
  8
0
  6
Continuous
 62
     7
370
    25
100
AcDbCircle
 10
37.4836991096
 20
19.6243776672
 30
0.0
 40
0.1181102362204882
100
AcDbArc
 50
0.0
 51
90.0
  0
ARC
  5
291
330
1F
100
AcDbEntity
  8
0
  6
Continuous
 62
     7
370
    25
100
AcDbCircle
 10
36.4582351639
 20
19.6243776672
 30
0.0
 40
0.118110236220474
100
AcDbArc
 50
90.0
 51
180.0
  0
LINE
  5
292
330
1F
100
AcDbEntity
  8
0
  6
Continuous
 62
     7
370
    25
100
AcDbLine
 10
36.3007548489
 20
19.6243776672
 30
0.0
 11
36.3401249277
 21
19.6243776672
 31
0.0
  0
LINE
  5
293
330
1F
100
AcDbEntity
  8
0
  6
Continuous
 62
     7
370
    25
100
AcDbLine
 10
36.3401249277
 20
19.6243776672
 30
0.0
 11
36.3401249277
 21
18.6283417975
 31
0.0
  0
CIRCLE
  5
294
330
1F
100
AcDbEntity
  8
0
  6
Continuous
 62
     7
370
    25
100
AcDbCircle
 10
12.9567791541
 20
20.0790980417
 30
0.0
 40
0.0629921259842519
  0
CIRCLE
  5
295
330
1F
100
AcDbEntity
  8
0
  6
Continuous
 62
     7
370
    25
100
AcDbCircle
 10
32.9961492328
 20
20.0791154535
 30
0.0
 40
0.0629921259842483
  0
CIRCLE
  5
296
330
1F
100
AcDbEntity
  8
0
  6
Continuous
 62
     7
370
    25
100
AcDbCircle
 10
24.9449682312
 20
20.0791067476
 30
0.0
 40
0.0629921259842483
  0
LINE
  5
297
330
1F
100
AcDbEntity
  8
0
  6
Continuous
 62
     7
370
    25
100
AcDbLine
 10
5.614252544
 20
18.0692647475
 30
0.0
 11
5.614252544
 21
19.7936440032
 31
0.0
  0
LINE
  5
298
330
1F
100
AcDbEntity
  8
0
  6
Continuous
 62
     7
370
    25
100
AcDbLine
 10
5.6536226227
 20
18.0692647475
 30
0.0
 11
5.614252544
 21
18.0692647475
 31
0.0
  0
LINE
  5
299
330
1F
100
AcDbEntity
  8
0
  6
Continuous
 62
     7
370
    25
100
AcDbLine
 10
38.8819690794
 20
19.7936440032
 30
0.0
 11
38.8819690794
 21
18.0692647475
 31
0.0
  0
LINE
  5
29A
330
1F
100
AcDbEntity
  8
0
  6
Continuous
 62
     7
370
    25
100
AcDbLine
 10
38.8819690794
 20
18.0692647475
 30
0.0
 11
38.8425990007
 21
18.0692647475
 31
0.0
  0
LINE
  5
29B
330
1F
100
AcDbEntity
  8
0
  6
Continuous
 62
     7
370
    25
100
AcDbLine
 10
5.6536226227
 20
18.0692647475
 30
0.0
 11
5.6733076621
 21
18.0692647475
 31
0.0
  0
LINE
  5
29C
330
1F
100
AcDbEntity
  8
0
  6
Continuous
 62
     7
370
    25
100
AcDbLine
 10
38.8425990007
 20
18.0692647475
 30
0.0
 11
38.8229139613
 21
18.0692647475
 31
0.0
  0
ARC
  5
29D
330
1F
100
AcDbEntity
  8
0
  6
Continuous
 62
     7
370
    25
100
AcDbCircle
 10
38.8425990007
 20
17.7109961386
 30
0.0
 40
0.0393700787401627
100
AcDbArc
 50
269.999990578
 51
0.0
  0
LINE
  5
29E
330
1F
100
AcDbEntity
  8
0
  6
Continuous
 62
     7
370
    25
100
AcDbLine
 10
38.8425990007
 20
17.710997031
 30
0.0
 11
38.8425990007
 21
18.0692647475
 31
0.0
  0
LINE
  5
29F
330
1F
100
AcDbEntity
  8
0
  6
Continuous
 62
     7
370
    25
100
AcDbLine
 10
38.8819690794
 20
17.7109961386
 30
0.0
 11
38.8819690794
 21
18.0692647475
 31
0.0
  0
LINE
  5
2A0
330
1F
100
AcDbEntity
  8
0
  6
Continuous
 62
     7
370
    25
100
AcDbLine
 10
38.8229139613
 20
17.6716262172
 30
0.0
 11
38.8425989942
 21
17.6716260598
 31
0.0
  0
LINE
  5
2A1
330
1F
100
AcDbEntity
  8
0
  6
Continuous
 62
     7
370
    25
100
AcDbLine
 10
38.8229139613
 20
17.710997031
 30
0.0
 11
38.8425990007
 21
17.710997031
 31
0.0
  0
ARC
  5
2A2
330
1F
100
AcDbEntity
  8
0
  6
Continuous
 62
     7
370
    25
100
AcDbCircle
 10
5.6536226227
 20
17.7109983348
 30
0.0
 40
0.0393700787401592
100
AcDbArc
 50
180.0
 51
270.0000027557
  0
LINE
  5
2A3
330
1F
100
AcDbEntity
  8
0
  6
Continuous
 62
     7
370
    25
100
AcDbLine
 10
5.614252544
 20
17.7109983348
 30
0.0
 11
5.614252544
 21
18.0692647475
 31
0.0
  0
LINE
  5
2A4
330
1F
100
AcDbEntity
  8
0
  6
Continuous
 62
     7
370
    25
100
AcDbLine
 10
5.6536226227
 20
17.710997031
 30
0.0
 11
5.6536226227
 21
18.0692647475
 31
0.0
  0
LINE
  5
2A5
330
1F
100
AcDbEntity
  8
0
  6
Continuous
 62
     7
370
    25
100
AcDbLine
 10
5.6733076621
 20
17.6716280548
 30
0.0
 11
5.6536226246
 21
17.6716282561
 31
0.0
  0
LINE
  5
2A6
330
1F
100
AcDbEntity
  8
0
  6
Continuous
 62
     7
370
    25
100
AcDbLine
 10
5.6733076621
 20
17.710997031
 30
0.0
 11
5.6536226227
 21
17.710997031
 31
0.0
  0
LINE
  5
2A7
330
1F
100
AcDbEntity
  8
0
  6
Continuous
 62
     7
370
    25
100
AcDbLine
 10
18.6839533785
 20
17.9275324898
 30
0.0
 11
18.679406946
 21
17.9196578376
 31
0.0
  0
LINE
  5
2A8
330
1F
100
AcDbEntity
  8
0
  6
Continuous
 62
     7
370
    25
100
AcDbLine
 10
18.7862401504
 20
17.9865877851
 30
0.0
 11
19.334724856
 21
17.9865877851
 31
0.0
  0
ARC
  5
2A9
330
1F
100
AcDbEntity
  8
0
  6
Continuous
 62
     7
370
    25
100
AcDbCircle
 10
18.7862401504
 20
17.8684771946
 30
0.0
 40
0.1181105905511792
100
AcDbArc
 50
90.0
 51
150.0
  0
LINE
  5
2AA
330
1F
100
AcDbEntity
  8
0
  6
Continuous
 62
     7
370
    25
100
AcDbLine
 10
7.6870567066
 20
17.6579550597
 30
0.0
 11
7.6894676465
 21
17.6716281734
 31
0.0
  0
LINE
  5
2AB
330
1F
100
AcDbEntity
  8
0
  6
Continuous
 62
     7
370
    25
100
AcDbLine
 10
7.6483090031
 20
17.6647873279
 30
0.0
 11
7.6870567066
 21
17.6579550597
 31
0.0
  0
ARC
  5
2AC
330
1F
100
AcDbEntity
  8
0
  6
Continuous
 62
     7
370
    25
100
AcDbCircle
 10
7.7059501495
 20
17.6519418922
 30
0.0
 40
0.0590551181102409
100
AcDbArc
 50
160.5275021492
 51
167.4368198315
  0
LINE
  5
2AD
330
1F
100
AcDbEntity
  8
0
  6
Continuous
 62
     7
370
    25
100
AcDbLine
 10
7.218224874
 20
17.6579550908
 30
0.0
 11
7.2158139358
 21
17.6716282048
 31
0.0
  0
LINE
  5
2AE
330
1F
100
AcDbEntity
  8
0
  6
Continuous
 62
     7
370
    25
100
AcDbLine
 10
7.2569725777
 20
17.6647873537
 30
0.0
 11
7.218224874
 21
17.6579550908
 31
0.0
  0
ARC
  5
2AF
330
1F
100
AcDbEntity
  8
0
  6
Continuous
 62
     7
370
    25
100
AcDbCircle
 10
7.1993314371
 20
17.6519418922
 30
0.0
 40
0.0590551181102473
100
AcDbArc
 50
12.5632058038
 51
19.4725246879
  0
LINE
  5
2B0
330
1F
100
AcDbEntity
  8
0
  6
Continuous
 62
     7
370
    25
100
AcDbLine
 10
7.6095137566
 20
17.6322579001
 30
0.0
 11
7.609513754
 21
17.5928888056
 31
0.0
  0
ARC
  5
2B1
330
1F
100
AcDbEntity
  8
0
  6
Continuous
 62
     7
370
    25
100
AcDbCircle
 10
7.6095137592
 20
17.6716279788
 30
0.0
 40
0.0787391732283462
100
AcDbArc
 50
269.9999962085
 51
349.9999962085
  0
ARC
  5
2B2
330
1F
100
AcDbEntity
  8
0
  6
Continuous
 62
     7
370
    25
100
AcDbCircle
 10
7.6095137592
 20
17.6716279788
 30
0.0
 40
0.0393700787401593
100
AcDbArc
 50
269.9999962085
 51
348.4624187554
  0
ARC
  5
2B3
330
1F
100
AcDbEntity
  8
0
  6
Continuous
 62
     7
370
    25
100
AcDbCircle
 10
7.7059501495
 20
17.6519418922
 30
0.0
 40
0.0590551181102407
100
AcDbArc
 50
167.4368198315
 51
168.4624187554
  0
LINE
  5
2B4
330
1F
100
AcDbEntity
  8
0
  6
Continuous
 62
     7
370
    25
100
AcDbLine
 10
7.609513754
 20
17.5928888056
 30
0.0
 11
7.2957678179
 21
17.5928888264
 31
0.0
  0
LINE
  5
2B5
330
1F
100
AcDbEntity
  8
0
  6
Continuous
 62
     7
370
    25
100
AcDbLine
 10
7.2957678205
 20
17.6322579208
 30
0.0
 11
7.2957678179
 21
17.5928888264
 31
0.0
  0
LINE
  5
2B6
330
1F
100
AcDbEntity
  8
0
  6
Continuous
 62
     7
370
    25
100
AcDbLine
 10
7.6095137566
 20
17.6322579001
 30
0.0
 11
7.2957678205
 21
17.6322579208
 31
0.0
  0
ARC
  5
2B7
330
1F
100
AcDbEntity
  8
0
  6
Continuous
 62
     7
370
    25
100
AcDbCircle
 10
7.2957678232
 20
17.6716279996
 30
0.0
 40
0.0787391732283523
100
AcDbArc
 50
189.9999962085
 51
269.9999962085
  0
ARC
  5
2B8
330
1F
100
AcDbEntity
  8
0
  6
Continuous
 62
     7
370
    25
100
AcDbCircle
 10
7.1993314371
 20
17.6519418922
 30
0.0
 40
0.0590551181102513
100
AcDbArc
 50
11.5375935799
 51
12.5632058038
  0
ARC
  5
2B9
330
1F
100
AcDbEntity
  8
0
  6
Continuous
 62
     7
370
    25
100
AcDbCircle
 10
7.2957678232
 20
17.6716279996
 30
0.0
 40
0.0393700787401557
100
AcDbArc
 50
191.5375935799
 51
269.9999962085
  0
ARC
  5
2BA
330
1F
100
AcDbEntity
  8
0
  6
Continuous
 62
     7
370
    25
100
AcDbCircle
 10
18.9980983333
 20
18.0417058954
 30
0.0
 40
0.0393700787401556
100
AcDbArc
 50
90.0
 51
180.0
  0
LINE
  5
2BB
330
1F
100
AcDbEntity
  8
0
  6
Continuous
 62
     7
370
    25
100
AcDbLine
 10
19.0768384908
 20
18.0810759741
 30
0.0
 11
18.9980983333
 21
18.0810759741
 31
0.0
  0
LINE
  5
2BC
330
1F
100
AcDbEntity
  8
0
  6
Continuous
 62
     7
370
    25
100
AcDbLine
 10
19.1162085696
 20
18.0417058954
 30
0.0
 11
19.1162085696
 21
17.9865877851
 31
0.0
  0
LINE
  5
2BD
330
1F
100
AcDbEntity
  8
0
  6
Continuous
 62
     7
370
    25
100
AcDbLine
 10
18.9587282546
 20
18.0417058954
 30
0.0
 11
18.9587282546
 21
17.9865877851
 31
0.0
  0
ARC
  5
2BE
330
1F
100
AcDbEntity
  8
0
  6
Continuous
 62
     7
370
    25
100
AcDbCircle
 10
19.0768384908
 20
18.0417058954
 30
0.0
 40
0.0393700787401592
100
AcDbArc
 50
0.0
 51
90.0
  0
LINE
  5
2BF
330
1F
100
AcDbEntity
  8
0
  6
Continuous
 62
     7
370
    25
100
AcDbLine
 10
6.5195679597
 20
17.6086348263
 30
0.0
 11
6.2754734715
 21
17.6086348263
 31
0.0
  0
LINE
  5
2C0
330
1F
100
AcDbEntity
  8
0
  6
Continuous
 62
     7
370
    25
100
AcDbLine
 10
7.6809852825
 20
17.6086348263
 30
0.0
 11
7.6567548444
 21
17.6086348263
 31
0.0
  0
LINE
  5
2C1
330
1F
100
AcDbEntity
  8
0
  6
Continuous
 62
     7
370
    25
100
AcDbLine
 10
9.7867833327
 20
17.6125718341
 30
0.0
 11
9.5820608918
 21
17.6125718341
 31
0.0
  0
LINE
  5
2C2
330
1F
100
AcDbEntity
  8
0
  6
Continuous
 62
     7
370
    25
100
AcDbLine
 10
19.298228071
 20
18.0417058954
 30
0.0
 11
19.298228071
 21
17.9865877851
 31
0.0
  0
ARC
  5
2C3
330
1F
100
AcDbEntity
  8
0
  6
Continuous
 62
     7
370
    25
100
AcDbCircle
 10
19.3664646823
 20
18.0456084321
 30
0.0
 40
0.0683481156401021
100
AcDbArc
 50
152.5275110479
 51
183.2732513003
  0
LINE
  5
2C4
330
1F
100
AcDbEntity
  8
0
  6
Continuous
 62
     7
370
    25
100
AcDbLine
 10
19.3347248611
 20
18.0771389662
 30
0.0
 11
19.3058240166
 21
18.0771389662
 31
0.0
  0
LINE
  5
2C5
330
1F
100
AcDbEntity
  8
0
  6
Continuous
 62
     7
370
    25
100
AcDbLine
 10
9.0663108918
 20
17.6125718341
 30
0.0
 11
8.8615884508
 21
17.6125718341
 31
0.0
  0
LINE
  5
2C6
330
1F
100
AcDbEntity
  8
0
  6
Continuous
 62
     7
370
    25
100
AcDbLine
 10
38.9134651424
 20
20.561375396
 30
0.0
 11
38.9134651424
 21
20.529879333
 31
0.0
  0
LINE
  5
2C7
330
1F
100
AcDbEntity
  8
0
  6
Continuous
 62
     7
370
    25
100
AcDbLine
 10
38.9134651424
 20
20.529879333
 30
0.0
 11
38.7953549062
 21
20.529879333
 31
0.0
  0
LINE
  5
2C8
330
1F
100
AcDbEntity
  8
0
  6
Continuous
 62
     7
370
    25
100
AcDbLine
 10
38.7953549062
 20
20.529879333
 30
0.0
 11
38.7953549062
 21
20.561375396
 31
0.0
  0
LINE
  5
2C9
330
1F
100
AcDbEntity
  8
0
  6
Continuous
 62
     7
370
    25
100
AcDbLine
 10
38.7953549062
 20
20.561375396
 30
0.0
 11
38.9134651424
 21
20.561375396
 31
0.0
  0
LINE
  5
2CA
330
1F
100
AcDbEntity
  8
0
  6
Continuous
 62
     7
370
    25
100
AcDbLine
 10
5.7323625993
 20
20.561375396
 30
0.0
 11
5.7323625993
 21
20.529879333
 31
0.0
  0
LINE
  5
2CB
330
1F
100
AcDbEntity
  8
0
  6
Continuous
 62
     7
370
    25
100
AcDbLine
 10
38.7953549062
 20
20.529879333
 30
0.0
 11
5.7323625993
 21
20.529879333
 31
0.0
  0
LINE
  5
2CC
330
1F
100
AcDbEntity
  8
0
  6
Continuous
 62
     7
370
    25
100
AcDbLine
 10
38.7953549062
 20
20.561375396
 30
0.0
 11
5.7323625993
 21
20.561375396
 31
0.0
  0
LINE
  5
2CD
330
1F
100
AcDbEntity
  8
0
  6
Continuous
 62
     7
370
    25
100
AcDbLine
 10
5.6142523631
 20
20.529879333
 30
0.0
 11
5.6142523631
 21
20.561375396
 31
0.0
  0
LINE
  5
2CE
330
1F
100
AcDbEntity
  8
0
  6
Continuous
 62
     7
370
    25
100
AcDbLine
 10
5.7323625993
 20
20.529879333
 30
0.0
 11
5.6142523631
 21
20.529879333
 31
0.0
  0
LINE
  5
2CF
330
1F
100
AcDbEntity
  8
0
  6
Continuous
 62
     7
370
    25
100
AcDbLine
 10
5.6142523631
 20
20.561375396
 30
0.0
 11
5.7323625993
 21
20.561375396
 31
0.0
  0
LINE
  5
2D0
330
1F
100
AcDbEntity
  8
0
  6
Continuous
 62
     7
370
    25
100
AcDbLine
 10
39.0315753786
 20
20.561375396
 30
0.0
 11
39.0315753786
 21
20.529879333
 31
0.0
  0
LINE
  5
2D1
330
1F
100
AcDbEntity
  8
0
  6
Continuous
 62
     7
370
    25
100
AcDbLine
 10
39.0315753786
 20
20.529879333
 30
0.0
 11
38.9134651424
 21
20.529879333
 31
0.0
  0
LINE
  5
2D2
330
1F
100
AcDbEntity
  8
0
  6
Continuous
 62
     7
370
    25
100
AcDbLine
 10
38.9134651424
 20
20.561375396
 30
0.0
 11
39.0315753786
 21
20.561375396
 31
0.0
  0
LINE
  5
2D3
330
1F
100
AcDbEntity
  8
0
  6
Continuous
 62
     7
370
    25
100
AcDbLine
 10
12.8386771458
 20
20.1676805763
 30
0.0
 11
13.0748976183
 21
20.1676808317
 31
0.0
  0
ARC
  5
2D4
330
1F
100
AcDbEntity
  8
0
  6
Continuous
 62
     7
370
    25
100
AcDbCircle
 10
12.8386772416
 20
20.0790978991
 30
0.0
 40
0.0885826771653718
100
AcDbArc
 50
90.0000619549
 51
270.000061955
  0
LINE
  5
2D5
330
1F
100
AcDbEntity
  8
0
  6
Continuous
 62
     7
370
    25
100
AcDbLine
 10
13.074897714
 20
19.9905154774
 30
0.0
 11
12.8386773374
 21
19.990515222
 31
0.0
  0
ARC
  5
2D6
330
1F
100
AcDbEntity
  8
0
  6
Continuous
 62
     7
370
    25
100
AcDbCircle
 10
13.074897714
 20
20.0790981545
 30
0.0
 40
0.0885826771653555
100
AcDbArc
 50
270.0
 51
90.000061955
  0
LINE
  5
2D7
330
1F
100
AcDbEntity
  8
0
  6
Continuous
 62
     7
370
    25
100
AcDbLine
 10
13.8032440749
 20
20.1676816193
 30
0.0
 11
14.0394645474
 21
20.1676818747
 31
0.0
  0
ARC
  5
2D8
330
1F
100
AcDbEntity
  8
0
  6
Continuous
 62
     7
370
    25
100
AcDbCircle
 10
13.8032441707
 20
20.0790989421
 30
0.0
 40
0.088582677161819
100
AcDbArc
 50
90.0000619549
 51
270.000061955
  0
LINE
  5
2D9
330
1F
100
AcDbEntity
  8
0
  6
Continuous
 62
     7
370
    25
100
AcDbLine
 10
14.0394646432
 20
19.9905165204
 30
0.0
 11
13.8032442665
 21
19.990516265
 31
0.0
  0
ARC
  5
2DA
330
1F
100
AcDbEntity
  8
0
  6
Continuous
 62
     7
370
    25
100
AcDbCircle
 10
14.0394646432
 20
20.0790991976
 30
0.0
 40
0.0885826771618063
100
AcDbArc
 50
270.0
 51
90.000061955
  0
LINE
  5
2DB
330
1F
100
AcDbEntity
  8
0
  6
Continuous
 62
     7
370
    25
100
AcDbLine
 10
24.2363149411
 20
20.1676886436
 30
0.0
 11
24.4725354135
 21
20.167688899
 31
0.0
  0
ARC
  5
2DC
330
1F
100
AcDbEntity
  8
0
  6
Continuous
 62
     7
370
    25
100
AcDbCircle
 10
24.2363150369
 20
20.0791059664
 30
0.0
 40
0.0885826771618155
100
AcDbArc
 50
90.0000619549
 51
270.000061955
  0
LINE
  5
2DD
330
1F
100
AcDbEntity
  8
0
  6
Continuous
 62
     7
370
    25
100
AcDbLine
 10
24.4725355093
 20
19.9905235447
 30
0.0
 11
24.2363151327
 21
19.9905232893
 31
0.0
  0
ARC
  5
2DE
330
1F
100
AcDbEntity
  8
0
  6
Continuous
 62
     7
370
    25
100
AcDbCircle
 10
24.4725355093
 20
20.0791062219
 30
0.0
 40
0.0885826771618063
100
AcDbArc
 50
270.0
 51
90.000061955
  0
LINE
  5
2DF
330
1F
100
AcDbEntity
  8
0
  6
Continuous
 62
     7
370
    25
100
AcDbLine
 10
25.4174173995
 20
20.1676899208
 30
0.0
 11
25.6536378715
 21
20.1676901762
 31
0.0
  0
ARC
  5
2E0
330
1F
100
AcDbEntity
  8
0
  6
Continuous
 62
     7
370
    25
100
AcDbCircle
 10
25.4174174953
 20
20.0791073074
 30
0.0
 40
0.0885826133034216
100
AcDbArc
 50
90.000061955
 51
270.0000309771
  0
LINE
  5
2E1
330
1F
100
AcDbEntity
  8
0
  6
Continuous
 62
     7
370
    25
100
AcDbLine
 10
25.6536379194
 20
19.9905248219
 30
0.0
 11
25.4174175432
 21
19.9905246941
 31
0.0
  0
ARC
  5
2E2
330
1F
100
AcDbEntity
  8
0
  6
Continuous
 62
     7
370
    25
100
AcDbCircle
 10
25.6536379194
 20
20.079107499
 30
0.0
 40
0.0885826771618122
100
AcDbArc
 50
270.0
 51
90.000030977
  0
LINE
  5
2E3
330
1F
100
AcDbEntity
  8
0
  6
Continuous
 62
     7
370
    25
100
AcDbLine
 10
31.9134802954
 20
20.1676969451
 30
0.0
 11
32.1497008636
 21
20.1676972005
 31
0.0
  0
ARC
  5
2E4
330
1F
100
AcDbEntity
  8
0
  6
Continuous
 62
     7
370
    25
100
AcDbCircle
 10
31.9134803912
 20
20.0791142679
 30
0.0
 40
0.088582677161812
100
AcDbArc
 50
90.0000619549
 51
270.000061955
  0
LINE
  5
2E5
330
1F
100
AcDbEntity
  8
0
  6
Continuous
 62
     7
370
    25
100
AcDbLine
 10
32.1497009594
 20
19.9905318462
 30
0.0
 11
31.913480487
 21
19.9905315907
 31
0.0
  0
ARC
  5
2E6
330
1F
100
AcDbEntity
  8
0
  6
Continuous
 62
     7
370
    25
100
AcDbCircle
 10
32.1497009594
 20
20.0791145233
 30
0.0
 40
0.0885826771618297
100
AcDbArc
 50
270.0
 51
90.000061955
  0
LINE
  5
2E7
330
1F
100
AcDbEntity
  8
0
  6
Continuous
 62
     7
370
    25
100
AcDbLine
 10
32.8780473204
 20
20.1676979881
 30
0.0
 11
33.1142677928
 21
20.1676982435
 31
0.0
  0
ARC
  5
2E8
330
1F
100
AcDbEntity
  8
0
  6
Continuous
 62
     7
370
    25
100
AcDbCircle
 10
32.8780474162
 20
20.0791153748
 30
0.0
 40
0.088582613306967
100
AcDbArc
 50
90.000061955
 51
270.0000309771
  0
LINE
  5
2E9
330
1F
100
AcDbEntity
  8
0
  6
Continuous
 62
     7
370
    25
100
AcDbLine
 10
33.1142678407
 20
19.9905328892
 30
0.0
 11
32.8780474641
 21
19.9905327615
 31
0.0
  0
ARC
  5
2EA
330
1F
100
AcDbEntity
  8
0
  6
Continuous
 62
     7
370
    25
100
AcDbCircle
 10
33.1142678407
 20
20.0791155663
 30
0.0
 40
0.0885826771653756
100
AcDbArc
 50
270.0
 51
90.000030977
  0
CIRCLE
  5
2EB
330
1F
100
AcDbEntity
  8
0
  6
Continuous
 62
     7
370
    25
100
AcDbCircle
 10
24.9449764542
 20
20.0791067327
 30
0.0
 40
0.088582677165352
  0
LINE
  5
2EC
330
1F
100
AcDbEntity
  8
0
  6
Continuous
 62
     7
370
    25
100
AcDbLine
 10
5.6142523631
 20
20.529879333
 30
0.0
 11
5.6103153552
 21
20.529879333
 31
0.0
  0
LINE
  5
2ED
330
1F
100
AcDbEntity
  8
0
  6
Continuous
 62
     7
370
    25
100
AcDbLine
 10
38.9134651424
 20
20.529879333
 30
0.0
 11
38.9134651424
 21
19.7936440032
 31
0.0
  0
LINE
  5
2EE
330
1F
100
AcDbEntity
  8
0
  6
Continuous
 62
     7
370
    25
100
AcDbLine
 10
38.9134651424
 20
19.7936440032
 30
0.0
 11
30.9882838959
 21
19.7936440032
 31
0.0
  0
ARC
  5
2EF
330
1F
100
AcDbEntity
  8
0
  6
Continuous
 62
     7
370
    25
100
AcDbCircle
 10
30.9882838959
 20
19.8330140819
 30
0.0
 40
0.0393700787401912
100
AcDbArc
 50
180.0
 51
270.0
  0
LINE
  5
2F0
330
1F
100
AcDbEntity
  8
0
  6
Continuous
 62
     7
370
    25
100
AcDbLine
 10
30.9489138172
 20
19.8330140819
 30
0.0
 11
30.9489138172
 21
19.8960542881
 31
0.0
  0
ARC
  5
2F1
330
1F
100
AcDbEntity
  8
0
  6
Continuous
 62
     7
370
    25
100
AcDbCircle
 10
30.9095437385
 20
19.8960542881
 30
0.0
 40
0.0393700787401592
100
AcDbArc
 50
0.0
 51
90.0001111547
  0
LINE
  5
2F2
330
1F
100
AcDbEntity
  8
0
  6
Continuous
 62
     7
370
    25
100
AcDbLine
 10
30.9095436621
 20
19.9354243668
 30
0.0
 11
29.41348067
 21
19.9354214644
 31
0.0
  0
ARC
  5
2F3
330
1F
100
AcDbEntity
  8
0
  6
Continuous
 62
     7
370
    25
100
AcDbCircle
 10
29.4134807463
 20
19.8960513857
 30
0.0
 40
0.0393700787401587
100
AcDbArc
 50
90.0001111547
 51
180.0
  0
LINE
  5
2F4
330
1F
100
AcDbEntity
  8
0
  6
Continuous
 62
     7
370
    25
100
AcDbLine
 10
29.3741106676
 20
19.8960513857
 30
0.0
 11
29.3741106676
 21
19.8330140819
 31
0.0
  0
ARC
  5
2F5
330
1F
100
AcDbEntity
  8
0
  6
Continuous
 62
     7
370
    25
100
AcDbCircle
 10
29.3347405889
 20
19.8330140819
 30
0.0
 40
0.0393700787401947
100
AcDbArc
 50
270.0
 51
0.0
  0
LINE
  5
2F6
330
1F
100
AcDbEntity
  8
0
  6
Continuous
 62
     7
370
    25
100
AcDbLine
 10
29.3347405889
 20
19.7936440032
 30
0.0
 11
20.5552130298
 21
19.7936440032
 31
0.0
  0
ARC
  5
2F7
330
1F
100
AcDbEntity
  8
0
  6
Continuous
 62
     7
370
    25
100
AcDbCircle
 10
20.5552130298
 20
19.8330140819
 30
0.0
 40
0.0393700787402338
100
AcDbArc
 50
180.0
 51
270.0
  0
LINE
  5
2F8
330
1F
100
AcDbEntity
  8
0
  6
Continuous
 62
     7
370
    25
100
AcDbLine
 10
20.5158429511
 20
19.8330140819
 30
0.0
 11
20.5158429511
 21
19.8960340478
 31
0.0
  0
ARC
  5
2F9
330
1F
100
AcDbEntity
  8
0
  6
Continuous
 62
     7
370
    25
100
AcDbCircle
 10
20.4764728723
 20
19.8960340478
 30
0.0
 40
0.0393700787401592
100
AcDbArc
 50
0.0
 51
90.0001111547
  0
LINE
  5
2FA
330
1F
100
AcDbEntity
  8
0
  6
Continuous
 62
     7
370
    25
100
AcDbLine
 10
20.476472796
 20
19.9354041265
 30
0.0
 11
18.9804098038
 21
19.9354012241
 31
0.0
  0
ARC
  5
2FB
330
1F
100
AcDbEntity
  8
0
  6
Continuous
 62
     7
370
    25
100
AcDbCircle
 10
18.9804098802
 20
19.8960311454
 30
0.0
 40
0.0393700787401592
100
AcDbArc
 50
90.0001111547
 51
180.0
  0
LINE
  5
2FC
330
1F
100
AcDbEntity
  8
0
  6
Continuous
 62
     7
370
    25
100
AcDbLine
 10
18.9410398015
 20
19.8960311454
 30
0.0
 11
18.9410398015
 21
19.8330140819
 31
0.0
  0
ARC
  5
2FD
330
1F
100
AcDbEntity
  8
0
  6
Continuous
 62
     7
370
    25
100
AcDbCircle
 10
18.9016697227
 20
19.8330140819
 30
0.0
 40
0.0393700787402409
100
AcDbArc
 50
270.0
 51
0.0
  0
LINE
  5
2FE
330
1F
100
AcDbEntity
  8
0
  6
Continuous
 62
     7
370
    25
100
AcDbLine
 10
18.9016697227
 20
19.7936440032
 30
0.0
 11
5.6103153552
 21
19.7936440032
 31
0.0
  0
LINE
  5
2FF
330
1F
100
AcDbEntity
  8
0
  6
Continuous
 62
     7
370
    25
100
AcDbLine
 10
5.6103153552
 20
20.529879333
 30
0.0
 11
5.6103153552
 21
19.7936440032
 31
0.0
  0
LINE
  5
300
330
1F
100
AcDbEntity
  8
0
  6
Continuous
 62
     7
370
    25
100
AcDbLine
 10
38.9922052999
 20
19.7936440032
 30
0.0
 11
38.9134651424
 21
19.7936440032
 31
0.0
  0
LINE
  5
301
330
1F
100
AcDbEntity
  8
0
  6
Continuous
 62
     7
370
    25
100
AcDbLine
 10
38.9922052999
 20
20.529879333
 30
0.0
 11
38.9922052999
 21
19.7936440032
 31
0.0
  0
LINE
  5
302
330
1F
100
AcDbEntity
  8
0
  6
Continuous
 62
     7
370
    25
100
AcDbLine
 10
5.5394492135
 20
19.7936440032
 30
0.0
 11
5.5394492135
 21
20.529879333
 31
0.0
  0
LINE
  5
303
330
1F
100
AcDbEntity
  8
0
  6
Continuous
 62
     7
370
    25
100
AcDbLine
 10
5.6103153552
 20
19.7936440032
 30
0.0
 11
5.5394492135
 21
19.7936440032
 31
0.0
  0
LINE
  5
304
330
1F
100
AcDbEntity
  8
0
  6
Continuous
 62
     7
370
    25
100
AcDbLine
 10
5.6103153552
 20
20.529879333
 30
0.0
 11
5.5394492135
 21
20.529879333
 31
0.0
  0
LINE
  5
305
330
1F
100
AcDbEntity
  8
0
  6
Continuous
 62
     7
370
    25
100
AcDbLine
 10
39.1890556936
 20
20.529879333
 30
0.0
 11
39.1890556936
 21
20.561375396
 31
0.0
  0
LINE
  5
306
330
1F
100
AcDbEntity
  8
0
  6
Continuous
 62
     7
370
    25
100
AcDbLine
 10
39.1890556936
 20
20.529879333
 30
0.0
 11
39.0315753786
 21
20.529879333
 31
0.0
  0
LINE
  5
307
330
1F
100
AcDbEntity
  8
0
  6
Continuous
 62
     7
370
    25
100
AcDbLine
 10
39.0315753786
 20
20.561375396
 30
0.0
 11
39.1890556936
 21
20.561375396
 31
0.0
  0
LINE
  5
308
330
1F
100
AcDbEntity
  8
0
  6
Continuous
 62
     7
370
    25
100
AcDbLine
 10
39.2677958511
 20
20.561375396
 30
0.0
 11
39.2677958511
 21
20.529879333
 31
0.0
  0
LINE
  5
309
330
1F
100
AcDbEntity
  8
0
  6
Continuous
 62
     7
370
    25
100
AcDbLine
 10
39.2677958511
 20
20.529879333
 30
0.0
 11
39.1890556936
 21
20.529879333
 31
0.0
  0
LINE
  5
30A
330
1F
100
AcDbEntity
  8
0
  6
Continuous
 62
     7
370
    25
100
AcDbLine
 10
39.1890556936
 20
20.561375396
 30
0.0
 11
39.2677958511
 21
20.561375396
 31
0.0
  0
LINE
  5
30B
330
1F
100
AcDbEntity
  8
0
  6
Continuous
 62
     7
370
    25
100
AcDbLine
 10
39.3465360085
 20
20.561375396
 30
0.0
 11
39.3465360085
 21
20.529879333
 31
0.0
  0
LINE
  5
30C
330
1F
100
AcDbEntity
  8
0
  6
Continuous
 62
     7
370
    25
100
AcDbLine
 10
39.3465360085
 20
20.529879333
 30
0.0
 11
39.2677958511
 21
20.529879333
 31
0.0
  0
LINE
  5
30D
330
1F
100
AcDbEntity
  8
0
  6
Continuous
 62
     7
370
    25
100
AcDbLine
 10
39.2677958511
 20
20.561375396
 30
0.0
 11
39.3465360085
 21
20.561375396
 31
0.0
  0
LINE
  5
30E
330
1F
100
AcDbEntity
  8
0
  6
Continuous
 62
     7
370
    25
100
AcDbLine
 10
39.425276166
 20
20.561375396
 30
0.0
 11
39.425276166
 21
20.529879333
 31
0.0
  0
LINE
  5
30F
330
1F
100
AcDbEntity
  8
0
  6
Continuous
 62
     7
370
    25
100
AcDbLine
 10
39.3859060873
 20
20.529879333
 30
0.0
 11
39.3859060873
 21
20.561375396
 31
0.0
  0
LINE
  5
310
330
1F
100
AcDbEntity
  8
0
  6
Continuous
 62
     7
370
    25
100
AcDbLine
 10
39.425276166
 20
20.529879333
 30
0.0
 11
39.3859060873
 21
20.529879333
 31
0.0
  0
LINE
  5
311
330
1F
100
AcDbEntity
  8
0
  6
Continuous
 62
     7
370
    25
100
AcDbLine
 10
39.3859060873
 20
20.561375396
 30
0.0
 11
39.425276166
 21
20.561375396
 31
0.0
  0
LINE
  5
312
330
1F
100
AcDbEntity
  8
0
  6
Continuous
 62
     7
370
    25
100
AcDbLine
 10
39.3859060873
 20
20.529879333
 30
0.0
 11
39.3465360085
 21
20.529879333
 31
0.0
  0
LINE
  5
313
330
1F
100
AcDbEntity
  8
0
  6
Continuous
 62
     7
370
    25
100
AcDbLine
 10
39.3465360085
 20
20.561375396
 30
0.0
 11
39.3859060873
 21
20.561375396
 31
0.0
  0
LINE
  5
314
330
1F
100
AcDbEntity
  8
0
  6
Continuous
 62
     7
370
    25
100
AcDbLine
 10
5.5040161426
 20
19.8723841607
 30
0.0
 11
5.5355122056
 21
19.8723841607
 31
0.0
  0
LINE
  5
315
330
1F
100
AcDbEntity
  8
0
  6
Continuous
 62
     7
370
    25
100
AcDbLine
 10
5.5355122056
 20
19.8723841607
 30
0.0
 11
5.5355122056
 21
19.7936440032
 31
0.0
  0
LINE
  5
316
330
1F
100
AcDbEntity
  8
0
  6
Continuous
 62
     7
370
    25
100
AcDbLine
 10
5.5355122056
 20
19.7936440032
 30
0.0
 11
5.5040161426
 21
19.7936440032
 31
0.0
  0
LINE
  5
317
330
1F
100
AcDbEntity
  8
0
  6
Continuous
 62
     7
370
    25
100
AcDbLine
 10
5.5040161426
 20
19.7936440032
 30
0.0
 11
5.5040161426
 21
19.8723841607
 31
0.0
  0
LINE
  5
318
330
1F
100
AcDbEntity
  8
0
  6
Continuous
 62
     7
370
    25
100
AcDbLine
 10
5.3071657489
 20
20.529879333
 30
0.0
 11
5.5040161426
 21
20.529879333
 31
0.0
  0
LINE
  5
319
330
1F
100
AcDbEntity
  8
0
  6
Continuous
 62
     7
370
    25
100
AcDbLine
 10
5.3071657489
 20
20.561375396
 30
0.0
 11
5.3071657489
 21
20.529879333
 31
0.0
  0
ARC
  5
31A
330
1F
100
AcDbEntity
  8
0
  6
Continuous
 62
     7
370
    25
100
AcDbCircle
 10
5.5040161426
 20
20.529879333
 30
0.0
 40
0.0314960629921259
100
AcDbArc
 50
0.0
 51
90.0
  0
LINE
  5
31B
330
1F
100
AcDbEntity
  8
0
  6
Continuous
 62
     7
370
    25
100
AcDbLine
 10
5.5040161426
 20
20.561375396
 30
0.0
 11
5.3071657489
 21
20.561375396
 31
0.0
  0
LINE
  5
31C
330
1F
100
AcDbEntity
  8
0
  6
Continuous
 62
     7
370
    25
100
AcDbLine
 10
5.5040161426
 20
20.529879333
 30
0.0
 11
5.5040161426
 21
19.8723841607
 31
0.0
  0
LINE
  5
31D
330
1F
100
AcDbEntity
  8
0
  6
Continuous
 62
     7
370
    25
100
AcDbLine
 10
5.5355122056
 20
19.8723841607
 30
0.0
 11
5.5355122056
 21
20.529879333
 31
0.0
  0
LINE
  5
31E
330
1F
100
AcDbEntity
  8
0
  6
Continuous
 62
     7
370
    25
100
AcDbLine
 10
5.2284255914
 20
20.529879333
 30
0.0
 11
5.2284255914
 21
20.561375396
 31
0.0
  0
LINE
  5
31F
330
1F
100
AcDbEntity
  8
0
  6
Continuous
 62
     7
370
    25
100
AcDbLine
 10
5.3071657489
 20
20.529879333
 30
0.0
 11
5.2284255914
 21
20.529879333
 31
0.0
  0
LINE
  5
320
330
1F
100
AcDbEntity
  8
0
  6
Continuous
 62
     7
370
    25
100
AcDbLine
 10
5.2284255914
 20
20.561375396
 30
0.0
 11
5.3071657489
 21
20.561375396
 31
0.0
  0
LINE
  5
321
330
1F
100
AcDbEntity
  8
0
  6
Continuous
 62
     7
370
    25
100
AcDbLine
 10
5.1496854339
 20
20.529879333
 30
0.0
 11
5.1496854339
 21
20.561375396
 31
0.0
  0
LINE
  5
322
330
1F
100
AcDbEntity
  8
0
  6
Continuous
 62
     7
370
    25
100
AcDbLine
 10
5.2284255914
 20
20.529879333
 30
0.0
 11
5.1496854339
 21
20.529879333
 31
0.0
  0
LINE
  5
323
330
1F
100
AcDbEntity
  8
0
  6
Continuous
 62
     7
370
    25
100
AcDbLine
 10
5.1496854339
 20
20.561375396
 30
0.0
 11
5.2284255914
 21
20.561375396
 31
0.0
  0
LINE
  5
324
330
1F
100
AcDbEntity
  8
0
  6
Continuous
 62
     7
370
    25
100
AcDbLine
 10
5.1103153552
 20
20.561375396
 30
0.0
 11
5.1103153552
 21
20.529879333
 31
0.0
  0
LINE
  5
325
330
1F
100
AcDbEntity
  8
0
  6
Continuous
 62
     7
370
    25
100
AcDbLine
 10
5.1103153552
 20
20.529879333
 30
0.0
 11
5.1496854339
 21
20.529879333
 31
0.0
  0
LINE
  5
326
330
1F
100
AcDbEntity
  8
0
  6
Continuous
 62
     7
370
    25
100
AcDbLine
 10
5.1496854339
 20
20.561375396
 30
0.0
 11
5.1103153552
 21
20.561375396
 31
0.0
  0
LINE
  5
327
330
1F
100
AcDbEntity
  8
0
  6
Continuous
 62
     7
370
    25
100
AcDbLine
 10
5.0709452765
 20
20.529879333
 30
0.0
 11
5.0709452765
 21
20.561375396
 31
0.0
  0
LINE
  5
328
330
1F
100
AcDbEntity
  8
0
  6
Continuous
 62
     7
370
    25
100
AcDbLine
 10
5.1103153552
 20
20.529879333
 30
0.0
 11
5.0709452765
 21
20.529879333
 31
0.0
  0
LINE
  5
329
330
1F
100
AcDbEntity
  8
0
  6
Continuous
 62
     7
370
    25
100
AcDbLine
 10
5.0709452765
 20
20.561375396
 30
0.0
 11
5.1103153552
 21
20.561375396
 31
0.0
  0
LINE
  5
32A
330
1F
100
AcDbEntity
  8
0
  6
Continuous
 62
     7
370
    25
100
AcDbLine
 10
5.5355122056
 20
19.7936440032
 30
0.0
 11
5.5394492135
 21
19.7936440032
 31
0.0
  0
LINE
  5
32B
330
1F
100
AcDbEntity
  8
0
  6
Continuous
 62
     7
370
    25
100
AcDbLine
 10
5.5827563001
 20
20.529879333
 30
0.0
 11
5.5827563001
 21
20.561375396
 31
0.0
  0
LINE
  5
32C
330
1F
100
AcDbEntity
  8
0
  6
Continuous
 62
     7
370
    25
100
AcDbLine
 10
5.5040161426
 20
20.561375396
 30
0.0
 11
5.5827563001
 21
20.561375396
 31
0.0
  0
LINE
  5
32D
330
1F
100
AcDbEntity
  8
0
  6
Continuous
 62
     7
370
    25
100
AcDbLine
 10
5.5827563001
 20
20.561375396
 30
0.0
 11
5.6142523631
 21
20.561375396
 31
0.0
  0
LINE
  5
32E
330
1F
100
AcDbEntity
  8
0
  6
Continuous
 62
     7
370
    25
100
AcDbLine
 10
40.043385411
 20
20.6322571906
 30
0.0
 11
40.043385411
 21
20.5928871118
 31
0.0
  0
LINE
  5
32F
330
1F
100
AcDbEntity
  8
0
  6
Continuous
 62
     7
370
    25
100
AcDbLine
 10
40.043385411
 20
20.5928871118
 30
0.0
 11
4.4528342299
 21
20.5928871118
 31
0.0
  0
LINE
  5
330
330
1F
100
AcDbEntity
  8
0
  6
Continuous
 62
     7
370
    25
100
AcDbLine
 10
4.4528342299
 20
20.5928871118
 30
0.0
 11
4.4528342299
 21
20.6322571906
 31
0.0
  0
LINE
  5
331
330
1F
100
AcDbEntity
  8
0
  6
Continuous
 62
     7
370
    25
100
AcDbLine
 10
4.4528342299
 20
20.6322571906
 30
0.0
 11
40.043385411
 21
20.6322571906
 31
0.0
  0
LINE
  5
332
330
1F
100
AcDbEntity
  8
0
  6
Continuous
 62
     7
370
    25
100
AcDbLine
 10
40.200865726
 20
20.5928871118
 30
0.0
 11
40.043385411
 21
20.5928871118
 31
0.0
  0
LINE
  5
333
330
1F
100
AcDbEntity
  8
0
  6
Continuous
 62
     7
370
    25
100
AcDbLine
 10
40.043385411
 20
20.6322571906
 30
0.0
 11
40.2402358047
 21
20.6322571906
 31
0.0
  0
ARC
  5
334
330
1F
100
AcDbEntity
  8
0
  6
Continuous
 62
     7
370
    25
100
AcDbCircle
 10
40.200865726
 20
20.6322571906
 30
0.0
 40
0.0393700787401627
100
AcDbArc
 50
270.0
 51
0.0
  0
ELLIPSE
  5
335
330
1F
100
AcDbEntity
  8
0
  6
Continuous
 62
     7
370
    25
100
AcDbEllipse
 10
4.4528342299
 20
20.7106056011
 30
0.0
 11
0.1574803149606305
 21
0.0
 31
0.0
210
0.0
220
0.0
230
1.0
 40
0.1
 41
3.909399971171304
 42
4.712388980384691
  0
LINE
  5
336
330
1F
100
AcDbEntity
  8
0
  6
Continuous
 62
     7
370
    25
100
AcDbLine
 10
4.4528342299
 20
20.6948575696
 30
0.0
 11
4.4528342299
 21
20.6556828771
 31
0.0
  0
ELLIPSE
  5
337
330
1F
100
AcDbEntity
  8
0
  6
Continuous
 62
     7
370
    25
100
AcDbEllipse
 10
4.4528342299
 20
20.6714309086
 30
0.0
 11
0.1968503937007879
 21
0.0
 31
0.0
210
0.0
220
0.0
230
1.0
 40
0.08
 41
3.926990816987284
 42
4.712388980384691
  0
ARC
  5
338
330
1F
100
AcDbEntity
  8
0
  6
Continuous
 62
     7
370
    25
100
AcDbCircle
 10
4.3518163729
 20
20.6633878394
 30
0.0
 40
0.0383014388918726
100
AcDbArc
 50
108.6985928285
 51
184.6311209697
  0
ELLIPSE
  5
339
330
1F
100
AcDbEntity
  8
0
  6
Continuous
 62
     7
370
    25
100
AcDbEllipse
 10
40.043385411
 20
20.6714309086
 30
0.0
 11
0.1968503937007924
 21
0.0
 31
0.0
210
0.0
220
0.0
230
1.0
 40
0.08
 41
4.712388980384691
 42
5.497787143782263
  0
LINE
  5
33A
330
1F
100
AcDbEntity
  8
0
  6
Continuous
 62
     7
370
    25
100
AcDbLine
 10
40.043385411
 20
20.6556828771
 30
0.0
 11
40.043385411
 21
20.6948575696
 31
0.0
  0
ELLIPSE
  5
33B
330
1F
100
AcDbEntity
  8
0
  6
Continuous
 62
     7
370
    25
100
AcDbEllipse
 10
40.043385411
 20
20.7106056011
 30
0.0
 11
0.1574803149606296
 21
0.0
 31
0.0
210
0.0
220
0.0
230
1.0
 40
0.1
 41
4.712388980384691
 42
5.515377989598376
  0
ARC
  5
33C
330
1F
100
AcDbEntity
  8
0
  6
Continuous
 62
     7
370
    25
100
AcDbCircle
 10
40.1461060131
 20
20.6645078295
 30
0.0
 40
0.0367160957970298
100
AcDbArc
 50
353.4119116193
 51
73.2583745825
  0
LINE
  5
33D
330
1F
100
AcDbEntity
  8
0
  6
Continuous
 62
     7
370
    25
100
AcDbLine
 10
40.043385411
 20
20.6556828771
 30
0.0
 11
4.4528342299
 21
20.6556828771
 31
0.0
  0
LINE
  5
33E
330
1F
100
AcDbEntity
  8
0
  6
Continuous
 62
     7
370
    25
100
AcDbLine
 10
4.4528342299
 20
20.6948575696
 30
0.0
 11
40.043385411
 21
20.6948575696
 31
0.0
  0
LINE
  5
33F
330
1F
100
AcDbEntity
  8
0
  6
Continuous
 62
     7
370
    25
100
AcDbLine
 10
40.043385411
 20
20.6322571906
 30
0.0
 11
40.043385411
 21
20.6556828771
 31
0.0
  0
LINE
  5
340
330
1F
100
AcDbEntity
  8
0
  6
Continuous
 62
     7
370
    25
100
AcDbLine
 10
4.4528342299
 20
20.6556828771
 30
0.0
 11
4.4528342299
 21
20.6322571906
 31
0.0
  0
LINE
  5
341
330
1F
100
AcDbEntity
  8
0
  6
Continuous
 62
     7
370
    25
100
AcDbLine
 10
40.2402358047
 20
20.6556828771
 30
0.0
 11
40.1825796593
 21
20.6602953687
 31
0.0
  0
LINE
  5
342
330
1F
100
AcDbEntity
  8
0
  6
Continuous
 62
     7
370
    25
100
AcDbLine
 10
40.2402358047
 20
20.6556828771
 30
0.0
 11
40.2402358047
 21
20.6322571906
 31
0.0
  0
LINE
  5
343
330
1F
100
AcDbEntity
  8
0
  6
Continuous
 62
     7
370
    25
100
AcDbLine
 10
4.2559838362
 20
20.6322571906
 30
0.0
 11
4.4528342299
 21
20.6322571906
 31
0.0
  0
LINE
  5
344
330
1F
100
AcDbEntity
  8
0
  6
Continuous
 62
     7
370
    25
100
AcDbLine
 10
4.4528342299
 20
20.5928871118
 30
0.0
 11
4.295353915
 21
20.5928871118
 31
0.0
  0
ARC
  5
345
330
1F
100
AcDbEntity
  8
0
  6
Continuous
 62
     7
370
    25
100
AcDbCircle
 10
4.295353915
 20
20.6322571906
 30
0.0
 40
0.0393700787401583
100
AcDbArc
 50
180.0
 51
270.0
  0
LINE
  5
346
330
1F
100
AcDbEntity
  8
0
  6
Continuous
 62
     7
370
    25
100
AcDbLine
 10
4.2559838362
 20
20.6322571906
 30
0.0
 11
4.2559838362
 21
20.6556828771
 31
0.0
  0
LINE
  5
347
330
1F
100
AcDbEntity
  8
0
  6
Continuous
 62
     7
370
    25
100
AcDbLine
 10
4.3136399817
 20
20.6602953687
 30
0.0
 11
4.2559838362
 21
20.6556828771
 31
0.0
  0
LINE
  5
348
330
1F
100
AcDbEntity
  8
0
  6
Continuous
 62
     7
370
    25
100
AcDbLine
 10
39.6496846236
 20
20.7503674268
 30
0.0
 11
40.1566823159
 21
20.6996676575
 31
0.0
  0
LINE
  5
349
330
1F
100
AcDbEntity
  8
0
  6
Continuous
 62
     7
370
    25
100
AcDbLine
 10
4.339537325
 20
20.6996676575
 30
0.0
 11
4.8465350173
 21
20.7503674268
 31
0.0
  0
LINE
  5
34A
330
1F
100
AcDbEntity
  8
0
  6
Continuous
 62
     7
370
    25
100
AcDbLine
 10
4.8465350173
 20
20.7503674268
 30
0.0
 11
39.6496846236
 21
20.7503674268
 31
0.0
  0
LINE
  5
34B
330
1F
100
AcDbEntity
  8
0
  6
Continuous
 62
     7
370
    25
100
AcDbLine
 10
40.1566823159
 20
20.6996676575
 30
0.0
 11
40.2047831953
 21
20.6948575696
 31
0.0
  0
ARC
  5
34C
330
1F
100
AcDbEntity
  8
0
  6
Continuous
 62
     7
370
    25
100
AcDbCircle
 10
40.200865726
 20
20.6556828771
 30
0.0
 40
0.0393700787401627
100
AcDbArc
 50
0.0
 51
84.2894068625
  0
LINE
  5
34D
330
1F
100
AcDbEntity
  8
0
  6
Continuous
 62
     7
370
    25
100
AcDbLine
 10
4.2914364457
 20
20.6948575696
 30
0.0
 11
4.339537325
 21
20.6996676575
 31
0.0
  0
ARC
  5
34E
330
1F
100
AcDbEntity
  8
0
  6
Continuous
 62
     7
370
    25
100
AcDbCircle
 10
4.295353915
 20
20.6556828771
 30
0.0
 40
0.0393700787401589
100
AcDbArc
 50
95.7105931375
 51
180.0
  0
ARC
  5
34F
330
1F
100
AcDbEntity
  8
0
  6
Continuous
 62
     7
370
    25
100
AcDbCircle
 10
12.1598178711
 20
17.5338324814
 30
0.0
 40
0.1181102362204706
100
AcDbArc
 50
44.9999968874
 51
89.999996824
  0
LINE
  5
350
330
1F
100
AcDbEntity
  8
0
  6
Continuous
 62
     7
370
    25
100
AcDbLine
 10
12.1598178776
 20
17.6519427176
 30
0.0
 11
11.1851186921
 21
17.6519427716
 31
0.0
  0
LINE
  5
351
330
1F
100
AcDbEntity
  8
0
  6
Continuous
 62
     7
370
    25
100
AcDbLine
 10
11.1851186932
 20
17.671627811
 30
0.0
 11
11.1851186921
 21
17.6519427716
 31
0.0
  0
LINE
  5
352
330
1F
100
AcDbEntity
  8
0
  6
Continuous
 62
     7
370
    25
100
AcDbLine
 10
12.1598178781
 20
17.671627757
 30
0.0
 11
11.1851186932
 21
17.671627811
 31
0.0
  0
ARC
  5
353
330
1F
100
AcDbEntity
  8
0
  6
Continuous
 62
     7
370
    25
100
AcDbCircle
 10
12.1598178711
 20
17.5338324814
 30
0.0
 40
0.137795275590552
100
AcDbArc
 50
44.9999968239
 51
89.9999970795
  0
LINE
  5
354
330
1F
100
AcDbEntity
  8
0
  6
Continuous
 62
     7
370
    25
100
AcDbLine
 10
12.2572538503
 20
17.6312684498
 30
0.0
 11
12.5366315544
 21
17.3518907147
 31
0.0
  0
ARC
  5
355
330
1F
100
AcDbEntity
  8
0
  6
Continuous
 62
     7
370
    25
100
AcDbCircle
 10
12.620148108
 20
17.435407259
 30
0.0
 40
0.1181102362204754
100
AcDbArc
 50
224.9999968239
 51
269.9999968239
  0
LINE
  5
356
330
1F
100
AcDbEntity
  8
0
  6
Continuous
 62
     7
370
    25
100
AcDbLine
 10
15.3908862896
 20
17.3172968692
 30
0.0
 11
12.6201481014
 21
17.3172970228
 31
0.0
  0
ARC
  5
357
330
1F
100
AcDbEntity
  8
0
  6
Continuous
 62
     7
370
    25
100
AcDbCircle
 10
15.3908862962
 20
17.4354071054
 30
0.0
 40
0.1181102362204706
100
AcDbArc
 50
269.9999968239
 51
314.9999968239
  0
LINE
  5
358
330
1F
100
AcDbEntity
  8
0
  6
Continuous
 62
     7
370
    25
100
AcDbLine
 10
15.4744028405
 20
17.3518905518
 30
0.0
 11
15.7537805756
 21
17.631268256
 31
0.0
  0
ARC
  5
359
330
1F
100
AcDbEntity
  8
0
  6
Continuous
 62
     7
370
    25
100
AcDbCircle
 10
15.851216544
 20
17.5338322768
 30
0.0
 40
0.1377952755905485
100
AcDbArc
 50
89.9999968239
 51
134.9999968239
  0
LINE
  5
35A
330
1F
100
AcDbEntity
  8
0
  6
Continuous
 62
     7
370
    25
100
AcDbLine
 10
15.8512165516
 20
17.6716275524
 30
0.0
 11
33.5887518792
 21
17.6716265691
 31
0.0
  0
ARC
  5
35B
330
1F
100
AcDbEntity
  8
0
  6
Continuous
 62
     7
370
    25
100
AcDbCircle
 10
33.5887518715
 20
17.5338312935
 30
0.0
 40
0.137795275590552
100
AcDbArc
 50
44.9999968239
 51
89.9999968239
  0
LINE
  5
35C
330
1F
100
AcDbEntity
  8
0
  6
Continuous
 62
     7
370
    25
100
AcDbLine
 10
33.6861878507
 20
17.6312672619
 30
0.0
 11
33.9655655548
 21
17.3518895268
 31
0.0
  0
ARC
  5
35D
330
1F
100
AcDbEntity
  8
0
  6
Continuous
 62
     7
370
    25
100
AcDbCircle
 10
34.0490821084
 20
17.4354060712
 30
0.0
 40
0.1181102362204742
100
AcDbArc
 50
224.9999968239
 51
269.9999968239
  0
LINE
  5
35E
330
1F
100
AcDbEntity
  8
0
  6
Continuous
 62
     7
370
    25
100
AcDbLine
 10
36.9154435801
 20
17.317295676
 30
0.0
 11
34.0490821018
 21
17.3172958349
 31
0.0
  0
ARC
  5
35F
330
1F
100
AcDbEntity
  8
0
  6
Continuous
 62
     7
370
    25
100
AcDbCircle
 10
36.9154435867
 20
17.4354059123
 30
0.0
 40
0.1181102362204706
100
AcDbArc
 50
269.9999968239
 51
314.9999968239
  0
LINE
  5
360
330
1F
100
AcDbEntity
  8
0
  6
Continuous
 62
     7
370
    25
100
AcDbLine
 10
37.2783378656
 20
17.6312670623
 30
0.0
 11
36.998960131
 21
17.3518893587
 31
0.0
  0
ARC
  5
361
330
1F
100
AcDbEntity
  8
0
  6
Continuous
 62
     7
370
    25
100
AcDbCircle
 10
37.3757738345
 20
17.5338310836
 30
0.0
 40
0.137795275590552
100
AcDbArc
 50
89.9999968239
 51
134.9999971186
  0
LINE
  5
362
330
1F
100
AcDbEntity
  8
0
  6
Continuous
 62
     7
370
    25
100
AcDbLine
 10
37.3757738421
 20
17.6716263592
 30
0.0
 11
38.3504730237
 21
17.6716263052
 31
0.0
  0
LINE
  5
363
330
1F
100
AcDbEntity
  8
0
  6
Continuous
 62
     7
370
    25
100
AcDbLine
 10
38.3504730226
 20
17.6519412658
 30
0.0
 11
38.3504730237
 21
17.6716263052
 31
0.0
  0
LINE
  5
364
330
1F
100
AcDbEntity
  8
0
  6
Continuous
 62
     7
370
    25
100
AcDbLine
 10
37.3757738404
 20
17.6519413198
 30
0.0
 11
38.3504730226
 21
17.6519412658
 31
0.0
  0
ARC
  5
365
330
1F
100
AcDbEntity
  8
0
  6
Continuous
 62
     7
370
    25
100
AcDbCircle
 10
37.3757738345
 20
17.5338310836
 30
0.0
 40
0.1181102362204706
100
AcDbArc
 50
89.999997122
 51
134.9999968239
  0
LINE
  5
366
330
1F
100
AcDbEntity
  8
0
  6
Continuous
 62
     7
370
    25
100
AcDbLine
 10
37.2922572901
 20
17.6173476372
 30
0.0
 11
37.0128795551
 21
17.3379699331
 31
0.0
  0
ARC
  5
367
330
1F
100
AcDbEntity
  8
0
  6
Continuous
 62
     7
370
    25
100
AcDbCircle
 10
36.9154435867
 20
17.4354059123
 30
0.0
 40
0.137795275590552
100
AcDbArc
 50
269.9999968239
 51
314.9999968239
  0
LINE
  5
368
330
1F
100
AcDbEntity
  8
0
  6
Continuous
 62
     7
370
    25
100
AcDbLine
 10
36.915443579
 20
17.2976106367
 30
0.0
 11
34.0490821024
 21
17.2976107956
 31
0.0
  0
ARC
  5
369
330
1F
100
AcDbEntity
  8
0
  6
Continuous
 62
     7
370
    25
100
AcDbCircle
 10
34.0490821084
 20
17.4354060712
 30
0.0
 40
0.137795275590563
100
AcDbArc
 50
224.999996979
 51
269.9999975021
  0
LINE
  5
36A
330
1F
100
AcDbEntity
  8
0
  6
Continuous
 62
     7
370
    25
100
AcDbLine
 10
33.6722684251
 20
17.6173478379
 30
0.0
 11
33.9516461295
 21
17.3379701025
 31
0.0
  0
ARC
  5
36B
330
1F
100
AcDbEntity
  8
0
  6
Continuous
 62
     7
370
    25
100
AcDbCircle
 10
33.5887518715
 20
17.5338312935
 30
0.0
 40
0.1181102362204742
100
AcDbArc
 50
44.9999968239
 51
89.9999968239
  0
LINE
  5
36C
330
1F
100
AcDbEntity
  8
0
  6
Continuous
 62
     7
370
    25
100
AcDbLine
 10
15.8512165505
 20
17.651942513
 30
0.0
 11
33.5887518781
 21
17.6519415297
 31
0.0
  0
ARC
  5
36D
330
1F
100
AcDbEntity
  8
0
  6
Continuous
 62
     7
370
    25
100
AcDbCircle
 10
15.851216544
 20
17.5338322768
 30
0.0
 40
0.1181102362204767
100
AcDbArc
 50
89.9999968239
 51
134.9999968239
  0
LINE
  5
36E
330
1F
100
AcDbEntity
  8
0
  6
Continuous
 62
     7
370
    25
100
AcDbLine
 10
15.4883222615
 20
17.3379711231
 30
0.0
 11
15.7676999997
 21
17.6173488304
 31
0.0
  0
ARC
  5
36F
330
1F
100
AcDbEntity
  8
0
  6
Continuous
 62
     7
370
    25
100
AcDbCircle
 10
15.3908862962
 20
17.4354071054
 30
0.0
 40
0.1377952755905487
100
AcDbArc
 50
269.9999952793
 51
314.9999949905
  0
LINE
  5
370
330
1F
100
AcDbEntity
  8
0
  6
Continuous
 62
     7
370
    25
100
AcDbLine
 10
15.3908862848
 20
17.2976118298
 30
0.0
 11
12.6201481003
 21
17.2976119834
 31
0.0
  0
ARC
  5
371
330
1F
100
AcDbEntity
  8
0
  6
Continuous
 62
     7
370
    25
100
AcDbCircle
 10
12.620148108
 20
17.435407259
 30
0.0
 40
0.1377952755905618
100
AcDbArc
 50
224.9999968239
 51
269.9999968239
  0
LINE
  5
372
330
1F
100
AcDbEntity
  8
0
  6
Continuous
 62
     7
370
    25
100
AcDbLine
 10
12.2433344246
 20
17.6173490258
 30
0.0
 11
12.5227121288
 21
17.3379712906
 31
0.0
  0
LINE
  5
373
330
1F
100
AcDbEntity
  8
0
  6
Continuous
 62
     7
370
    25
100
AcDbLine
 10
10.9882682982
 20
17.6519427824
 30
0.0
 11
10.9882682993
 21
17.6716278218
 31
0.0
  0
LINE
  5
374
330
1F
100
AcDbEntity
  8
0
  6
Continuous
 62
     7
370
    25
100
AcDbLine
 10
11.1851186921
 20
17.6519427716
 30
0.0
 11
10.9882682982
 21
17.6519427824
 31
0.0
  0
LINE
  5
375
330
1F
100
AcDbEntity
  8
0
  6
Continuous
 62
     7
370
    25
100
AcDbLine
 10
38.5473234172
 20
17.6716262941
 30
0.0
 11
38.5473234161
 21
17.6519412547
 31
0.0
  0
LINE
  5
376
330
1F
100
AcDbEntity
  8
0
  6
Continuous
 62
     7
370
    25
100
AcDbLine
 10
38.5473234161
 20
17.6519412547
 30
0.0
 11
38.3504730226
 21
17.6519412658
 31
0.0
  0
LINE
  5
377
330
1F
100
AcDbEntity
  8
0
  6
Continuous
 62
     7
370
    25
100
AcDbLine
 10
18.3378430169
 20
17.6519423746
 30
0.0
 11
18.337843011
 21
17.5498111405
 31
0.0
  0
ELLIPSE
  5
378
330
1F
100
AcDbEntity
  8
0
  6
Continuous
 62
     7
370
    25
100
AcDbEllipse
 10
18.49668512
 20
17.5141470899
 30
0.0
 11
0.6399590123611638
 21
-0.1195348192644872
 31
0.0
210
0.0
220
0.0
230
1.0
 40
0.0093481305
 41
1.823370601429193
 42
3.168102464974726
  0
ARC
  5
379
330
1F
100
AcDbEntity
  8
0
  6
Continuous
 62
     7
370
    25
100
AcDbCircle
 10
17.7880237028
 20
17.5141471292
 30
0.0
 40
0.1377952755905449
100
AcDbArc
 50
59.9999968239
 51
89.9999968239
  0
LINE
  5
37A
330
1F
100
AcDbEntity
  8
0
  6
Continuous
 62
     7
370
    25
100
AcDbLine
 10
31.4958261975
 20
17.6519416452
 30
0.0
 11
31.4958261917
 21
17.5498104112
 31
0.0
  0
LINE
  5
37B
330
1F
100
AcDbEntity
  8
0
  6
Continuous
 62
     7
370
    25
100
AcDbLine
 10
31.4958261917
 20
17.5498104112
 30
0.0
 11
18.337843011
 21
17.5498111405
 31
0.0
  0
ARC
  5
37C
330
1F
100
AcDbEntity
  8
0
  6
Continuous
 62
     7
370
    25
100
AcDbCircle
 10
32.0456454956
 20
17.5141463389
 30
0.0
 40
0.1377952755905558
100
AcDbArc
 50
89.9999968239
 51
119.9999968239
  0
ELLIPSE
  5
37D
330
1F
100
AcDbEntity
  8
0
  6
Continuous
 62
     7
370
    25
100
AcDbEllipse
 10
31.3369840782
 20
17.5141463781
 30
0.0
 11
0.6399590258262577
 21
0.1195347483200599
 31
0.0
210
0.0
220
0.0
230
1.0
 40
0.0093481304
 41
6.256675494997893
 42
7.601407358539499
  0
ELLIPSE
  5
37E
330
1F
100
AcDbEntity
  8
0
  6
Continuous
 62
     7
370
    25
100
AcDbEllipse
 10
18.5648760945
 20
17.4747770074
 30
0.0
 11
0.2268181800072356
 21
0.118897369997427
 31
0.0
210
0.0
220
0.0
230
1.0
 40
0.0604130767
 41
3.179819637746812
 42
4.524551501289871
  0
LINE
  5
37F
330
1F
100
AcDbEntity
  8
0
  6
Continuous
 62
     7
370
    25
100
AcDbLine
 10
18.3384981351
 20
17.3554428107
 30
0.0
 11
17.8569213472
 21
17.6334813346
 31
0.0
  0
LINE
  5
380
330
1F
100
AcDbEntity
  8
0
  6
Continuous
 62
     7
370
    25
100
AcDbLine
 10
18.337843011
 20
17.5498111405
 30
0.0
 11
18.5295778458
 21
17.4391129678
 31
0.0
  0
ELLIPSE
  5
381
330
1F
100
AcDbEntity
  8
0
  6
Continuous
 62
     7
370
    25
100
AcDbEllipse
 10
31.2687930994
 20
17.4747763031
 30
0.0
 11
0.2268181668368321
 21
-0.1188973951686414
 31
0.0
210
0.0
220
0.0
230
1.0
 40
0.0604130757
 41
4.900226461301146
 42
6.244958324844628
  0
LINE
  5
382
330
1F
100
AcDbEntity
  8
0
  6
Continuous
 62
     7
370
    25
100
AcDbLine
 10
31.3040913446
 20
17.4391122597
 30
0.0
 11
31.4958261917
 21
17.5498104112
 31
0.0
  0
LINE
  5
383
330
1F
100
AcDbEntity
  8
0
  6
Continuous
 62
     7
370
    25
100
AcDbLine
 10
31.9767478645
 20
17.6334805519
 30
0.0
 11
31.4951710455
 21
17.3554420814
 31
0.0
  0
LINE
  5
384
330
1F
100
AcDbEntity
  8
0
  6
Continuous
 62
     7
370
    25
100
AcDbLine
 10
18.5295778458
 20
17.4391129678
 30
0.0
 11
31.3040913446
 21
17.4391122597
 31
0.0
  0
LINE
  5
385
330
1F
100
AcDbEntity
  8
0
  6
Continuous
 62
     7
370
    25
100
AcDbLine
 10
18.52957784
 20
17.3369817338
 30
0.0
 11
18.4073957719
 21
17.3369817405
 31
0.0
  0
ARC
  5
386
330
1F
100
AcDbEntity
  8
0
  6
Continuous
 62
     7
370
    25
100
AcDbCircle
 10
18.4073957795
 20
17.4747770161
 30
0.0
 40
0.137795275590552
100
AcDbArc
 50
239.9999968239
 51
269.9999968239
  0
LINE
  5
387
330
1F
100
AcDbEntity
  8
0
  6
Continuous
 62
     7
370
    25
100
AcDbLine
 10
18.52957784
 20
17.3369817338
 30
0.0
 11
18.5295778458
 21
17.4391129678
 31
0.0
  0
LINE
  5
388
330
1F
100
AcDbEntity
  8
0
  6
Continuous
 62
     7
370
    25
100
AcDbLine
 10
31.3040913388
 20
17.3369810257
 30
0.0
 11
18.52957784
 21
17.3369817338
 31
0.0
  0
LINE
  5
389
330
1F
100
AcDbEntity
  8
0
  6
Continuous
 62
     7
370
    25
100
AcDbLine
 10
31.3040913388
 20
17.3369810257
 30
0.0
 11
31.3040913446
 21
17.4391122597
 31
0.0
  0
LINE
  5
38A
330
1F
100
AcDbEntity
  8
0
  6
Continuous
 62
     7
370
    25
100
AcDbLine
 10
31.4262734067
 20
17.3369810188
 30
0.0
 11
31.3040913388
 21
17.3369810257
 31
0.0
  0
ARC
  5
38B
330
1F
100
AcDbEntity
  8
0
  6
Continuous
 62
     7
370
    25
100
AcDbCircle
 10
31.4262734143
 20
17.4747762944
 30
0.0
 40
0.137795275590552
100
AcDbArc
 50
269.9999968239
 51
299.9999968239
  0
LINE
  5
38C
330
1F
100
AcDbEntity
  8
0
  6
Continuous
 62
     7
370
    25
100
AcDbLine
 10
11.7928602285
 20
17.6173490493
 30
0.0
 11
12.2433344232
 21
17.6173490247
 31
0.0
  0
LINE
  5
38D
330
1F
100
AcDbEntity
  8
0
  6
Continuous
 62
     7
370
    25
100
AcDbLine
 10
11.7928602285
 20
17.6173490493
 30
0.0
 11
11.7928602305
 21
17.6519427366
 31
0.0
  0
LINE
  5
38E
330
1F
100
AcDbEntity
  8
0
  6
Continuous
 62
     7
370
    25
100
AcDbLine
 10
11.7928602127
 20
17.3379713295
 30
0.0
 11
12.5227121273
 21
17.3379712896
 31
0.0
  0
LINE
  5
38F
330
1F
100
AcDbEntity
  8
0
  6
Continuous
 62
     7
370
    25
100
AcDbLine
 10
11.7928602285
 20
17.6173490493
 30
0.0
 11
11.7928602127
 21
17.3379713295
 31
0.0
  0
LINE
  5
390
330
1F
100
AcDbEntity
  8
0
  6
Continuous
 62
     7
370
    25
100
AcDbLine
 10
11.7928602127
 20
17.3379713295
 30
0.0
 11
11.7928602103
 21
17.2976120276
 31
0.0
  0
LINE
  5
391
330
1F
100
AcDbEntity
  8
0
  6
Continuous
 62
     7
370
    25
100
AcDbLine
 10
12.6201480989
 20
17.2976119824
 30
0.0
 11
11.7928602103
 21
17.2976120276
 31
0.0
  0
LINE
  5
392
330
1F
100
AcDbEntity
  8
0
  6
Continuous
 62
     7
370
    25
100
AcDbLine
 10
37.0128795536
 20
17.3379699321
 30
0.0
 11
37.7427314665
 21
17.337969891
 31
0.0
  0
LINE
  5
393
330
1F
100
AcDbEntity
  8
0
  6
Continuous
 62
     7
370
    25
100
AcDbLine
 10
37.7427314665
 20
17.337969891
 30
0.0
 11
37.7427314641
 21
17.2976105891
 31
0.0
  0
LINE
  5
394
330
1F
100
AcDbEntity
  8
0
  6
Continuous
 62
     7
370
    25
100
AcDbLine
 10
37.7427314641
 20
17.2976105891
 30
0.0
 11
36.9154435776
 21
17.2976106357
 31
0.0
  0
LINE
  5
395
330
1F
100
AcDbEntity
  8
0
  6
Continuous
 62
     7
370
    25
100
AcDbLine
 10
37.7427314823
 20
17.6173476108
 30
0.0
 11
37.2922572887
 21
17.6173476362
 31
0.0
  0
LINE
  5
396
330
1F
100
AcDbEntity
  8
0
  6
Continuous
 62
     7
370
    25
100
AcDbLine
 10
37.7427314823
 20
17.6173476108
 30
0.0
 11
37.7427314665
 21
17.337969891
 31
0.0
  0
LINE
  5
397
330
1F
100
AcDbEntity
  8
0
  6
Continuous
 62
     7
370
    25
100
AcDbLine
 10
37.7427314823
 20
17.6173476108
 30
0.0
 11
37.7427314843
 21
17.6519412982
 31
0.0
  0
LINE
  5
398
330
1F
100
AcDbEntity
  8
0
  6
Continuous
 62
     7
370
    25
100
AcDbLine
 10
10.98826829
 20
17.6173490939
 30
0.0
 11
11.7928602285
 21
17.6173490493
 31
0.0
  0
LINE
  5
399
330
1F
100
AcDbEntity
  8
0
  6
Continuous
 62
     7
370
    25
100
AcDbLine
 10
10.98826829
 20
17.6173490939
 30
0.0
 11
10.98826829
 21
17.6519427812
 31
0.0
  0
LINE
  5
39A
330
1F
100
AcDbEntity
  8
0
  6
Continuous
 62
     7
370
    25
100
AcDbLine
 10
38.5473234095
 20
17.6173475662
 30
0.0
 11
37.7427314823
 21
17.6173476108
 31
0.0
  0
LINE
  5
39B
330
1F
100
AcDbEntity
  8
0
  6
Continuous
 62
     7
370
    25
100
AcDbLine
 10
38.5473234095
 20
17.6519412536
 30
0.0
 11
38.5473234095
 21
17.6173475662
 31
0.0
  0
LINE
  5
39C
330
1F
100
AcDbEntity
  8
0
  6
Continuous
 62
     7
370
    25
100
AcDbLine
 10
10.9882682787
 20
17.3379713741
 30
0.0
 11
11.7928602127
 21
17.3379713295
 31
0.0
  0
LINE
  5
39D
330
1F
100
AcDbEntity
  8
0
  6
Continuous
 62
     7
370
    25
100
AcDbLine
 10
10.9882682787
 20
17.3379713741
 30
0.0
 11
10.98826829
 21
17.6173490939
 31
0.0
  0
LINE
  5
39E
330
1F
100
AcDbEntity
  8
0
  6
Continuous
 62
     7
370
    25
100
AcDbLine
 10
37.7427314665
 20
17.337969891
 30
0.0
 11
38.5473233987
 21
17.3379698464
 31
0.0
  0
LINE
  5
39F
330
1F
100
AcDbEntity
  8
0
  6
Continuous
 62
     7
370
    25
100
AcDbLine
 10
38.5473233987
 20
17.3379698464
 30
0.0
 11
38.5473234095
 21
17.6173475662
 31
0.0
  0
LINE
  5
3A0
330
1F
100
AcDbEntity
  8
0
  6
Continuous
 62
     7
370
    25
100
AcDbLine
 10
10.9882682763
 20
17.2976120722
 30
0.0
 11
10.9882682787
 21
17.3379713741
 31
0.0
  0
LINE
  5
3A1
330
1F
100
AcDbEntity
  8
0
  6
Continuous
 62
     7
370
    25
100
AcDbLine
 10
11.7928602103
 20
17.2976120276
 30
0.0
 11
10.9882682763
 21
17.2976120722
 31
0.0
  0
LINE
  5
3A2
330
1F
100
AcDbEntity
  8
0
  6
Continuous
 62
     7
370
    25
100
AcDbLine
 10
38.5473233987
 20
17.3379698464
 30
0.0
 11
38.5473233965
 21
17.2976105445
 31
0.0
  0
LINE
  5
3A3
330
1F
100
AcDbEntity
  8
0
  6
Continuous
 62
     7
370
    25
100
AcDbLine
 10
38.5473233965
 20
17.2976105445
 30
0.0
 11
37.7427314641
 21
17.2976105891
 31
0.0
  0
ELLIPSE
  5
3A4
330
1F
100
AcDbEntity
  8
0
  6
Continuous
 62
     7
370
    25
100
AcDbEllipse
 10
30.9997388513
 20
17.5338314353
 30
0.0
 11
2.672588454454431
 21
0.08340057717338212
 31
0.0
210
0.0
220
0.0
230
1.0
 40
0.0068422662
 41
0.0064280628503946
 42
0.4252634007907626
  0
ARC
  5
3A5
330
1F
100
AcDbEntity
  8
0
  6
Continuous
 62
     7
370
    25
100
AcDbCircle
 10
33.3630169601
 20
17.5617825852
 30
0.0
 40
0.0901800174528357
100
AcDbArc
 50
38.0362109062
 51
88.7616237546
  0
ELLIPSE
  5
3A6
330
1F
100
AcDbEntity
  8
0
  6
Continuous
 62
     7
370
    25
100
AcDbEllipse
 10
31.0981640426
 20
17.435406233
 30
0.0
 11
2.85355714380508
 21
-0.09758863471362034
 31
0.0
210
0.0
220
0.0
230
1.0
 40
0.0070008848
 41
5.871846512891002
 42
6.290681850829789
  0
LINE
  5
3A7
330
1F
100
AcDbEntity
  8
0
  6
Continuous
 62
     7
370
    25
100
AcDbLine
 10
33.7134223846
 20
17.3379701132
 30
0.0
 11
33.4340446806
 21
17.6173478484
 31
0.0
  0
ARC
  5
3A8
330
1F
100
AcDbEntity
  8
0
  6
Continuous
 62
     7
370
    25
100
AcDbCircle
 10
33.7962880585
 20
17.4027962536
 30
0.0
 40
0.1052100203616668
100
AcDbArc
 50
218.0362109062
 51
268.7616237546
  0
LINE
  5
3A9
330
1F
100
AcDbEntity
  8
0
  6
Continuous
 62
     7
370
    25
100
AcDbLine
 10
34.0490820977
 20
17.2976107934
 30
0.0
 11
33.7940142532
 21
17.2976108069
 31
0.0
  0
ARC
  5
3AA
330
1F
100
AcDbEntity
  8
0
  6
Continuous
 62
     7
370
    25
100
AcDbCircle
 10
26.293108904
 20
17.399042491
 30
0.0
 40
0.1014372644731172
100
AcDbArc
 50
217.0188267629
 51
269.3774926274
  0
LINE
  5
3AB
330
1F
100
AcDbEntity
  8
0
  6
Continuous
 62
     7
370
    25
100
AcDbLine
 10
33.7940142532
 20
17.2976108069
 30
0.0
 11
26.2920068297
 21
17.2976112135
 31
0.0
  0
ARC
  5
3AC
330
1F
100
AcDbEntity
  8
0
  6
Continuous
 62
     7
370
    25
100
AcDbCircle
 10
36.4538379503
 20
17.4055096254
 30
0.0
 40
0.0882393735221816
100
AcDbArc
 50
271.3759829215
 51
322.5789238223
  0
LINE
  5
3AD
330
1F
100
AcDbEntity
  8
0
  6
Continuous
 62
     7
370
    25
100
AcDbLine
 10
36.5239168793
 20
17.3518893798
 30
0.0
 11
36.7512552702
 21
17.6312670866
 31
0.0
  0
ARC
  5
3AE
330
1F
100
AcDbEntity
  8
0
  6
Continuous
 62
     7
370
    25
100
AcDbCircle
 10
36.8330140207
 20
17.5687101333
 30
0.0
 40
0.1029459357758326
100
AcDbArc
 50
91.3759829215
 51
142.5789238223
  0
LINE
  5
3AF
330
1F
100
AcDbEntity
  8
0
  6
Continuous
 62
     7
370
    25
100
AcDbLine
 10
33.5887518792
 20
17.6716265599
 30
0.0
 11
36.8305419672
 21
17.671626384
 31
0.0
  0
LINE
  5
3B0
330
1F
100
AcDbEntity
  8
0
  6
Continuous
 62
     7
370
    25
100
AcDbLine
 10
15.4883222555
 20
17.33797112
 30
0.0
 11
17.7626437863
 21
17.337970992
 31
0.0
  0
LINE
  5
3B1
330
1F
100
AcDbEntity
  8
0
  6
Continuous
 62
     7
370
    25
100
AcDbLine
 10
17.7626437863
 20
17.337970992
 30
0.0
 11
17.7626437839
 21
17.2976116901
 31
0.0
  0
LINE
  5
3B2
330
1F
100
AcDbEntity
  8
0
  6
Continuous
 62
     7
370
    25
100
AcDbLine
 10
17.7626437839
 20
17.2976116901
 30
0.0
 11
15.3908862794
 21
17.2976118236
 31
0.0
  0
LINE
  5
3B3
330
1F
100
AcDbEntity
  8
0
  6
Continuous
 62
     7
370
    25
100
AcDbLine
 10
17.7626438021
 20
17.6173487118
 30
0.0
 11
15.7676999905
 21
17.6173488241
 31
0.0
  0
LINE
  5
3B4
330
1F
100
AcDbEntity
  8
0
  6
Continuous
 62
     7
370
    25
100
AcDbLine
 10
17.7626437863
 20
17.337970992
 30
0.0
 11
17.7626438021
 21
17.6173487118
 31
0.0
  0
LINE
  5
3B5
330
1F
100
AcDbEntity
  8
0
  6
Continuous
 62
     7
370
    25
100
AcDbLine
 10
17.7626438041
 20
17.6519423992
 30
0.0
 11
17.7626438021
 21
17.6173487118
 31
0.0
  0
LINE
  5
3B6
330
1F
100
AcDbEntity
  8
0
  6
Continuous
 62
     7
370
    25
100
AcDbLine
 10
17.7626437863
 20
17.337970992
 30
0.0
 11
18.1748003689
 21
17.3379709692
 31
0.0
  0
LINE
  5
3B7
330
1F
100
AcDbEntity
  8
0
  6
Continuous
 62
     7
370
    25
100
AcDbLine
 10
18.1748003689
 20
17.3379709692
 30
0.0
 11
18.1748003665
 21
17.2976116673
 31
0.0
  0
LINE
  5
3B8
330
1F
100
AcDbEntity
  8
0
  6
Continuous
 62
     7
370
    25
100
AcDbLine
 10
18.1748003665
 20
17.2976116673
 30
0.0
 11
17.7626437839
 21
17.2976116901
 31
0.0
  0
ARC
  5
3B9
330
1F
100
AcDbEntity
  8
0
  6
Continuous
 62
     7
370
    25
100
AcDbCircle
 10
19.7400507389
 20
17.4354068548
 30
0.0
 40
0.1377952755905555
100
AcDbArc
 50
269.9999968239
 51
314.9999968239
  0
LINE
  5
3BA
330
1F
100
AcDbEntity
  8
0
  6
Continuous
 62
     7
370
    25
100
AcDbLine
 10
19.7400507313
 20
17.2976115792
 30
0.0
 11
18.1748003665
 21
17.2976116673
 31
0.0
  0
ARC
  5
3BB
330
1F
100
AcDbEntity
  8
0
  6
Continuous
 62
     7
370
    25
100
AcDbCircle
 10
13.6444462323
 20
17.6447187914
 30
0.0
 40
0.1247378376742508
100
AcDbArc
 50
167.5420258308
 51
186.1902135141
  0
LINE
  5
3BC
330
1F
100
AcDbEntity
  8
0
  6
Continuous
 62
     7
370
    25
100
AcDbLine
 10
13.513769619
 20
17.3518906479
 30
0.0
 11
13.5204356915
 21
17.6312683669
 31
0.0
  0
ARC
  5
3BD
330
1F
100
AcDbEntity
  8
0
  6
Continuous
 62
     7
370
    25
100
AcDbCircle
 10
13.4196232654
 20
17.3402474986
 30
0.0
 40
0.0948635800091905
100
AcDbArc
 50
345.9994019745
 51
7.0500148627
  0
LINE
  5
3BE
330
1F
100
AcDbEntity
  8
0
  6
Continuous
 62
     7
370
    25
100
AcDbLine
 10
26.2920068297
 20
17.2976112135
 30
0.0
 11
25.9611729404
 21
17.297611231
 31
0.0
  0
LINE
  5
3BF
330
1F
100
AcDbEntity
  8
0
  6
Continuous
 62
     7
370
    25
100
AcDbLine
 10
15.4876432954
 20
17.6716275595
 30
0.0
 11
15.8512165516
 21
17.6716275394
 31
0.0
  0
ARC
  5
3C0
330
1F
100
AcDbEntity
  8
0
  6
Continuous
 62
     8
370
    25
100
AcDbCircle
 10
32.9961492328
 20
20.0791154535
 30
0.0
 40
0.1023622047244104
100
AcDbArc
 50
300.073433385
 51
59.9266977385
  0
ARC
  5
3C1
330
1F
100
AcDbEntity
  8
0
  6
Continuous
 62
     8
370
    25
100
AcDbCircle
 10
32.9961492328
 20
20.0791154535
 30
0.0
 40
0.1023622047244148
100
AcDbArc
 50
120.0734261716
 51
239.9266285691
  0
ARC
  5
3C2
330
1F
100
AcDbEntity
  8
0
  6
Continuous
 62
     8
370
    25
100
AcDbCircle
 10
12.9567791541
 20
20.0790980417
 30
0.0
 40
0.1023622047244111
100
AcDbArc
 50
300.0733930285
 51
59.9266977386
  0
ARC
  5
3C3
330
1F
100
AcDbEntity
  8
0
  6
Continuous
 62
     8
370
    25
100
AcDbCircle
 10
12.9567791541
 20
20.0790980417
 30
0.0
 40
0.1023622047244106
100
AcDbArc
 50
120.0734261715
 51
239.9267308816
  0
LINE
  5
3C4
330
1F
100
AcDbEntity
  8
0
  6
Continuous
 62
     8
370
    25
100
AcDbLine
 10
5.6536226227
 20
19.7936440032
 30
0.0
 11
5.6536226227
 21
18.0692647475
 31
0.0
  0
LINE
  5
3C5
330
1F
100
AcDbEntity
  8
0
  6
Continuous
 62
     8
370
    25
100
AcDbLine
 10
38.8425990007
 20
18.0692647475
 30
0.0
 11
38.8425990007
 21
19.7936440032
 31
0.0
  0
LINE
  5
3C6
330
1F
100
AcDbEntity
  8
0
  6
Continuous
 62
     8
370
    25
100
AcDbLine
 10
19.3347248528
 20
17.9275324898
 30
0.0
 11
18.6839533785
 21
17.9275324898
 31
0.0
  0
ELLIPSE
  5
3C7
330
1F
100
AcDbEntity
  8
0
  6
Continuous
 62
     8
370
    25
100
AcDbEllipse
 10
7.2992390137
 20
17.6519418922
 30
0.0
 11
-0.02832475059606043
 21
0.05352183410435529
 31
0.0
210
0.0
220
0.0
230
1.0
 40
0.6021295222
 41
0.9042548971153712
 42
1.051043205347858
  0
ELLIPSE
  5
3C8
330
1F
100
AcDbEntity
  8
0
  6
Continuous
 62
     8
370
    25
100
AcDbEllipse
 10
7.6060425697
 20
17.6519418922
 30
0.0
 11
0.02832476720722088
 21
0.05352183214587215
 31
0.0
210
0.0
220
0.0
230
1.0
 40
0.6021294021
 41
5.232142004621275
 42
5.378930038013064
  0
LINE
  5
3C9
330
1F
100
AcDbEntity
  8
0
  6
Continuous
 62
     8
370
    25
100
AcDbLine
 10
7.6161160381
 20
17.6716281926
 30
0.0
 11
7.6091739906
 21
17.6322579
 31
0.0
  0
LINE
  5
3CA
330
1F
100
AcDbEntity
  8
0
  6
Continuous
 62
     8
370
    25
100
AcDbLine
 10
7.2961075866
 20
17.6322579208
 30
0.0
 11
7.2891655442
 21
17.6716282142
 31
0.0
  0
LINE
  5
3CB
330
1F
100
AcDbEntity
  8
0
  6
Continuous
 62
     8
370
    25
100
AcDbLine
 10
5.5355122056
 20
20.529879333
 30
0.0
 11
5.5394492135
 21
20.529879333
 31
0.0
  0
LINE
  5
3CC
330
1F
100
AcDbEntity
  8
0
  6
Continuous
 62
     8
370
    25
100
AcDbLine
 10
33.4340446806
 20
17.6173478484
 30
0.0
 11
31.9488053381
 21
17.6173479289
 31
0.0
  0
LINE
  5
3CD
330
1F
100
AcDbEntity
  8
0
  6
Continuous
 62
     8
370
    25
100
AcDbLine
 10
31.4427549321
 20
17.3379702363
 30
0.0
 11
33.7134223846
 21
17.3379701132
 31
0.0
  0
LINE
  5
3CE
330
1F
100
AcDbEntity
  8
0
  6
Continuous
 62
     8
370
    25
100
AcDbLine
 10
36.9989601261
 20
17.3518893538
 30
0.0
 11
36.5239168793
 21
17.3518893798
 31
0.0
  0
LINE
  5
3CF
330
1F
100
AcDbEntity
  8
0
  6
Continuous
 62
     8
370
    25
100
AcDbLine
 10
37.2783378611
 20
17.6312670578
 30
0.0
 11
36.7512552702
 21
17.6312670866
 31
0.0
  0
LINE
  5
3D0
330
1F
100
AcDbEntity
  8
0
  6
Continuous
 62
     8
370
    25
100
AcDbLine
 10
36.5239168793
 20
17.3518893798
 30
0.0
 11
33.9655655631
 21
17.3518895186
 31
0.0
  0
LINE
  5
3D1
330
1F
100
AcDbEntity
  8
0
  6
Continuous
 62
     8
370
    25
100
AcDbLine
 10
36.7512552702
 20
17.6312670866
 30
0.0
 11
33.6861878597
 21
17.6312672529
 31
0.0
  0
LINE
  5
3D2
330
1F
100
AcDbEntity
  8
0
  6
Continuous
 62
     8
370
    25
100
AcDbLine
 10
17.8848638776
 20
17.6173487051
 30
0.0
 11
17.7626438021
 21
17.6173487118
 31
0.0
  0
LINE
  5
3D3
330
1F
100
AcDbEntity
  8
0
  6
Continuous
 62
     8
370
    25
100
AcDbLine
 10
18.1748003689
 20
17.3379709692
 30
0.0
 11
18.1748003752
 21
17.4499537686
 31
0.0
  0
LINE
  5
3D4
330
1F
100
AcDbEntity
  8
0
  6
Continuous
 62
     8
370
    25
100
AcDbLine
 10
18.1748003689
 20
17.3379709692
 30
0.0
 11
18.3909142682
 21
17.3379709572
 31
0.0
  0
LINE
  5
3D5
330
1F
100
AcDbEntity
  8
0
  6
Continuous
 62
     8
370
    25
100
AcDbLine
 10
13.5204356915
 20
17.6312683669
 30
0.0
 11
12.2572538629
 21
17.6312684372
 31
0.0
  0
LINE
  5
3D6
330
1F
100
AcDbEntity
  8
0
  6
Continuous
 62
     8
370
    25
100
AcDbLine
 10
13.513769619
 20
17.3518906479
 30
0.0
 11
12.5366315668
 21
17.3518907022
 31
0.0
  0
LINE
  5
3D7
330
1F
100
AcDbEntity
  8
0
  6
Continuous
 62
     8
370
    25
100
AcDbLine
 10
15.4744028279
 20
17.3518905392
 30
0.0
 11
13.513769619
 21
17.3518906479
 31
0.0
  0
LINE
  5
3D8
330
1F
100
AcDbEntity
  8
0
  6
Continuous
 62
     8
370
    25
100
AcDbLine
 10
15.7537805627
 20
17.6312682431
 30
0.0
 11
13.5204356915
 21
17.6312683669
 31
0.0
  0
ENDSEC
  0
SECTION
  2
OBJECTS
  0
DICTIONARY
  5
C
330
0
100
AcDbDictionary
281
     1
  3
ACAD_GROUP
350
D
  3
ACAD_LAYOUT
350
1A
  3
ACAD_MLINESTYLE
350
17
  3
ACAD_PLOTSETTINGS
350
19
  3
ACAD_PLOTSTYLENAME
350
E
  3
ACAD_SCALELIST
350
47
  0
DICTIONARY
  5
D
102
{ACAD_REACTORS
330
C
102
}
330
C
100
AcDbDictionary
281
     1
  0
DICTIONARY
  5
1A
102
{ACAD_REACTORS
330
C
102
}
330
C
100
AcDbDictionary
281
     1
  3
Layout1
350
1E
  3
Layout2
350
26
  3
Model
350
22
  0
DICTIONARY
  5
17
102
{ACAD_REACTORS
330
C
102
}
330
C
100
AcDbDictionary
281
     1
  3
Standard
350
18
  0
DICTIONARY
  5
19
102
{ACAD_REACTORS
330
C
102
}
330
C
100
AcDbDictionary
281
     1
  0
ACDBDICTIONARYWDFLT
  5
E
102
{ACAD_REACTORS
330
C
102
}
330
C
100
AcDbDictionary
281
     1
  3
Normal
350
F
100
AcDbDictionaryWithDefault
340
F
  0
DICTIONARY
  5
47
102
{ACAD_REACTORS
330
C
102
}
330
C
100
AcDbDictionary
281
     1
  3
A0
350
48
  3
A1
350
49
  3
A2
350
4A
  3
A3
350
4B
  3
A4
350
4C
  3
A5
350
4D
  3
A6
350
4E
  3
A7
350
4F
  3
A8
350
50
  3
A9
350
51
  3
B0
350
52
  3
B1
350
53
  3
B2
350
54
  3
B3
350
55
  3
B4
350
56
  3
B5
350
57
  3
B6
350
58
  3
B7
350
59
  3
B8
350
5A
  3
B9
350
5B
  3
C0
350
5C
  3
C1
350
5D
  3
C2
350
5E
  3
C3
350
5F
  3
C4
350
60
  3
C5
350
61
  3
C6
350
62
  3
C7
350
63
  3
C8
350
64
  3
C9
350
65
  3
D0
350
66
  3
D1
350
67
  3
D2
350
68
  0
LAYOUT
  5
1E
102
{ACAD_REACTORS
330
1A
102
}
330
1A
100
AcDbPlotSettings
  1

  2
none_device
  4

  6

 40
0.0
 41
0.0
 42
0.0
 43
0.0
 44
0.0
 45
0.0
 46
0.0
 47
0.0
 48
0.0
 49
0.0
140
0.0
141
0.0
142
1.0
143
1.0
 70
   688
 72
     0
 73
     0
 74
     5
  7

 75
    16
147
1.0
148
0.0
149
0.0
100
AcDbLayout
  1
Layout1
 70
     1
 71
     1
 10
0.0
 20
0.0
 11
12.0
 21
9.0
 12
0.0
 22
0.0
 32
0.0
 14
1.0000000000E+20
 24
1.0000000000E+20
 34
1.0000000000E+20
 15
-1.0000000000E+20
 25
-1.0000000000E+20
 35
-1.0000000000E+20
146
0.0
 13
0.0
 23
0.0
 33
0.0
 16
1.0
 26
0.0
 36
0.0
 17
0.0
 27
1.0
 37
0.0
 76
     0
330
1B
  0
LAYOUT
  5
26
102
{ACAD_REACTORS
330
1A
102
}
330
1A
100
AcDbPlotSettings
  1

  2
none_device
  4

  6

 40
0.0
 41
0.0
 42
0.0
 43
0.0
 44
0.0
 45
0.0
 46
0.0
 47
0.0
 48
0.0
 49
0.0
140
0.0
141
0.0
142
1.0
143
1.0
 70
   688
 72
     0
 73
     0
 74
     5
  7

 75
    16
147
1.0
148
0.0
149
0.0
100
AcDbLayout
  1
Layout2
 70
     1
 71
     2
 10
0.0
 20
0.0
 11
0.0
 21
0.0
 12
0.0
 22
0.0
 32
0.0
 14
0.0
 24
0.0
 34
0.0
 15
0.0
 25
0.0
 35
0.0
146
0.0
 13
0.0
 23
0.0
 33
0.0
 16
1.0
 26
0.0
 36
0.0
 17
0.0
 27
1.0
 37
0.0
 76
     0
330
23
  0
LAYOUT
  5
22
102
{ACAD_REACTORS
330
1A
102
}
330
1A
100
AcDbPlotSettings
  1

  2
none_device
  4
Letter_(8.50_x_11.00_Inches)
  6

 40
6.35
 41
6.35
 42
6.35000508
 43
6.35000508
 44
215.9
 45
279.4
 46
0.0
 47
0.0
 48
0.0
 49
0.0
140
0.0
141
0.0
142
1.0
143
1.0
 70
  1712
 72
     0
 73
     0
 74
     0
  7

 75
     0
147
1.0
148
0.0
149
0.0
100
AcDbLayout
  1
Model
 70
     1
 71
     0
 10
0.0
 20
0.0
 11
45.0
 21
40.0
 12
0.0
 22
0.0
 32
0.0
 14
0.0
 24
0.0
 34
0.0
 15
45.0
 25
40.0
 35
0.0
146
0.0
 13
0.0
 23
0.0
 33
0.0
 16
1.0
 26
0.0
 36
0.0
 17
0.0
 27
1.0
 37
0.0
 76
     0
330
1F
331
29
  0
MLINESTYLE
  5
18
102
{ACAD_REACTORS
330
17
102
}
330
17
100
AcDbMlineStyle
  2
Standard
 70
     0
  3

 62
   256
 51
90.0
 52
90.0
 71
     2
 49
0.5
 62
   256
  6
BYLAYER
 49
-0.5
 62
   256
  6
BYLAYER
  0
ACDBPLACEHOLDER
  5
F
102
{ACAD_REACTORS
330
E
102
}
330
E
  0
SCALE
  5
48
102
{ACAD_REACTORS
330
47
102
}
330
47
100
AcDbScale
 70
     0
300
1:1
140
1.0
141
1.0
290
     1
  0
SCALE
  5
49
102
{ACAD_REACTORS
330
47
102
}
330
47
100
AcDbScale
 70
     0
300
1:2
140
1.0
141
2.0
290
     0
  0
SCALE
  5
4A
102
{ACAD_REACTORS
330
47
102
}
330
47
100
AcDbScale
 70
     0
300
1:4
140
1.0
141
4.0
290
     0
  0
SCALE
  5
4B
102
{ACAD_REACTORS
330
47
102
}
330
47
100
AcDbScale
 70
     0
300
1:5
140
1.0
141
5.0
290
     0
  0
SCALE
  5
4C
102
{ACAD_REACTORS
330
47
102
}
330
47
100
AcDbScale
 70
     0
300
1:8
140
1.0
141
8.0
290
     0
  0
SCALE
  5
4D
102
{ACAD_REACTORS
330
47
102
}
330
47
100
AcDbScale
 70
     0
300
1:10
140
1.0
141
10.0
290
     0
  0
SCALE
  5
4E
102
{ACAD_REACTORS
330
47
102
}
330
47
100
AcDbScale
 70
     0
300
1:16
140
1.0
141
16.0
290
     0
  0
SCALE
  5
4F
102
{ACAD_REACTORS
330
47
102
}
330
47
100
AcDbScale
 70
     0
300
1:20
140
1.0
141
20.0
290
     0
  0
SCALE
  5
50
102
{ACAD_REACTORS
330
47
102
}
330
47
100
AcDbScale
 70
     0
300
1:30
140
1.0
141
30.0
290
     0
  0
SCALE
  5
51
102
{ACAD_REACTORS
330
47
102
}
330
47
100
AcDbScale
 70
     0
300
1:40
140
1.0
141
40.0
290
     0
  0
SCALE
  5
52
102
{ACAD_REACTORS
330
47
102
}
330
47
100
AcDbScale
 70
     0
300
1:50
140
1.0
141
50.0
290
     0
  0
SCALE
  5
53
102
{ACAD_REACTORS
330
47
102
}
330
47
100
AcDbScale
 70
     0
300
1:100
140
1.0
141
100.0
290
     0
  0
SCALE
  5
54
102
{ACAD_REACTORS
330
47
102
}
330
47
100
AcDbScale
 70
     0
300
2:1
140
2.0
141
1.0
290
     0
  0
SCALE
  5
55
102
{ACAD_REACTORS
330
47
102
}
330
47
100
AcDbScale
 70
     0
300
4:1
140
4.0
141
1.0
290
     0
  0
SCALE
  5
56
102
{ACAD_REACTORS
330
47
102
}
330
47
100
AcDbScale
 70
     0
300
8:1
140
8.0
141
1.0
290
     0
  0
SCALE
  5
57
102
{ACAD_REACTORS
330
47
102
}
330
47
100
AcDbScale
 70
     0
300
10:1
140
10.0
141
1.0
290
     0
  0
SCALE
  5
58
102
{ACAD_REACTORS
330
47
102
}
330
47
100
AcDbScale
 70
     0
300
100:1
140
100.0
141
1.0
290
     0
  0
SCALE
  5
59
102
{ACAD_REACTORS
330
47
102
}
330
47
100
AcDbScale
 70
     0
300
1/128" = 1'-0"
140
0.0078125
141
12.0
290
     0
  0
SCALE
  5
5A
102
{ACAD_REACTORS
330
47
102
}
330
47
100
AcDbScale
 70
     0
300
1/64" = 1'-0"
140
0.015625
141
12.0
290
     0
  0
SCALE
  5
5B
102
{ACAD_REACTORS
330
47
102
}
330
47
100
AcDbScale
 70
     0
300
1/32" = 1'-0"
140
0.03125
141
12.0
290
     0
  0
SCALE
  5
5C
102
{ACAD_REACTORS
330
47
102
}
330
47
100
AcDbScale
 70
     0
300
1/16" = 1'-0"
140
0.0625
141
12.0
290
     0
  0
SCALE
  5
5D
102
{ACAD_REACTORS
330
47
102
}
330
47
100
AcDbScale
 70
     0
300
3/32" = 1'-0"
140
0.09375
141
12.0
290
     0
  0
SCALE
  5
5E
102
{ACAD_REACTORS
330
47
102
}
330
47
100
AcDbScale
 70
     0
300
1/8" = 1'-0"
140
0.125
141
12.0
290
     0
  0
SCALE
  5
5F
102
{ACAD_REACTORS
330
47
102
}
330
47
100
AcDbScale
 70
     0
300
3/16" = 1'-0"
140
0.1875
141
12.0
290
     0
  0
SCALE
  5
60
102
{ACAD_REACTORS
330
47
102
}
330
47
100
AcDbScale
 70
     0
300
1/4" = 1'-0"
140
0.25
141
12.0
290
     0
  0
SCALE
  5
61
102
{ACAD_REACTORS
330
47
102
}
330
47
100
AcDbScale
 70
     0
300
3/8" = 1'-0"
140
0.375
141
12.0
290
     0
  0
SCALE
  5
62
102
{ACAD_REACTORS
330
47
102
}
330
47
100
AcDbScale
 70
     0
300
1/2" = 1'-0"
140
0.5
141
12.0
290
     0
  0
SCALE
  5
63
102
{ACAD_REACTORS
330
47
102
}
330
47
100
AcDbScale
 70
     0
300
3/4" = 1'-0"
140
0.75
141
12.0
290
     0
  0
SCALE
  5
64
102
{ACAD_REACTORS
330
47
102
}
330
47
100
AcDbScale
 70
     0
300
1" = 1'-0"
140
1.0
141
12.0
290
     0
  0
SCALE
  5
65
102
{ACAD_REACTORS
330
47
102
}
330
47
100
AcDbScale
 70
     0
300
1-1/2" = 1'-0"
140
1.5
141
12.0
290
     0
  0
SCALE
  5
66
102
{ACAD_REACTORS
330
47
102
}
330
47
100
AcDbScale
 70
     0
300
3" = 1'-0"
140
3.0
141
12.0
290
     0
  0
SCALE
  5
67
102
{ACAD_REACTORS
330
47
102
}
330
47
100
AcDbScale
 70
     0
300
6" = 1'-0"
140
6.0
141
12.0
290
     0
  0
SCALE
  5
68
102
{ACAD_REACTORS
330
47
102
}
330
47
100
AcDbScale
 70
     0
300
1'-0" = 1'-0"
140
12.0
141
12.0
290
     0
  0
ENDSEC
  0
EOF
