  0
SECTION
  2
HEADER
  9
$ACADVER
  1
AC1015
  9
$ACADMAINTVER
 70
     6
  9
$DWGCODEPAGE
  3
ANSI_1252
  9
$INSBASE
 10
0.0
 20
0.0
 30
0.0
  9
$EXTMIN
 10
0.0
 20
0.0
 30
0.0
  9
$EXTMAX
 10
45.0
 20
40.0
 30
0.0
  9
$LIMMIN
 10
0.0
 20
0.0
  9
$LIMMAX
 10
45.0
 20
40.0
  9
$ORTHOMODE
 70
     0
  9
$REGENMODE
 70
     1
  9
$FILLMODE
 70
     1
  9
$QTEXTMODE
 70
     0
  9
$MIRRTEXT
 70
     1
  9
$LTSCALE
 40
1.0
  9
$ATTMODE
 70
     1
  9
$TEXTSIZE
 40
0.125
  9
$TRACEWID
 40
0.05
  9
$TEXTSTYLE
  7
Standard
  9
$CLAYER
  8
0
  9
$CELTYPE
  6
ByLayer
  9
$CECOLOR
 62
   256
  9
$CELTSCALE
 40
1.0
  9
$DISPSILH
 70
     0
  9
$DIMSCALE
 40
1.0
  9
$DIMASZ
 40
0.13
  9
$DIMEXO
 40
0.05
  9
$DIMDLI
 40
0.38
  9
$DIMRND
 40
0.0
  9
$DIMDLE
 40
0.0
  9
$DIMEXE
 40
0.125
  9
$DIMTP
 40
0.0
  9
$DIMTM
 40
0.0
  9
$DIMTXT
 40
0.125
  9
$DIMCEN
 40
0.09
  9
$DIMTSZ
 40
0.0
  9
$DIMTOL
 70
     0
  9
$DIMLIM
 70
     0
  9
$DIMTIH
 70
     1
  9
$DIMTOH
 70
     1
  9
$DIMSE1
 70
     0
  9
$DIMSE2
 70
     0
  9
$DIMTAD
 70
     0
  9
$DIMZIN
 70
     0
  9
$DIMBLK
  1

  9
$DIMASO
 70
     1
  9
$DIMSHO
 70
     1
  9
$DIMPOST
  1

  9
$DIMAPOST
  1

  9
$DIMALT
 70
     0
  9
$DIMALTD
 70
     2
  9
$DIMALTF
 40
25.4
  9
$DIMLFAC
 40
1.0
  9
$DIMTOFL
 70
     0
  9
$DIMTVP
 40
0.0
  9
$DIMTIX
 70
     0
  9
$DIMSOXD
 70
     0
  9
$DIMSAH
 70
     0
  9
$DIMBLK1
  1

  9
$DIMBLK2
  1

  9
$DIMSTYLE
  2
Standard
  9
$DIMCLRD
 70
     0
  9
$DIMCLRE
 70
     0
  9
$DIMCLRT
 70
     0
  9
$DIMTFAC
 40
1.0
  9
$DIMGAP
 40
0.06
  9
$DIMJUST
 70
     0
  9
$DIMSD1
 70
     0
  9
$DIMSD2
 70
     0
  9
$DIMTOLJ
 70
     1
  9
$DIMTZIN
 70
     0
  9
$DIMALTZ
 70
     0
  9
$DIMALTTZ
 70
     0
  9
$DIMUPT
 70
     0
  9
$DIMDEC
 70
     2
  9
$DIMTDEC
 70
     2
  9
$DIMALTU
 70
     2
  9
$DIMALTTD
 70
     2
  9
$DIMTXSTY
  7
Standard
  9
$DIMAUNIT
 70
     0
  9
$DIMADEC
 70
     2
  9
$DIMALTRND
 40
0.0
  9
$DIMAZIN
 70
     0
  9
$DIMDSEP
 70
    46
  9
$DIMATFIT
 70
     3
  9
$DIMFRAC
 70
     0
  9
$DIMLDRBLK
  1

  9
$DIMLUNIT
 70
     2
  9
$DIMLWD
 70
    -2
  9
$DIMLWE
 70
    -2
  9
$DIMTMOVE
 70
     0
  9
$LUNITS
 70
     2
  9
$LUPREC
 70
     2
  9
$SKETCHINC
 40
0.1
  9
$FILLETRAD
 40
0.5
  9
$AUNITS
 70
     0
  9
$AUPREC
 70
     2
  9
$MENU
  1
.
  9
$ELEVATION
 40
0.0
  9
$PELEVATION
 40
0.0
  9
$THICKNESS
 40
0.0
  9
$LIMCHECK
 70
     0
  9
$CHAMFERA
 40
0.0
  9
$CHAMFERB
 40
0.0
  9
$CHAMFERC
 40
0.0
  9
$CHAMFERD
 40
0.0
  9
$SKPOLY
 70
     0
  9
$TDCREATE
 40
2458813.398393854
  9
$TDUCREATE
 40
2458813.731727188
  9
$TDUPDATE
 40
2458813.398394398
  9
$TDUUPDATE
 40
2458813.731727731
  9
$TDINDWG
 40
0.0000000116
  9
$TDUSRTIMER
 40
0.0000000116
  9
$USRTIMER
 70
     1
  9
$ANGBASE
 50
0.0
  9
$ANGDIR
 70
     0
  9
$PDMODE
 70
     0
  9
$PDSIZE
 40
-1.0
  9
$PLINEWID
 40
0.0
  9
$SPLFRAME
 70
     0
  9
$SPLINETYPE
 70
     6
  9
$SPLINESEGS
 70
     8
  9
$HANDSEED
  5
27A
  9
$SURFTAB1
 70
     6
  9
$SURFTAB2
 70
     6
  9
$SURFTYPE
 70
     6
  9
$SURFU
 70
     6
  9
$SURFV
 70
     6
  9
$UCSBASE
  2

  9
$UCSNAME
  2

  9
$UCSORG
 10
0.0
 20
0.0
 30
0.0
  9
$UCSXDIR
 10
1.0
 20
0.0
 30
0.0
  9
$UCSYDIR
 10
0.0
 20
1.0
 30
0.0
  9
$UCSORTHOREF
  2

  9
$UCSORTHOVIEW
 70
     0
  9
$UCSORGTOP
 10
0.0
 20
0.0
 30
0.0
  9
$UCSORGBOTTOM
 10
0.0
 20
0.0
 30
0.0
  9
$UCSORGLEFT
 10
0.0
 20
0.0
 30
0.0
  9
$UCSORGRIGHT
 10
0.0
 20
0.0
 30
0.0
  9
$UCSORGFRONT
 10
0.0
 20
0.0
 30
0.0
  9
$UCSORGBACK
 10
0.0
 20
0.0
 30
0.0
  9
$PUCSBASE
  2

  9
$PUCSNAME
  2

  9
$PUCSORG
 10
0.0
 20
0.0
 30
0.0
  9
$PUCSXDIR
 10
1.0
 20
0.0
 30
0.0
  9
$PUCSYDIR
 10
0.0
 20
1.0
 30
0.0
  9
$PUCSORTHOREF
  2

  9
$PUCSORTHOVIEW
 70
     0
  9
$PUCSORGTOP
 10
0.0
 20
0.0
 30
0.0
  9
$PUCSORGBOTTOM
 10
0.0
 20
0.0
 30
0.0
  9
$PUCSORGLEFT
 10
0.0
 20
0.0
 30
0.0
  9
$PUCSORGRIGHT
 10
0.0
 20
0.0
 30
0.0
  9
$PUCSORGFRONT
 10
0.0
 20
0.0
 30
0.0
  9
$PUCSORGBACK
 10
0.0
 20
0.0
 30
0.0
  9
$USERI1
 70
     0
  9
$USERI2
 70
     0
  9
$USERI3
 70
     0
  9
$USERI4
 70
     0
  9
$USERI5
 70
     0
  9
$USERR1
 40
0.0
  9
$USERR2
 40
0.0
  9
$USERR3
 40
0.0
  9
$USERR4
 40
0.0
  9
$USERR5
 40
0.0
  9
$WORLDVIEW
 70
     1
  9
$SHADEDGE
 70
     3
  9
$SHADEDIF
 70
    70
  9
$TILEMODE
 70
     1
  9
$MAXACTVP
 70
    64
  9
$PINSBASE
 10
0.0
 20
0.0
 30
0.0
  9
$PLIMCHECK
 70
     0
  9
$PEXTMIN
 10
1.0000000000E+20
 20
1.0000000000E+20
 30
1.0000000000E+20
  9
$PEXTMAX
 10
-1.0000000000E+20
 20
-1.0000000000E+20
 30
-1.0000000000E+20
  9
$PLIMMIN
 10
0.0
 20
0.0
  9
$PLIMMAX
 10
12.0
 20
9.0
  9
$UNITMODE
 70
     0
  9
$VISRETAIN
 70
     1
  9
$PLINEGEN
 70
     0
  9
$PSLTSCALE
 70
     1
  9
$TREEDEPTH
 70
  3020
  9
$CMLSTYLE
  2
Standard
  9
$CMLJUST
 70
     0
  9
$CMLSCALE
 40
1.0
  9
$PROXYGRAPHICS
 70
     1
  9
$MEASUREMENT
 70
     0
  9
$CELWEIGHT
370
    -1
  9
$ENDCAPS
280
     0
  9
$JOINSTYLE
280
     0
  9
$LWDISPLAY
290
     1
  9
$INSUNITS
 70
     1
  9
$HYPERLINKBASE
  1

  9
$STYLESHEET
  1

  9
$XEDIT
290
     1
  9
$CEPSNTYPE
380
     0
  9
$PSTYLEMODE
290
     1
  9
$FINGERPRINTGUID
  2
{DDB5774E-8171-4945-8F58-08FA553A82AF}
  9
$VERSIONGUID
  2
{FAEB1C32-E019-11D5-929B-00C0DF256EC4}
  9
$EXTNAMES
290
     1
  9
$PSVPSCALE
 40
0.0
  9
$OLESTARTUP
290
     0
  0
ENDSEC
  0
SECTION
  2
CLASSES
  0
CLASS
  1
ACDBDICTIONARYWDFLT
  2
AcDbDictionaryWithDefault
  3
ObjectDBX Classes
 90
        0
280
     0
281
     0
  0
CLASS
  1
VISUALSTYLE
  2
AcDbVisualStyle
  3
ObjectDBX Classes
 90
     4095
280
     0
281
     0
  0
CLASS
  1
MATERIAL
  2
AcDbMaterial
  3
ObjectDBX Classes
 90
     1153
280
     0
281
     0
  0
CLASS
  1
SCALE
  2
AcDbScale
  3
ObjectDBX Classes
 90
     1153
280
     0
281
     0
  0
CLASS
  1
TABLESTYLE
  2
AcDbTableStyle
  3
ObjectDBX Classes
 90
     4095
280
     0
281
     0
  0
CLASS
  1
MLEADERSTYLE
  2
AcDbMLeaderStyle
  3
ACDB_MLEADERSTYLE_CLASS
 90
     4095
280
     0
281
     0
  0
CLASS
  1
SUN
  2
AcDbSun
  3
SCENEOE
 90
     1153
280
     0
281
     0
  0
CLASS
  1
ACDBPLACEHOLDER
  2
AcDbPlaceHolder
  3
ObjectDBX Classes
 90
        0
280
     0
281
     0
  0
CLASS
  1
LAYOUT
  2
AcDbLayout
  3
ObjectDBX Classes
 90
        0
280
     0
281
     0
  0
ENDSEC
  0
SECTION
  2
TABLES
  0
TABLE
  2
VPORT
  5
8
330
0
100
AcDbSymbolTable
 70
     1
  0
VPORT
  5
29
330
8
100
AcDbSymbolTableRecord
100
AcDbViewportTableRecord
  2
*Active
 70
     0
 10
0.0
 20
0.0
 11
1.0
 21
1.0
 12
22.5
 22
20.0
 13
0.0
 23
0.0
 14
0.5
 24
0.5
 15
0.5
 25
0.5
 16
0.0
 26
0.0
 36
1.0
 17
0.0
 27
0.0
 37
0.0
 40
40.0
 41
1.125
 42
50.0
 43
0.0
 44
0.0
 50
0.0
 51
0.0
 71
     0
 72
  2000
 73
     1
 74
     3
 75
     0
 76
     0
 77
     0
 78
     0
281
     0
 65
     1
110
0.0
120
0.0
130
0.0
111
1.0
121
0.0
131
0.0
112
0.0
122
1.0
132
0.0
 79
     0
146
0.0
  0
ENDTAB
  0
TABLE
  2
LTYPE
  5
5
330
0
100
AcDbSymbolTable
 70
     6
  0
LTYPE
  5
14
330
5
100
AcDbSymbolTableRecord
100
AcDbLinetypeTableRecord
  2
ByBlock
 70
     0
  3

 72
    65
 73
     0
 40
0.0
  0
LTYPE
  5
15
330
5
100
AcDbSymbolTableRecord
100
AcDbLinetypeTableRecord
  2
ByLayer
 70
     0
  3

 72
    65
 73
     0
 40
0.0
  0
LTYPE
  5
16
330
5
100
AcDbSymbolTableRecord
100
AcDbLinetypeTableRecord
  2
Continuous
 70
     0
  3
Solid line
 72
    65
 73
     0
 40
0.0
  0
LTYPE
  5
6E
330
5
100
AcDbSymbolTableRecord
100
AcDbLinetypeTableRecord
  2
HIDDEN
 70
     0
  3
Hidden __ __ __ __ __ __ __ __ __ __ __ __ __ __
 72
    65
 73
     2
 40
0.075
 49
0.05
 74
     0
 49
-0.025
 74
     0
  0
LTYPE
  5
6F
330
5
100
AcDbSymbolTableRecord
100
AcDbLinetypeTableRecord
  2
PHANTOM
 70
     0
  3
Phantom ______  __  __  ______  __  __  ______
 72
    65
 73
     6
 40
0.5
 49
0.25
 74
     0
 49
-0.05
 74
     0
 49
0.05
 74
     0
 49
-0.05
 74
     0
 49
0.05
 74
     0
 49
-0.05
 74
     0
  0
LTYPE
  5
70
330
5
100
AcDbSymbolTableRecord
100
AcDbLinetypeTableRecord
  2
CENTER
 70
     0
  3
Center ____ _ ____ _ ____ _ ____ _ ____ _ ____
 72
    65
 73
     4
 40
0.4
 49
0.25
 74
     0
 49
-0.05
 74
     0
 49
0.05
 74
     0
 49
-0.05
 74
     0
  0
LTYPE
  5
71
330
5
100
AcDbSymbolTableRecord
100
AcDbLinetypeTableRecord
  2
CENTERX2
 70
     0
  3
Center (2x) ________  __  ________  __  _____
 72
    65
 73
     4
 40
0.8
 49
0.5
 74
     0
 49
-0.1
 74
     0
 49
0.1
 74
     0
 49
-0.1
 74
     0
  0
LTYPE
  5
72
330
5
100
AcDbSymbolTableRecord
100
AcDbLinetypeTableRecord
  2
DOT2
 70
     0
  3
Dot (.5x) ........................................
 72
    65
 73
     2
 40
0.025
 49
0.0
 74
     0
 49
-0.025
 74
     0
  0
ENDTAB
  0
TABLE
  2
LAYER
  5
2
330
0
100
AcDbSymbolTable
 70
     1
  0
LAYER
  5
10
330
2
100
AcDbSymbolTableRecord
100
AcDbLayerTableRecord
  2
0
 70
     0
 62
     7
  6
Continuous
370
    -3
390
F
  0
ENDTAB
  0
TABLE
  2
STYLE
  5
3
330
0
100
AcDbSymbolTable
 70
     1
  0
STYLE
  5
11
330
3
100
AcDbSymbolTableRecord
100
AcDbTextStyleTableRecord
  2
Standard
 70
     0
 40
0.0
 41
1.0
 50
0.0
 71
     0
 42
0.125
  3
txt
  4

  0
ENDTAB
  0
TABLE
  2
VIEW
  5
6
330
0
100
AcDbSymbolTable
 70
     0
  0
ENDTAB
  0
TABLE
  2
UCS
  5
7
330
0
100
AcDbSymbolTable
 70
     0
  0
ENDTAB
  0
TABLE
  2
APPID
  5
9
330
0
100
AcDbSymbolTable
 70
     1
  0
APPID
  5
12
330
9
100
AcDbSymbolTableRecord
100
AcDbRegAppTableRecord
  2
ACAD
 70
     0
  0
ENDTAB
  0
TABLE
  2
DIMSTYLE
  5
A
330
0
100
AcDbSymbolTable
 70
     1
100
AcDbDimStyleTable
  0
DIMSTYLE
105
27
330
A
100
AcDbSymbolTableRecord
100
AcDbDimStyleTableRecord
  2
Standard
 70
     0
178
     0
340
11
  0
ENDTAB
  0
TABLE
  2
BLOCK_RECORD
  5
1
330
0
100
AcDbSymbolTable
 70
     1
  0
BLOCK_RECORD
  5
1F
330
1
100
AcDbSymbolTableRecord
100
AcDbBlockTableRecord
  2
*Model_Space
340
22
  0
BLOCK_RECORD
  5
1B
330
1
100
AcDbSymbolTableRecord
100
AcDbBlockTableRecord
  2
*Paper_Space
340
1E
  0
BLOCK_RECORD
  5
23
330
1
100
AcDbSymbolTableRecord
100
AcDbBlockTableRecord
  2
*Paper_Space0
340
26
  0
ENDTAB
  0
ENDSEC
  0
SECTION
  2
BLOCKS
  0
BLOCK
  5
20
330
1F
100
AcDbEntity
  8
0
100
AcDbBlockBegin
  2
*Model_Space
 70
     0
 10
0.0
 20
0.0
 30
0.0
  3
*Model_Space
  1

  0
ENDBLK
  5
21
330
1F
100
AcDbEntity
  8
0
100
AcDbBlockEnd
  0
BLOCK
  5
1C
330
1B
100
AcDbEntity
 67
     1
  8
0
100
AcDbBlockBegin
  2
*Paper_Space
 70
     0
 10
0.0
 20
0.0
 30
0.0
  3
*Paper_Space
  1

  0
ENDBLK
  5
1D
330
1B
100
AcDbEntity
 67
     1
  8
0
100
AcDbBlockEnd
  0
BLOCK
  5
24
330
23
100
AcDbEntity
  8
0
100
AcDbBlockBegin
  2
*Paper_Space0
 70
     0
 10
0.0
 20
0.0
 30
0.0
  3
*Paper_Space0
  1

  0
ENDBLK
  5
25
330
23
100
AcDbEntity
  8
0
100
AcDbBlockEnd
  0
ENDSEC
  0
SECTION
  2
ENTITIES
  0
LINE
  5
73
330
1F
100
AcDbEntity
  8
0
  6
Continuous
 62
     7
370
    25
100
AcDbLine
 10
22.9778236691
 20
12.7482715627
 30
0.0
 11
22.8477884039
 21
12.8233393234
 31
0.0
  0
LINE
  5
74
330
1F
100
AcDbEntity
  8
0
  6
Continuous
 62
     7
370
    25
100
AcDbLine
 10
14.8730628961
 20
17.4270508753
 30
0.0
 11
14.74838082
 21
17.4990283207
 31
0.0
  0
ARC
  5
75
330
1F
100
AcDbEntity
  8
0
  6
Continuous
 62
     7
370
    25
100
AcDbCircle
 10
27.879399925
 20
10.6188276412
 30
0.0
 40
0.2764389386884767
100
AcDbArc
 50
241.7040128448
 51
298.2957777362
  0
LINE
  5
76
330
1F
100
AcDbEntity
  8
0
  6
Continuous
 62
     7
370
    25
100
AcDbLine
 10
28.0104384294
 20
10.3754197588
 30
0.0
 11
42.7650291935
 21
18.8930637038
 31
0.0
  0
LINE
  5
77
330
1F
100
AcDbEntity
  8
0
  6
Continuous
 62
     7
370
    25
100
AcDbLine
 10
2.582040053
 20
24.9036278081
 30
0.0
 11
27.7483605309
 21
10.3754202378
 31
0.0
  0
ARC
  5
78
330
1F
100
AcDbEntity
  8
0
  6
Continuous
 62
     7
370
    25
100
AcDbCircle
 10
42.7062285377
 20
19.0134375679
 30
0.0
 40
0.1231221624880639
100
AcDbArc
 50
357.8617718612
 51
60.0127795375
  0
LINE
  5
79
330
1F
100
AcDbEntity
  8
0
  6
Continuous
 62
     7
370
    25
100
AcDbLine
 10
42.8308405019
 20
18.9914445279
 30
0.0
 11
42.8308405019
 21
19.014338892
 31
0.0
  0
ARC
  5
7A
330
1F
100
AcDbEntity
  8
0
  6
Continuous
 62
     7
370
    25
100
AcDbCircle
 10
42.7138873007
 20
18.9979645143
 30
0.0
 40
0.1167033557949625
100
AcDbArc
 50
295.9904461596
 51
356.8327767522
  0
LINE
  5
7B
330
1F
100
AcDbEntity
  8
0
  6
Continuous
 62
     7
370
    25
100
AcDbLine
 10
42.7677658349
 20
19.1200782166
 30
0.0
 11
42.4870570382
 21
19.3145430756
 31
0.0
  0
LINE
  5
7C
330
1F
100
AcDbEntity
  8
0
  6
Continuous
 62
     7
370
    25
100
AcDbLine
 10
42.4862340131
 20
19.3150643478
 30
0.0
 11
17.8775047257
 21
33.5213813754
 31
0.0
  0
LINE
  5
7D
330
1F
100
AcDbEntity
  8
0
  6
Continuous
 62
     7
370
    25
100
AcDbLine
 10
2.5162295743
 20
25.0249025173
 30
0.0
 11
2.5162295743
 21
25.0020081532
 31
0.0
  0
ARC
  5
7E
330
1F
100
AcDbEntity
  8
0
  6
Continuous
 62
     7
370
    25
100
AcDbCircle
 10
2.6269432677
 20
25.00438804
 30
0.0
 40
0.1103128415768106
100
AcDbArc
 50
181.2736448074
 51
245.9801335243
  0
ARC
  5
7F
330
1F
100
AcDbEntity
  8
0
  6
Continuous
 62
     7
370
    25
100
AcDbCircle
 10
2.6313561937
 20
25.0154005216
 30
0.0
 40
0.1152050934675494
100
AcDbArc
 50
115.3453027982
 51
177.0294277836
  0
LINE
  5
80
330
1F
100
AcDbEntity
  8
0
  6
Continuous
 62
     7
370
    25
100
AcDbLine
 10
17.3366308171
 20
33.6371604203
 30
0.0
 11
2.582040053
 21
25.1195164753
 31
0.0
  0
LINE
  5
81
330
1F
100
AcDbEntity
  8
0
  6
Continuous
 62
     7
370
    25
100
AcDbLine
 10
17.8763382204
 20
33.5219857735
 30
0.0
 11
17.5955323532
 21
33.6516651729
 31
0.0
  0
ARC
  5
82
330
1F
100
AcDbEntity
  8
0
  6
Continuous
 62
     7
370
    25
100
AcDbCircle
 10
17.4812761822
 20
33.3731979303
 30
0.0
 40
0.300995810276298
100
AcDbArc
 50
67.6914703626
 51
118.7217264321
  0
LINE
  5
83
330
1F
100
AcDbEntity
  8
0
  6
Continuous
 62
     7
370
    25
100
AcDbLine
 10
27.1436129905
 20
10.7245341619
 30
0.0
 11
27.1436129905
 21
10.3966690892
 31
0.0
  0
LINE
  5
84
330
1F
100
AcDbEntity
  8
0
  6
Continuous
 62
     7
370
    25
100
AcDbLine
 10
4.5586011395
 20
22.6629391162
 30
0.0
 11
27.9989119301
 21
9.131133933
 31
0.0
  0
LINE
  5
85
330
1F
100
AcDbEntity
  8
0
  6
Continuous
 62
     7
370
    25
100
AcDbLine
 10
28.0911720452
 20
9.1455973377
 30
0.0
 11
34.605462791
 21
12.9062173532
 31
0.0
  0
LWPOLYLINE
  5
86
330
1F
100
AcDbEntity
  8
0
  6
Continuous
 62
     7
370
    25
100
AcDbPolyline
 90
        5
 70
   128
 43
0.0
 10
27.1436129905
 20
10.3966690892
 10
27.1427907951
 20
10.3839848243
 10
27.1378982761
 20
10.3670460698
 10
27.1320466674
 20
10.3595719069
 10
27.1301940313
 20
10.3589154765
  0
ARC
  5
87
330
1F
100
AcDbEntity
  8
0
  6
Continuous
 62
     7
370
    25
100
AcDbCircle
 10
25.1393399402
 20
11.9419947621
 30
0.0
 40
0.1566918230453501
100
AcDbArc
 50
236.1361547397
 51
276.3484819636
  0
LINE
  5
88
330
1F
100
AcDbEntity
  8
0
  6
Continuous
 62
     7
370
    25
100
AcDbLine
 10
22.7402950654
 20
13.1444976167
 30
0.0
 11
25.0509194986
 21
11.8106025242
 31
0.0
  0
ARC
  5
89
330
1F
100
AcDbEntity
  8
0
  6
Continuous
 62
     7
370
    25
100
AcDbCircle
 10
25.1393399026
 20
11.5240801932
 30
0.0
 40
0.1566918257595251
100
AcDbArc
 50
236.1361719557
 51
276.3484956806
  0
LINE
  5
8A
330
1F
100
AcDbEntity
  8
0
  6
Continuous
 62
     7
370
    25
100
AcDbLine
 10
22.7402950654
 20
12.7265830493
 30
0.0
 11
25.0509194986
 21
11.3926879567
 31
0.0
  0
LINE
  5
8B
330
1F
100
AcDbEntity
  8
0
  6
Continuous
 62
     7
370
    25
100
AcDbLine
 10
22.6425247476
 20
13.322957155
 30
0.0
 11
22.6425247476
 21
13.3182249202
 31
0.0
  0
ARC
  5
8C
330
1F
100
AcDbEntity
  8
0
  6
Continuous
 62
     7
370
    25
100
AcDbCircle
 10
22.828726129
 20
13.3104340528
 30
0.0
 40
0.1863642992438998
100
AcDbArc
 50
177.6040800707
 51
241.8966095415
  0
LINE
  5
8D
330
1F
100
AcDbEntity
  8
0
  6
Continuous
 62
     7
370
    25
100
AcDbLine
 10
22.6425247476
 20
12.9394623656
 30
0.0
 11
22.6425247476
 21
12.9003103228
 31
0.0
  0
ARC
  5
8E
330
1F
100
AcDbEntity
  8
0
  6
Continuous
 62
     7
370
    25
100
AcDbCircle
 10
22.828726129
 20
12.8925194555
 30
0.0
 40
0.1863642992438998
100
AcDbArc
 50
177.6040800707
 51
241.8966095415
  0
ARC
  5
8F
330
1F
100
AcDbEntity
  8
0
  6
Continuous
 62
     7
370
    25
100
AcDbCircle
 10
22.9468730598
 20
12.9635678952
 30
0.0
 40
0.2315611665792408
100
AcDbArc
 50
177.8721218802
 51
204.2647343903
  0
LINE
  5
90
330
1F
100
AcDbEntity
  8
0
  6
Continuous
 62
     7
370
    25
100
AcDbLine
 10
22.7148105337
 20
12.9727900562
 30
0.0
 11
22.7148105337
 21
13.0266620258
 31
0.0
  0
LINE
  5
91
330
1F
100
AcDbEntity
  8
0
  6
Continuous
 62
     7
370
    25
100
AcDbLine
 10
34.8281740395
 20
13.0347858203
 30
0.0
 11
41.0418050976
 21
16.6218387075
 31
0.0
  0
ARC
  5
92
330
1F
100
AcDbEntity
  8
0
  6
Continuous
 62
     7
370
    25
100
AcDbCircle
 10
19.0147932669
 20
15.4776209512
 30
0.0
 40
0.1566923938896576
100
AcDbArc
 50
236.1361306639
 51
276.3484169858
  0
LINE
  5
93
330
1F
100
AcDbEntity
  8
0
  6
Continuous
 62
     7
370
    25
100
AcDbLine
 10
16.6157481749
 20
16.6801232787
 30
0.0
 11
18.9263727119
 21
15.3462281263
 31
0.0
  0
ARC
  5
94
330
1F
100
AcDbEntity
  8
0
  6
Continuous
 62
     7
370
    25
100
AcDbCircle
 10
19.0147932293
 20
15.0597063823
 30
0.0
 40
0.1566923966035277
100
AcDbArc
 50
236.1361478799
 51
276.3484307028
  0
LINE
  5
95
330
1F
100
AcDbEntity
  8
0
  6
Continuous
 62
     7
370
    25
100
AcDbLine
 10
16.6157481749
 20
16.2622087113
 30
0.0
 11
18.9263727119
 21
14.9283135588
 31
0.0
  0
LINE
  5
96
330
1F
100
AcDbEntity
  8
0
  6
Continuous
 62
     7
370
    25
100
AcDbLine
 10
16.5179778571
 20
16.858582817
 30
0.0
 11
16.5179778571
 21
16.8538505822
 31
0.0
  0
ARC
  5
97
330
1F
100
AcDbEntity
  8
0
  6
Continuous
 62
     7
370
    25
100
AcDbCircle
 10
16.7041792385
 20
16.8460597148
 30
0.0
 40
0.1863642992439241
100
AcDbArc
 50
177.6040800707
 51
241.8966095415
  0
LINE
  5
98
330
1F
100
AcDbEntity
  8
0
  6
Continuous
 62
     7
370
    25
100
AcDbLine
 10
16.5179778571
 20
16.4750880275
 30
0.0
 11
16.5179778571
 21
16.4359359848
 31
0.0
  0
ARC
  5
99
330
1F
100
AcDbEntity
  8
0
  6
Continuous
 62
     7
370
    25
100
AcDbCircle
 10
16.7041792385
 20
16.4281451174
 30
0.0
 40
0.186364299243916
100
AcDbArc
 50
177.6040800707
 51
241.8966095415
  0
ARC
  5
9A
330
1F
100
AcDbEntity
  8
0
  6
Continuous
 62
     7
370
    25
100
AcDbCircle
 10
16.8223261694
 20
16.4991935571
 30
0.0
 40
0.231561166579068
100
AcDbArc
 50
177.8721218802
 51
204.2647343903
  0
LINE
  5
9B
330
1F
100
AcDbEntity
  8
0
  6
Continuous
 62
     7
370
    25
100
AcDbLine
 10
16.5902636432
 20
16.5084157182
 30
0.0
 11
16.5902636432
 21
16.5622876878
 31
0.0
  0
LINE
  5
9C
330
1F
100
AcDbEntity
  8
0
  6
Continuous
 62
     7
370
    25
100
AcDbLine
 10
41.0698435374
 20
16.9532973307
 30
0.0
 11
41.0698435374
 21
17.914453729
 31
0.0
  0
ARC
  5
9D
330
1F
100
AcDbEntity
  8
0
  6
Continuous
 62
     7
370
    25
100
AcDbCircle
 10
15.3957427728
 20
17.5668540869
 30
0.0
 40
0.1566921980927042
100
AcDbArc
 50
236.1360441632
 51
276.3484500547
  0
LINE
  5
9E
330
1F
100
AcDbEntity
  8
0
  6
Continuous
 62
     7
370
    25
100
AcDbLine
 10
12.9966976453
 20
18.7693566788
 30
0.0
 11
15.307322286
 21
17.4354614665
 31
0.0
  0
ARC
  5
9F
330
1F
100
AcDbEntity
  8
0
  6
Continuous
 62
     7
370
    25
100
AcDbCircle
 10
15.3957427352
 20
17.148939518
 30
0.0
 40
0.1566922008058501
100
AcDbArc
 50
236.1360613791
 51
276.3484637717
  0
LINE
  5
A0
330
1F
100
AcDbEntity
  8
0
  6
Continuous
 62
     7
370
    25
100
AcDbLine
 10
12.9966976453
 20
18.3514421114
 30
0.0
 11
15.307322286
 21
17.0175468991
 31
0.0
  0
LINE
  5
A1
330
1F
100
AcDbEntity
  8
0
  6
Continuous
 62
     7
370
    25
100
AcDbLine
 10
12.8989273276
 20
18.9478162171
 30
0.0
 11
12.8989273276
 21
18.9430839823
 31
0.0
  0
ARC
  5
A2
330
1F
100
AcDbEntity
  8
0
  6
Continuous
 62
     7
370
    25
100
AcDbCircle
 10
13.0851286177
 20
18.9352930542
 30
0.0
 40
0.1863642106048578
100
AcDbArc
 50
177.6040602446
 51
241.8966990857
  0
LINE
  5
A3
330
1F
100
AcDbEntity
  8
0
  6
Continuous
 62
     7
370
    25
100
AcDbLine
 10
12.8989273276
 20
18.5643214277
 30
0.0
 11
12.8989273276
 21
18.5251693849
 31
0.0
  0
ARC
  5
A4
330
1F
100
AcDbEntity
  8
0
  6
Continuous
 62
     7
370
    25
100
AcDbCircle
 10
13.0851286177
 20
18.5173784568
 30
0.0
 40
0.1863642106048408
100
AcDbArc
 50
177.6040602446
 51
241.8966990857
  0
ARC
  5
A5
330
1F
100
AcDbEntity
  8
0
  6
Continuous
 62
     7
370
    25
100
AcDbCircle
 10
13.203276744
 20
18.5884271733
 30
0.0
 40
0.2315622619694859
100
AcDbArc
 50
177.8721854322
 51
204.2646708383
  0
LINE
  5
A6
330
1F
100
AcDbEntity
  8
0
  6
Continuous
 62
     7
370
    25
100
AcDbLine
 10
12.9712133211
 20
18.5976489985
 30
0.0
 11
12.9712133211
 21
18.6515209682
 31
0.0
  0
ARC
  5
A7
330
1F
100
AcDbEntity
  8
0
  6
Continuous
 62
     7
370
    25
100
AcDbCircle
 10
12.3334688222
 20
19.3346663926
 30
0.0
 40
0.156691448002174
100
AcDbArc
 50
236.1362653174
 51
276.3485138724
  0
LINE
  5
A8
330
1F
100
AcDbEntity
  8
0
  6
Continuous
 62
     7
370
    25
100
AcDbLine
 10
9.9344242001
 20
20.5371695098
 30
0.0
 11
12.2450488408
 21
19.2032742975
 31
0.0
  0
ARC
  5
A9
330
1F
100
AcDbEntity
  8
0
  6
Continuous
 62
     7
370
    25
100
AcDbCircle
 10
12.3334687846
 20
18.9167518237
 30
0.0
 40
0.1566914507173791
100
AcDbArc
 50
236.1362825337
 51
276.3485275893
  0
LINE
  5
AA
330
1F
100
AcDbEntity
  8
0
  6
Continuous
 62
     7
370
    25
100
AcDbLine
 10
9.9344242001
 20
20.1192549424
 30
0.0
 11
12.2450488408
 21
18.7853597301
 31
0.0
  0
LINE
  5
AB
330
1F
100
AcDbEntity
  8
0
  6
Continuous
 62
     7
370
    25
100
AcDbLine
 10
9.8366542972
 20
20.7156288086
 30
0.0
 11
9.8366542972
 21
20.7108965738
 31
0.0
  0
ARC
  5
AC
330
1F
100
AcDbEntity
  8
0
  6
Continuous
 62
     7
370
    25
100
AcDbCircle
 10
10.0228537346
 20
20.7031046211
 30
0.0
 40
0.1863624023627302
100
AcDbArc
 50
177.6037216872
 51
241.8967587698
  0
LINE
  5
AD
330
1F
100
AcDbEntity
  8
0
  6
Continuous
 62
     7
370
    25
100
AcDbLine
 10
9.8366542972
 20
20.3321340192
 30
0.0
 11
9.8366542972
 21
20.2929819764
 31
0.0
  0
ARC
  5
AE
330
1F
100
AcDbEntity
  8
0
  6
Continuous
 62
     7
370
    25
100
AcDbCircle
 10
10.0228537346
 20
20.2851900237
 30
0.0
 40
0.186362402362737
100
AcDbArc
 50
177.6037216872
 51
241.8967587698
  0
ARC
  5
AF
330
1F
100
AcDbEntity
  8
0
  6
Continuous
 62
     7
370
    25
100
AcDbCircle
 10
10.1409812098
 20
20.3562363075
 30
0.0
 40
0.2315403255213192
100
AcDbArc
 50
177.8710683361
 51
204.2661793585
  0
LINE
  5
B0
330
1F
100
AcDbEntity
  8
0
  6
Continuous
 62
     7
370
    25
100
AcDbLine
 10
9.908939461
 20
20.365462069
 30
0.0
 11
9.908939461
 21
20.4193340386
 31
0.0
  0
LINE
  5
B1
330
1F
100
AcDbEntity
  8
0
  6
Continuous
 62
     7
370
    25
100
AcDbLine
 10
9.3838461456
 20
19.8773842455
 30
0.0
 11
9.5149037622
 21
19.6503860649
 31
0.0
  0
ARC
  5
B2
330
1F
100
AcDbEntity
  8
0
  6
Continuous
 62
     7
370
    25
100
AcDbCircle
 10
9.6641349975
 20
19.7326145705
 30
0.0
 40
0.170386292593871
100
AcDbArc
 50
208.855381253
 51
238.0453039817
  0
LINE
  5
B3
330
1F
100
AcDbEntity
  8
0
  6
Continuous
 62
     7
370
    25
100
AcDbLine
 10
11.5331661685
 20
18.4570207036
 30
0.0
 11
9.5739583002
 21
19.5880474512
 31
0.0
  0
ARC
  5
B4
330
1F
100
AcDbEntity
  8
0
  6
Continuous
 62
     7
370
    25
100
AcDbCircle
 10
11.5677624906
 20
18.5053115513
 30
0.0
 40
0.0594046418391829
100
AcDbArc
 50
234.3815933311
 51
294.3139512223
  0
LINE
  5
B5
330
1F
100
AcDbEntity
  8
0
  6
Continuous
 62
     7
370
    25
100
AcDbLine
 10
11.5922215362
 20
18.4511759201
 30
0.0
 11
11.7232783232
 21
18.5268586165
 31
0.0
  0
LINE
  5
B6
330
1F
100
AcDbEntity
  8
0
  6
Continuous
 62
     7
370
    25
100
AcDbLine
 10
24.536390689
 20
11.1300052762
 30
0.0
 11
24.6674478908
 21
10.9030075745
 31
0.0
  0
ARC
  5
B7
330
1F
100
AcDbEntity
  8
0
  6
Continuous
 62
     7
370
    25
100
AcDbCircle
 10
24.8166805429
 20
10.985237467
 30
0.0
 40
0.1703882028255118
100
AcDbArc
 50
208.8555597922
 51
238.0453075469
  0
LINE
  5
B8
330
1F
100
AcDbEntity
  8
0
  6
Continuous
 62
     7
370
    25
100
AcDbLine
 10
26.753326536
 20
9.6706081595
 30
0.0
 11
24.7265028437
 21
10.8406687214
 31
0.0
  0
ARC
  5
B9
330
1F
100
AcDbEntity
  8
0
  6
Continuous
 62
     7
370
    25
100
AcDbCircle
 10
26.7879228669
 20
9.718899096
 30
0.0
 40
0.0594047191788291
100
AcDbArc
 50
234.3816363392
 51
294.3139082141
  0
LINE
  5
BA
330
1F
100
AcDbEntity
  8
0
  6
Continuous
 62
     7
370
    25
100
AcDbLine
 10
26.9434386906
 20
9.7404458628
 30
0.0
 11
26.8123819036
 21
9.664763376
 31
0.0
  0
LINE
  5
BB
330
1F
100
AcDbEntity
  8
0
  6
Continuous
 62
     7
370
    25
100
AcDbLine
 10
26.9631240897
 20
9.7290817238
 30
0.0
 11
26.8222241884
 21
9.6477157694
 31
0.0
  0
ARC
  5
BC
330
1F
100
AcDbEntity
  8
0
  6
Continuous
 62
     7
370
    25
100
AcDbCircle
 10
26.7936884945
 20
9.7108720602
 30
0.0
 40
0.0693037003471036
100
AcDbArc
 50
234.3810018238
 51
294.3147195121
  0
LINE
  5
BD
330
1F
100
AcDbEntity
  8
0
  6
Continuous
 62
     7
370
    25
100
AcDbLine
 10
26.753326536
 20
9.6545345488
 30
0.0
 11
24.7265028437
 21
10.8245950807
 31
0.0
  0
ARC
  5
BE
330
1F
100
AcDbEntity
  8
0
  6
Continuous
 62
     7
370
    25
100
AcDbCircle
 10
24.8317091497
 20
10.9932573155
 30
0.0
 40
0.1987845976674936
100
AcDbArc
 50
208.8554294502
 51
238.045355919
  0
LINE
  5
BF
330
1F
100
AcDbEntity
  8
0
  6
Continuous
 62
     7
370
    25
100
AcDbLine
 10
24.5167057048
 20
11.1413692056
 30
0.0
 11
24.6576056061
 21
10.897323628
 31
0.0
  0
LINE
  5
C0
330
1F
100
AcDbEntity
  8
0
  6
Continuous
 62
     7
370
    25
100
AcDbLine
 10
11.6020638209
 20
18.4341283135
 30
0.0
 11
11.7429637223
 21
18.5154944775
 31
0.0
  0
ARC
  5
C1
330
1F
100
AcDbEntity
  8
0
  6
Continuous
 62
     7
370
    25
100
AcDbCircle
 10
11.5735280869
 20
18.4972844462
 30
0.0
 40
0.0693035727902426
100
AcDbArc
 50
234.3809670835
 51
294.3148035652
  0
LINE
  5
C2
330
1F
100
AcDbEntity
  8
0
  6
Continuous
 62
     7
370
    25
100
AcDbLine
 10
11.5331661685
 20
18.440947063
 30
0.0
 11
9.5739583002
 21
19.5719738105
 31
0.0
  0
ARC
  5
C3
330
1F
100
AcDbEntity
  8
0
  6
Continuous
 62
     7
370
    25
100
AcDbCircle
 10
9.6791694227
 20
19.7406412853
 30
0.0
 40
0.19879159271197
100
AcDbArc
 50
208.8559640896
 51
238.0449773683
  0
LINE
  5
C4
330
1F
100
AcDbEntity
  8
0
  6
Continuous
 62
     7
370
    25
100
AcDbLine
 10
9.3641607465
 20
19.8887483845
 30
0.0
 11
9.5050606479
 21
19.6447025973
 31
0.0
  0
LINE
  5
C5
330
1F
100
AcDbEntity
  8
0
  6
Continuous
 62
     7
370
    25
100
AcDbLine
 10
29.2804855889
 20
9.8254729422
 30
0.0
 11
29.2746829302
 21
9.8288237448
 31
0.0
  0
ARC
  5
C6
330
1F
100
AcDbEntity
  8
0
  6
Continuous
 62
     7
370
    25
100
AcDbCircle
 10
29.3049445562
 20
9.8796093634
 30
0.0
 40
0.0594053296371035
100
AcDbArc
 50
245.6864312539
 51
305.6180241927
  0
LINE
  5
C7
330
1F
100
AcDbEntity
  8
0
  6
Continuous
 62
     7
370
    25
100
AcDbLine
 10
31.7443190018
 20
11.2195665415
 30
0.0
 11
29.3395409565
 21
9.8313177257
 31
0.0
  0
ARC
  5
C8
330
1F
100
AcDbEntity
  8
0
  6
Continuous
 62
     7
370
    25
100
AcDbCircle
 10
31.6541423046
 20
11.3641336608
 30
0.0
 40
0.1703862925940116
100
AcDbArc
 50
301.9546960183
 51
331.144618747
  0
LINE
  5
C9
330
1F
100
AcDbEntity
  8
0
  6
Continuous
 62
     7
370
    25
100
AcDbLine
 10
31.8033735398
 20
11.2819051552
 30
0.0
 11
31.8091761985
 21
11.291955565
 31
0.0
  0
LINE
  5
CA
330
1F
100
AcDbEntity
  8
0
  6
Continuous
 62
     7
370
    25
100
AcDbLine
 10
31.8132166542
 20
11.2762216577
 30
0.0
 11
31.8288615976
 21
11.303319704
 31
0.0
  0
ARC
  5
CB
330
1F
100
AcDbEntity
  8
0
  6
Continuous
 62
     7
370
    25
100
AcDbCircle
 10
31.639107429
 20
11.3721607723
 30
0.0
 40
0.1987921930319267
100
AcDbArc
 50
301.9550676834
 51
331.1439908588
  0
LINE
  5
CC
330
1F
100
AcDbEntity
  8
0
  6
Continuous
 62
     7
370
    25
100
AcDbLine
 10
31.7443190018
 20
11.2034928709
 30
0.0
 11
29.3395409565
 21
9.8152440551
 31
0.0
  0
ARC
  5
CD
330
1F
100
AcDbEntity
  8
0
  6
Continuous
 62
     7
370
    25
100
AcDbCircle
 10
29.2991798949
 20
9.8715809669
 30
0.0
 40
0.0693026906202595
100
AcDbArc
 50
245.6848423142
 51
305.6186840831
  0
LINE
  5
CE
330
1F
100
AcDbEntity
  8
0
  6
Continuous
 62
     7
370
    25
100
AcDbLine
 10
29.2706441338
 20
9.8084258145
 30
0.0
 11
29.2549983608
 21
9.8174600848
 31
0.0
  0
LINE
  5
CF
330
1F
100
AcDbEntity
  8
0
  6
Continuous
 62
     7
370
    25
100
AcDbLine
 10
26.8222241884
 20
9.6477157694
 30
0.0
 11
26.9631456609
 21
9.7290680039
 31
0.0
  0
LINE
  5
D0
330
1F
100
AcDbEntity
  8
0
  6
Continuous
 62
     7
370
    25
100
AcDbLine
 10
29.2549967015
 20
9.8174588849
 30
0.0
 11
29.2706441338
 21
9.8084258145
 31
0.0
  0
LINE
  5
D1
330
1F
100
AcDbEntity
  8
0
  6
Continuous
 62
     7
370
    25
100
AcDbLine
 10
11.6020638209
 20
18.4341283135
 30
0.0
 11
11.7429852935
 21
18.515480548
 31
0.0
  0
ELLIPSE
  5
D2
330
1F
100
AcDbEntity
  8
0
  6
Continuous
 62
     7
370
    25
100
AcDbEllipse
 10
27.8793999558
 20
10.5057875683
 30
0.0
 11
0.1966347519624136
 21
0.01482583492035516
 31
0.0
210
0.0
220
0.0
230
1.0
 40
0.6213144054
 41
3.880179277921829
 42
4.665577441319289
  0
ELLIPSE
  5
D3
330
1F
100
AcDbEntity
  8
0
  6
Continuous
 62
     7
370
    25
100
AcDbEllipse
 10
27.8793999558
 20
10.5057875683
 30
0.0
 11
0.1966347519624136
 21
-0.01482583492035694
 31
0.0
210
0.0
220
0.0
230
1.0
 40
0.6213144054
 41
4.759200519450185
 42
5.544598682847605
  0
LINE
  5
D4
330
1F
100
AcDbEntity
  8
0
  6
Continuous
 62
     7
370
    25
100
AcDbLine
 10
28.0185940105
 20
10.4125730285
 30
0.0
 11
28.0185940105
 21
10.3934450515
 31
0.0
  0
ARC
  5
D5
330
1F
100
AcDbEntity
  8
0
  6
Continuous
 62
     7
370
    25
100
AcDbCircle
 10
27.8793999424
 20
10.6620940922
 30
0.0
 40
0.3025678364980783
100
AcDbArc
 50
242.6099519649
 51
297.3898508863
  0
LINE
  5
D6
330
1F
100
AcDbEntity
  8
0
  6
Continuous
 62
     7
370
    25
100
AcDbLine
 10
27.7402049498
 20
10.3934455304
 30
0.0
 11
27.7402049498
 21
10.4125735074
 31
0.0
  0
ARC
  5
D7
330
1F
100
AcDbEntity
  8
0
  6
Continuous
 62
     7
370
    25
100
AcDbCircle
 10
27.8013787457
 20
10.4095584245
 30
0.0
 40
0.0612480532540365
100
AcDbArc
 50
126.1203653263
 51
177.1783367998
  0
ELLIPSE
  5
D8
330
1F
100
AcDbEntity
  8
0
  6
Continuous
 62
     7
370
    25
100
AcDbEllipse
 10
27.8766298868
 20
10.5361761767
 30
0.0
 11
0.1571893351088889
 21
0.01515227736463132
 31
0.0
210
0.0
220
0.0
230
1.0
 40
0.6315110821
 41
3.866191288175218
 42
4.669180297389093
  0
LWPOLYLINE
  5
D9
330
1F
100
AcDbEntity
  8
0
  6
Continuous
 62
     7
370
    25
100
AcDbPolyline
 90
        7
 70
   128
 43
0.0
 10
27.879399895
 20
10.3830559516
 10
27.879399895
 20
10.3836655189
 10
27.879399895
 20
10.3957368868
 10
27.879399895
 20
10.4089503537
 10
27.879399895
 20
10.4218080577
 10
27.8793990653
 20
10.4328459465
 10
27.879399895
 20
10.4363479101
  0
ELLIPSE
  5
DA
330
1F
100
AcDbEntity
  8
0
  6
Continuous
 62
     7
370
    25
100
AcDbEllipse
 10
27.8821700249
 20
10.5361761767
 30
0.0
 11
0.1571893351088924
 21
-0.01515227736463309
 31
0.0
210
0.0
220
0.0
230
1.0
 40
0.6315110821
 41
4.755597663380264
 42
5.558586672594214
  0
ARC
  5
DB
330
1F
100
AcDbEntity
  8
0
  6
Continuous
 62
     7
370
    25
100
AcDbCircle
 10
27.9574189499
 20
10.4095572631
 30
0.0
 40
0.0612493500606977
100
AcDbArc
 50
2.822242571
 51
53.8790553029
  0
LINE
  5
DC
330
1F
100
AcDbEntity
  8
0
  6
Continuous
 62
     7
370
    25
100
AcDbLine
 10
27.9935249323
 20
10.4590329229
 30
0.0
 11
42.7481156964
 21
18.9766768679
 31
0.0
  0
LINE
  5
DD
330
1F
100
AcDbEntity
  8
0
  6
Continuous
 62
     7
370
    25
100
AcDbLine
 10
27.8793990653
 20
10.891662577
 30
0.0
 11
27.879399895
 21
10.4363479101
 31
0.0
  0
LINE
  5
DE
330
1F
100
AcDbEntity
  8
0
  6
Continuous
 62
     7
370
    25
100
AcDbLine
 10
27.8793990653
 20
10.891662577
 30
0.0
 11
42.4669570153
 21
19.3128805308
 31
0.0
  0
LINE
  5
DF
330
1F
100
AcDbEntity
  8
0
  6
Continuous
 62
     7
370
    25
100
AcDbLine
 10
42.748115489
 20
19.1181041039
 30
0.0
 11
42.4669570153
 21
19.3128805308
 31
0.0
  0
ELLIPSE
  5
E0
330
1F
100
AcDbEntity
  8
0
  6
Continuous
 62
     7
370
    25
100
AcDbEllipse
 10
42.636760341
 20
19.053819863
 30
0.0
 11
0.1571893351088818
 21
-0.01515227736463132
 31
0.0
210
0.0
220
0.0
230
1.0
 40
0.6315110821
 41
5.558586672594212
 42
7.129382999389103
  0
LINE
  5
E1
330
1F
100
AcDbEntity
  8
0
  6
Continuous
 62
     7
370
    25
100
AcDbLine
 10
2.5989535501
 20
24.9872409722
 30
0.0
 11
27.7652740281
 21
10.4590334019
 31
0.0
  0
ELLIPSE
  5
E2
330
1F
100
AcDbEntity
  8
0
  6
Continuous
 62
     7
370
    25
100
AcDbEllipse
 10
2.7103098004
 20
25.0643835209
 30
0.0
 11
0.1571893351088898
 21
0.01515227736463132
 31
0.0
210
0.0
220
0.0
230
1.0
 40
0.6315110821
 41
3.063202278961482
 42
3.866191288175193
  0
LINE
  5
E3
330
1F
100
AcDbEntity
  8
0
  6
Continuous
 62
     7
370
    25
100
AcDbLine
 10
2.5528541901
 20
25.0570515351
 30
0.0
 11
3.2698567088
 21
25.0984489794
 31
0.0
  0
LINE
  5
E4
330
1F
100
AcDbEntity
  8
0
  6
Continuous
 62
     7
370
    25
100
AcDbLine
 10
3.2698567088
 20
25.0984489794
 30
0.0
 11
27.8793990653
 21
10.891662577
 31
0.0
  0
LINE
  5
E5
330
1F
100
AcDbEntity
  8
0
  6
Continuous
 62
     7
370
    25
100
AcDbLine
 10
27.7402049498
 20
10.4125735074
 30
0.0
 11
2.5738844719
 21
24.9407810777
 31
0.0
  0
ARC
  5
E6
330
1F
100
AcDbEntity
  8
0
  6
Continuous
 62
     7
370
    25
100
AcDbCircle
 10
2.6350582678
 20
24.9377659948
 30
0.0
 40
0.061248053254057
100
AcDbArc
 50
126.1203653263
 51
177.1783367998
  0
LINE
  5
E7
330
1F
100
AcDbEntity
  8
0
  6
Continuous
 62
     7
370
    25
100
AcDbLine
 10
42.7731847746
 20
18.9302169734
 30
0.0
 11
28.0185940105
 21
10.4125730285
 31
0.0
  0
ARC
  5
E8
330
1F
100
AcDbEntity
  8
0
  6
Continuous
 62
     7
370
    25
100
AcDbCircle
 10
42.712009714
 20
18.927201208
 30
0.0
 40
0.0612493500606956
100
AcDbArc
 50
2.822242571
 51
53.8790553029
  0
LINE
  5
E9
330
1F
100
AcDbEntity
  8
0
  6
Continuous
 62
     7
370
    25
100
AcDbLine
 10
2.5738844719
 20
24.9216531007
 30
0.0
 11
27.7402049498
 21
10.3934455304
 31
0.0
  0
LINE
  5
EA
330
1F
100
AcDbEntity
  8
0
  6
Continuous
 62
     7
370
    25
100
AcDbLine
 10
2.5738844719
 20
24.9407810777
 30
0.0
 11
2.5738844719
 21
24.9216531007
 31
0.0
  0
LINE
  5
EB
330
1F
100
AcDbEntity
  8
0
  6
Continuous
 62
     7
370
    25
100
AcDbLine
 10
42.7731847746
 20
18.9110889965
 30
0.0
 11
42.7731847746
 21
18.9302169734
 31
0.0
  0
LINE
  5
EC
330
1F
100
AcDbEntity
  8
0
  6
Continuous
 62
     7
370
    25
100
AcDbLine
 10
28.0185940105
 20
10.3934450515
 30
0.0
 11
42.7731847746
 21
18.9110889965
 31
0.0
  0
LINE
  5
ED
330
1F
100
AcDbEntity
  8
0
  6
Continuous
 62
     7
370
    25
100
AcDbLine
 10
17.8574146588
 20
33.5196669333
 30
0.0
 11
3.2698567088
 21
25.0984489794
 31
0.0
  0
LINE
  5
EE
330
1F
100
AcDbEntity
  8
0
  6
Continuous
 62
     7
370
    25
100
AcDbLine
 10
42.4669570153
 20
19.3128805308
 30
0.0
 11
17.8574146588
 21
33.5196669333
 31
0.0
  0
ELLIPSE
  5
EF
330
1F
100
AcDbEntity
  8
0
  6
Continuous
 62
     7
370
    25
100
AcDbEllipse
 10
42.4655686941
 20
19.2815347811
 30
0.0
 11
0.0210819557267925
 21
0.03327750099637328
 31
0.0
210
0.0
220
0.0
230
1.0
 40
0.5479392735
 41
6.260628362483969
 42
7.091059151210017
  0
ELLIPSE
  5
F0
330
1F
100
AcDbEntity
  8
0
  6
Continuous
 62
     7
370
    25
100
AcDbEllipse
 10
17.8588025607
 20
33.4867185041
 30
0.0
 11
0.01812549154993803
 21
0.03497856744360206
 31
0.0
210
0.0
220
0.0
230
1.0
 40
0.6053810713
 41
6.255652943562904
 42
7.040969842898916
  0
LINE
  5
F1
330
1F
100
AcDbEntity
  8
0
  6
Continuous
 62
     7
370
    25
100
AcDbLine
 10
17.8574146588
 20
33.5196669333
 30
0.0
 11
17.5762553554
 21
33.6495096493
 31
0.0
  0
ELLIPSE
  5
F2
330
1F
100
AcDbEntity
  8
0
  6
Continuous
 62
     7
370
    25
100
AcDbEllipse
 10
2.7103098004
 20
25.0675817746
 30
0.0
 11
0.1573491856746263
 21
0.01242326839128438
 31
0.0
210
0.0
220
0.0
230
1.0
 40
0.5171918716
 41
2.315383056779606
 42
3.118372065993793
  0
LINE
  5
F3
330
1F
100
AcDbEntity
  8
0
  6
Continuous
 62
     7
370
    25
100
AcDbLine
 10
17.3535443143
 20
33.6366508805
 30
0.0
 11
2.5989535501
 21
25.1190069355
 31
0.0
  0
ELLIPSE
  5
F4
330
1F
100
AcDbEntity
  8
0
  6
Continuous
 62
     7
370
    25
100
AcDbEllipse
 10
17.4649001165
 20
33.5852254609
 30
0.0
 11
0.1573491856746294
 21
0.01242326839128793
 31
0.0
210
0.0
220
0.0
230
1.0
 40
0.5171918716
 41
0.7445867299846699
 42
2.315383056779589
  0
ELLIPSE
  5
F5
330
1F
100
AcDbEntity
  8
0
  6
Continuous
 62
     7
370
    25
100
AcDbEllipse
 10
2.7130798695
 20
25.0339949125
 30
0.0
 11
0.196634751962411
 21
0.01482583492035872
 31
0.0
210
0.0
220
0.0
230
1.0
 40
0.6213144054
 41
3.09478111452429
 42
3.880179277921805
  0
ARC
  5
F6
330
1F
100
AcDbEntity
  8
0
  6
Continuous
 62
     7
370
    25
100
AcDbCircle
 10
2.5510146879
 20
25.022210973
 30
0.0
 40
0.0348890890846636
100
AcDbArc
 50
86.9777197877
 51
175.5754790189
  0
ARC
  5
F7
330
1F
100
AcDbEntity
  8
0
  6
Continuous
 62
     7
370
    25
100
AcDbCircle
 10
28.063137801
 20
9.5050741211
 30
0.0
 40
0.0605150884579528
100
AcDbArc
 50
242.6103038902
 51
297.3887103657
  0
LWPOLYLINE
  5
F8
330
1F
100
AcDbEntity
  8
0
  6
Continuous
 62
     7
370
    25
100
AcDbPolyline
 90
        9
 70
   128
 43
0.0
 10
4.7797708754
 20
23.6349053235
 10
4.7764074241
 20
23.621996779
 10
4.7658458221
 20
23.6098425132
 10
4.7500407539
 20
23.6067714546
 10
4.7313982404
 20
23.6132511844
 10
4.7127540676
 20
23.6282966005
 10
4.6969489994
 20
23.6496158023
 10
4.6863873974
 20
23.6739642343
 10
4.6830239461
 20
23.6907561369
  0
LWPOLYLINE
  5
F9
330
1F
100
AcDbEntity
  8
0
  6
Continuous
 62
     7
370
    25
100
AcDbPolyline
 90
       17
 70
   128
 43
0.0
 10
4.7313982404
 20
23.1792629464
 10
4.7500407539
 20
23.1642184883
 10
4.7658458221
 20
23.1428992864
 10
4.7764074241
 20
23.1185508844
 10
4.7801160149
 20
23.0948810465
 10
4.7764074241
 20
23.0754930563
 10
4.7658458221
 20
23.0633388204
 10
4.7500407539
 20
23.0602677619
 10
4.7313982404
 20
23.0667474917
 10
4.7127540676
 20
23.0817929077
 10
4.6969489994
 20
23.1031121096
 10
4.6863873974
 20
23.1274605116
 10
4.6826788066
 20
23.1511303495
 10
4.6863873974
 20
23.1705183397
 10
4.6969489994
 20
23.1826725756
 10
4.7127540676
 20
23.1857436341
 10
4.7313982404
 20
23.1792629464
  0
LWPOLYLINE
  5
FA
330
1F
100
AcDbEntity
  8
0
  6
Continuous
 62
     7
370
    25
100
AcDbPolyline
 90
       11
 70
   128
 43
0.0
 10
27.7613397691
 20
10.368865881
 10
27.7647944832
 20
10.3510834091
 10
27.7753552555
 20
10.3267354561
 10
27.7911603237
 20
10.3054162543
 10
27.8098036669
 20
10.2903713172
 10
27.8284470101
 20
10.2838911084
 10
27.8442529079
 20
10.286961688
 10
27.8548136803
 20
10.2991164328
 10
27.8585214414
 20
10.318504872
 10
27.8548136803
 20
10.342174201
 10
27.8538778211
 20
10.345155966
  0
LINE
  5
FB
330
1F
100
AcDbEntity
  8
0
  6
Continuous
 62
     7
370
    25
100
AcDbLine
 10
27.9907563489
 20
9.1491592256
 30
0.0
 11
27.9907563489
 21
10.3663230312
 31
0.0
  0
LINE
  5
FC
330
1F
100
AcDbEntity
  8
0
  6
Continuous
 62
     7
370
    25
100
AcDbLine
 10
4.5504455584
 20
22.6809644088
 30
0.0
 11
27.9907563489
 21
9.1491592256
 31
0.0
  0
LINE
  5
FD
330
1F
100
AcDbEntity
  8
0
  6
Continuous
 62
     7
370
    25
100
AcDbLine
 10
4.5504455584
 20
22.6809644088
 30
0.0
 11
4.5504455584
 21
23.7672920111
 31
0.0
  0
LWPOLYLINE
  5
FE
330
1F
100
AcDbEntity
  8
0
  6
Continuous
 62
     7
370
    25
100
AcDbPolyline
 90
       17
 70
   128
 43
0.0
 10
27.8098036669
 20
9.8563830792
 10
27.7911603237
 20
9.8628632879
 10
27.7753552555
 20
9.8597922294
 10
27.7647944832
 20
9.8476375145
 10
27.7610858924
 20
9.8282495244
 10
27.7647944832
 20
9.8045796865
 10
27.7753552555
 20
9.7802317634
 10
27.7911603237
 20
9.7589125615
 10
27.8098036669
 20
9.7438676244
 10
27.8284470101
 20
9.7373874157
 10
27.8442529079
 20
9.7404579953
 10
27.8548136803
 20
9.7526127101
 10
27.8585214414
 20
9.7720011792
 10
27.8548136803
 20
9.7956705382
 10
27.8442529079
 20
9.8200184613
 10
27.8284470101
 20
9.8413381421
 10
27.8098036669
 20
9.8563830792
  0
LINE
  5
FF
330
1F
100
AcDbEntity
  8
0
  6
Continuous
 62
     7
370
    25
100
AcDbLine
 10
26.4317805128
 20
10.4124004066
 30
0.0
 11
27.0163967106
 21
10.0749086294
 31
0.0
  0
LINE
  5
100
330
1F
100
AcDbEntity
  8
0
  6
Continuous
 62
     7
370
    25
100
AcDbLine
 10
26.4317805128
 20
10.2195167547
 30
0.0
 11
26.4317805128
 21
10.4124004066
 31
0.0
  0
LINE
  5
101
330
1F
100
AcDbEntity
  8
0
  6
Continuous
 62
     7
370
    25
100
AcDbLine
 10
27.0163967106
 20
9.88202497
 30
0.0
 11
26.4317805128
 21
10.2195167547
 31
0.0
  0
LINE
  5
102
330
1F
100
AcDbEntity
  8
0
  6
Continuous
 62
     7
370
    25
100
AcDbLine
 10
27.0163967106
 20
10.0749086294
 30
0.0
 11
27.0163967106
 21
9.88202497
 31
0.0
  0
LINE
  5
103
330
1F
100
AcDbEntity
  8
0
  6
Continuous
 62
     7
370
    25
100
AcDbLine
 10
21.5878208126
 20
13.0158754786
 30
0.0
 11
21.0032049259
 21
13.3533670837
 31
0.0
  0
LINE
  5
104
330
1F
100
AcDbEntity
  8
0
  6
Continuous
 62
     7
370
    25
100
AcDbLine
 10
21.5878208126
 20
13.2087591338
 30
0.0
 11
21.5878208126
 21
13.0158754786
 31
0.0
  0
LINE
  5
105
330
1F
100
AcDbEntity
  8
0
  6
Continuous
 62
     7
370
    25
100
AcDbLine
 10
21.0032049259
 20
13.5462507464
 30
0.0
 11
21.5878208126
 21
13.2087591338
 31
0.0
  0
LINE
  5
106
330
1F
100
AcDbEntity
  8
0
  6
Continuous
 62
     7
370
    25
100
AcDbLine
 10
21.0032049259
 20
13.3533670837
 30
0.0
 11
21.0032049259
 21
13.5462507464
 31
0.0
  0
LINE
  5
107
330
1F
100
AcDbEntity
  8
0
  6
Continuous
 62
     7
370
    25
100
AcDbLine
 10
16.159245122
 20
16.1497258669
 30
0.0
 11
15.5746291316
 21
16.4872175324
 31
0.0
  0
LINE
  5
108
330
1F
100
AcDbEntity
  8
0
  6
Continuous
 62
     7
370
    25
100
AcDbLine
 10
16.159245122
 20
16.3426095184
 30
0.0
 11
16.159245122
 21
16.1497258669
 31
0.0
  0
LINE
  5
109
330
1F
100
AcDbEntity
  8
0
  6
Continuous
 62
     7
370
    25
100
AcDbLine
 10
15.5746291316
 20
16.6801011909
 30
0.0
 11
16.159245122
 21
16.3426095184
 31
0.0
  0
LINE
  5
10A
330
1F
100
AcDbEntity
  8
0
  6
Continuous
 62
     7
370
    25
100
AcDbLine
 10
15.5746291316
 20
16.4872175324
 30
0.0
 11
15.5746291316
 21
16.6801011909
 31
0.0
  0
LINE
  5
10B
330
1F
100
AcDbEntity
  8
0
  6
Continuous
 62
     7
370
    25
100
AcDbLine
 10
14.210525638
 20
17.2746977921
 30
0.0
 11
13.625909855
 21
17.6121893373
 31
0.0
  0
LINE
  5
10C
330
1F
100
AcDbEntity
  8
0
  6
Continuous
 62
     7
370
    25
100
AcDbLine
 10
14.210525638
 20
17.4675814506
 30
0.0
 11
14.210525638
 21
17.2746977921
 31
0.0
  0
LINE
  5
10D
330
1F
100
AcDbEntity
  8
0
  6
Continuous
 62
     7
370
    25
100
AcDbLine
 10
13.625909855
 20
17.8050729883
 30
0.0
 11
14.210525638
 21
17.4675814506
 31
0.0
  0
LINE
  5
10E
330
1F
100
AcDbEntity
  8
0
  6
Continuous
 62
     7
370
    25
100
AcDbLine
 10
13.625909855
 20
17.6121893373
 30
0.0
 11
13.625909855
 21
17.8050729883
 31
0.0
  0
LINE
  5
10F
330
1F
100
AcDbEntity
  8
0
  6
Continuous
 62
     7
370
    25
100
AcDbLine
 10
10.1321344027
 20
19.6291031992
 30
0.0
 11
9.5475186198
 21
19.9665947445
 31
0.0
  0
LINE
  5
110
330
1F
100
AcDbEntity
  8
0
  6
Continuous
 62
     7
370
    25
100
AcDbLine
 10
10.1321344027
 20
19.8219868502
 30
0.0
 11
10.1321344027
 21
19.6291031992
 31
0.0
  0
LINE
  5
111
330
1F
100
AcDbEntity
  8
0
  6
Continuous
 62
     7
370
    25
100
AcDbLine
 10
9.5475186198
 20
20.159478403
 30
0.0
 11
10.1321344027
 21
19.8219868502
 31
0.0
  0
LINE
  5
112
330
1F
100
AcDbEntity
  8
0
  6
Continuous
 62
     7
370
    25
100
AcDbLine
 10
9.5475186198
 20
19.9665947445
 30
0.0
 11
9.5475186198
 21
20.159478403
 31
0.0
  0
LINE
  5
113
330
1F
100
AcDbEntity
  8
0
  6
Continuous
 62
     7
370
    25
100
AcDbLine
 10
6.0537423378
 20
21.9835090849
 30
0.0
 11
5.4691273845
 21
22.3210001516
 31
0.0
  0
LINE
  5
114
330
1F
100
AcDbEntity
  8
0
  6
Continuous
 62
     7
370
    25
100
AcDbLine
 10
6.0537423378
 20
22.1763927438
 30
0.0
 11
6.0537423378
 21
21.9835090849
 31
0.0
  0
LINE
  5
115
330
1F
100
AcDbEntity
  8
0
  6
Continuous
 62
     7
370
    25
100
AcDbLine
 10
5.4691273845
 20
22.5138838026
 30
0.0
 11
6.0537423378
 21
22.1763927438
 31
0.0
  0
LINE
  5
116
330
1F
100
AcDbEntity
  8
0
  6
Continuous
 62
     7
370
    25
100
AcDbLine
 10
5.4691273845
 20
22.3210001516
 30
0.0
 11
5.4691273845
 21
22.5138838026
 31
0.0
  0
LINE
  5
117
330
1F
100
AcDbEntity
  8
0
  6
Continuous
 62
     7
370
    25
100
AcDbLine
 10
9.8465081972
 20
20.4553755936
 30
0.0
 11
9.908757765
 21
20.419439683
 31
0.0
  0
LINE
  5
118
330
1F
100
AcDbEntity
  8
0
  6
Continuous
 62
     7
370
    25
100
AcDbLine
 10
9.8465081972
 20
20.3976041858
 30
0.0
 11
9.8465081972
 21
20.4553755936
 31
0.0
  0
LWPOLYLINE
  5
119
330
1F
100
AcDbEntity
  8
0
  6
Continuous
 62
     7
370
    25
100
AcDbPolyline
 90
        6
 70
   128
 43
0.0
 10
12.5056740004
 20
18.8625004432
 10
12.4977681477
 20
18.7931118936
 10
12.4744479977
 20
18.7448649815
 10
12.436469373
 20
18.7180057606
 10
12.3870804016
 20
18.7148990665
 10
12.3314034191
 20
18.736056207
  0
LINE
  5
11A
330
1F
100
AcDbEntity
  8
0
  6
Continuous
 62
     7
370
    25
100
AcDbLine
 10
12.5056740004
 20
18.920271851
 30
0.0
 11
12.5056740004
 21
18.8625004432
 31
0.0
  0
LINE
  5
11B
330
1F
100
AcDbEntity
  8
0
  6
Continuous
 62
     7
370
    25
100
AcDbLine
 10
12.4434244326
 20
18.9562077615
 30
0.0
 11
12.5056740004
 21
18.920271851
 31
0.0
  0
LINE
  5
11C
330
1F
100
AcDbEntity
  8
0
  6
Continuous
 62
     7
370
    25
100
AcDbLine
 10
12.4434244326
 20
18.9562077615
 30
0.0
 11
9.908757765
 21
20.419439683
 31
0.0
  0
LINE
  5
11D
330
1F
100
AcDbEntity
  8
0
  6
Continuous
 62
     7
370
    25
100
AcDbLine
 10
12.9087812276
 20
18.6875630021
 30
0.0
 11
12.9710307954
 21
18.6516270915
 31
0.0
  0
LINE
  5
11E
330
1F
100
AcDbEntity
  8
0
  6
Continuous
 62
     7
370
    25
100
AcDbLine
 10
12.9087812276
 20
18.6297915943
 30
0.0
 11
12.9087812276
 21
18.6875630021
 31
0.0
  0
LWPOLYLINE
  5
11F
330
1F
100
AcDbEntity
  8
0
  6
Continuous
 62
     7
370
    25
100
AcDbPolyline
 90
        6
 70
   128
 43
0.0
 10
15.5679478605
 20
17.0946873727
 10
15.5600411781
 20
17.0252993021
 10
15.536721443
 20
16.9770521505
 10
15.498743233
 20
16.9501926902
 10
15.449353432
 20
16.9470864749
 10
15.3936768644
 20
16.9682433761
  0
LINE
  5
120
330
1F
100
AcDbEntity
  8
0
  6
Continuous
 62
     7
370
    25
100
AcDbLine
 10
15.5679478605
 20
17.1524587805
 30
0.0
 11
15.5679478605
 21
17.0946873727
 31
0.0
  0
LINE
  5
121
330
1F
100
AcDbEntity
  8
0
  6
Continuous
 62
     7
370
    25
100
AcDbLine
 10
15.5056982927
 20
17.1883946911
 30
0.0
 11
15.5679478605
 21
17.1524587805
 31
0.0
  0
LINE
  5
122
330
1F
100
AcDbEntity
  8
0
  6
Continuous
 62
     7
370
    25
100
AcDbLine
 10
15.5056982927
 20
17.1883946911
 30
0.0
 11
12.9710307954
 21
18.6516270915
 31
0.0
  0
LINE
  5
123
330
1F
100
AcDbEntity
  8
0
  6
Continuous
 62
     7
370
    25
100
AcDbLine
 10
16.5278317571
 20
16.5983296019
 30
0.0
 11
16.5900813249
 21
16.5623936914
 31
0.0
  0
LINE
  5
124
330
1F
100
AcDbEntity
  8
0
  6
Continuous
 62
     7
370
    25
100
AcDbLine
 10
16.5278317571
 20
16.5405581942
 30
0.0
 11
16.5278317571
 21
16.5983296019
 31
0.0
  0
LWPOLYLINE
  5
125
330
1F
100
AcDbEntity
  8
0
  6
Continuous
 62
     7
370
    25
100
AcDbPolyline
 90
        6
 70
   128
 43
0.0
 10
19.1869982604
 20
15.0054540474
 10
19.1790916558
 20
14.9360659319
 10
19.1557717651
 20
14.8878188701
 10
19.1177935292
 20
14.8609594248
 10
19.0684039616
 20
14.8578530748
 10
19.0127272902
 20
14.8790100358
  0
LINE
  5
126
330
1F
100
AcDbEntity
  8
0
  6
Continuous
 62
     7
370
    25
100
AcDbLine
 10
19.1869982604
 20
15.0632254552
 30
0.0
 11
19.1869982604
 21
15.0054540474
 31
0.0
  0
LINE
  5
127
330
1F
100
AcDbEntity
  8
0
  6
Continuous
 62
     7
370
    25
100
AcDbLine
 10
19.1247486926
 20
15.0991613658
 30
0.0
 11
19.1869982604
 21
15.0632254552
 31
0.0
  0
LINE
  5
128
330
1F
100
AcDbEntity
  8
0
  6
Continuous
 62
     7
370
    25
100
AcDbLine
 10
19.1247486926
 20
15.0991613658
 30
0.0
 11
16.5900813249
 21
16.5623936914
 31
0.0
  0
ARC
  5
129
330
1F
100
AcDbEntity
  8
0
  6
Continuous
 62
     7
370
    25
100
AcDbCircle
 10
26.4490874925
 20
10.9387672349
 30
0.0
 40
0.2420173688020913
100
AcDbArc
 50
182.605590046
 51
237.3944794211
  0
LINE
  5
12A
330
1F
100
AcDbEntity
  8
0
  6
Continuous
 62
     7
370
    25
100
AcDbLine
 10
27.0437880139
 20
10.3162934085
 30
0.0
 11
26.3186759603
 21
10.7348916869
 31
0.0
  0
ARC
  5
12B
330
1F
100
AcDbEntity
  8
0
  6
Continuous
 62
     7
370
    25
100
AcDbCircle
 10
27.0872578424
 20
10.3695861949
 30
0.0
 40
0.0687731566390082
100
AcDbArc
 50
230.7965830959
 51
9.213960717
  0
LINE
  5
12C
330
1F
100
AcDbEntity
  8
0
  6
Continuous
 62
     7
370
    25
100
AcDbLine
 10
22.6523786476
 20
13.06270394
 30
0.0
 11
22.7146282154
 21
13.0267680294
 31
0.0
  0
LINE
  5
12D
330
1F
100
AcDbEntity
  8
0
  6
Continuous
 62
     7
370
    25
100
AcDbLine
 10
22.6523786476
 20
13.0049325322
 30
0.0
 11
22.6523786476
 21
13.06270394
 31
0.0
  0
LWPOLYLINE
  5
12E
330
1F
100
AcDbEntity
  8
0
  6
Continuous
 62
     7
370
    25
100
AcDbPolyline
 90
        6
 70
   128
 43
0.0
 10
25.3115450731
 20
11.4698284304
 10
25.3036383907
 20
11.4004403597
 10
25.2803186556
 20
11.3521932081
 10
25.2423404457
 20
11.3253337478
 10
25.1929510595
 20
11.3222272931
 10
25.137274077
 20
11.3433844337
  0
LINE
  5
12F
330
1F
100
AcDbEntity
  8
0
  6
Continuous
 62
     7
370
    25
100
AcDbLine
 10
25.3115450731
 20
11.5275998381
 30
0.0
 11
25.3115450731
 21
11.4698284304
 31
0.0
  0
LINE
  5
130
330
1F
100
AcDbEntity
  8
0
  6
Continuous
 62
     7
370
    25
100
AcDbLine
 10
25.2492955053
 20
11.5635357487
 30
0.0
 11
25.3115450731
 21
11.5275998381
 31
0.0
  0
LINE
  5
131
330
1F
100
AcDbEntity
  8
0
  6
Continuous
 62
     7
370
    25
100
AcDbLine
 10
25.2492955053
 20
11.5635357487
 30
0.0
 11
22.7146282154
 21
13.0267680294
 31
0.0
  0
ARC
  5
132
330
1F
100
AcDbEntity
  8
0
  6
Continuous
 62
     7
370
    25
100
AcDbCircle
 10
27.8834556217
 20
9.8426433104
 30
0.0
 40
0.0913626668714597
100
AcDbArc
 50
167.5009613362
 51
252.4936746426
  0
LINE
  5
133
330
1F
100
AcDbEntity
  8
0
  6
Continuous
 62
     7
370
    25
100
AcDbLine
 10
28.0352984327
 20
9.4513428871
 30
0.0
 11
28.0185948402
 21
9.4609856659
 31
0.0
  0
ARC
  5
134
330
1F
100
AcDbEntity
  8
0
  6
Continuous
 62
     7
370
    25
100
AcDbCircle
 10
27.88491113
 20
10.3876963244
 30
0.0
 40
0.0904353884378586
100
AcDbArc
 50
201.6290340937
 51
251.3376855805
  0
LINE
  5
135
330
1F
100
AcDbEntity
  8
0
  6
Continuous
 62
     7
370
    25
100
AcDbLine
 10
28.0993276263
 20
9.1636226154
 30
0.0
 11
34.6136183721
 21
12.9242426458
 31
0.0
  0
LINE
  5
136
330
1F
100
AcDbEntity
  8
0
  6
Continuous
 62
     7
370
    25
100
AcDbLine
 10
28.0993276263
 20
9.1636226154
 30
0.0
 11
28.0993276263
 21
9.4561635581
 31
0.0
  0
LINE
  5
137
330
1F
100
AcDbEntity
  8
0
  6
Continuous
 62
     7
370
    25
100
AcDbLine
 10
28.0909762449
 20
9.4513424082
 30
0.0
 11
28.0993276263
 21
9.4561635581
 31
0.0
  0
LINE
  5
138
330
1F
100
AcDbEntity
  8
0
  6
Continuous
 62
     7
370
    25
100
AcDbLine
 10
41.058312475
 20
16.9372262723
 30
0.0
 11
41.0499606787
 21
16.9324048829
 31
0.0
  0
LINE
  5
139
330
1F
100
AcDbEntity
  8
0
  6
Continuous
 62
     7
370
    25
100
AcDbLine
 10
41.0499606787
 20
16.9324048829
 30
0.0
 11
41.0499606787
 21
16.6398640001
 31
0.0
  0
LINE
  5
13A
330
1F
100
AcDbEntity
  8
0
  6
Continuous
 62
     7
370
    25
100
AcDbLine
 10
34.8363296207
 20
13.0528111129
 30
0.0
 11
41.0499606787
 21
16.6398640001
 31
0.0
  0
LINE
  5
13B
330
1F
100
AcDbEntity
  8
0
  6
Continuous
 62
     7
370
    25
100
AcDbLine
 10
34.8363296207
 20
13.0528111129
 30
0.0
 11
34.8363296207
 21
13.1106762089
 31
0.0
  0
LINE
  5
13C
330
1F
100
AcDbEntity
  8
0
  6
Continuous
 62
     7
370
    25
100
AcDbLine
 10
34.6136183721
 20
12.9821077417
 30
0.0
 11
34.8363296207
 21
13.1106762089
 31
0.0
  0
LINE
  5
13D
330
1F
100
AcDbEntity
  8
0
  6
Continuous
 62
     7
370
    25
100
AcDbLine
 10
34.6136183721
 20
12.9821077417
 30
0.0
 11
34.6136183721
 21
12.9242426458
 31
0.0
  0
LINE
  5
13E
330
1F
100
AcDbEntity
  8
0
  6
Continuous
 62
     7
370
    25
100
AcDbLine
 10
28.0575690598
 20
9.1877300562
 30
0.0
 11
28.0185948402
 21
9.1652307182
 31
0.0
  0
LINE
  5
13F
330
1F
100
AcDbEntity
  8
0
  6
Continuous
 62
     7
370
    25
100
AcDbLine
 10
28.0575690598
 20
9.1877300562
 30
0.0
 11
28.0575690598
 21
9.1555821761
 31
0.0
  0
LINE
  5
140
330
1F
100
AcDbEntity
  8
0
  6
Continuous
 62
     7
370
    25
100
AcDbLine
 10
28.0575690598
 20
9.1555821761
 30
0.0
 11
28.0185948402
 21
9.1330827632
 31
0.0
  0
ARC
  5
141
330
1F
100
AcDbEntity
  8
0
  6
Continuous
 62
     7
370
    25
100
AcDbCircle
 10
28.0077277434
 20
9.1464061881
 30
0.0
 40
0.0171932383439328
100
AcDbArc
 50
170.7859489093
 51
309.202005466
  0
LINE
  5
142
330
1F
100
AcDbEntity
  8
0
  6
Continuous
 62
     7
370
    25
100
AcDbLine
 10
28.0185948402
 20
9.1652307182
 30
0.0
 11
28.0185948402
 21
10.3801283892
 31
0.0
  0
ARC
  5
143
330
1F
100
AcDbEntity
  8
0
  6
Continuous
 62
     7
370
    25
100
AcDbCircle
 10
27.8811687269
 20
10.3858955415
 30
0.0
 40
0.0896468179319251
100
AcDbArc
 50
199.6731518658
 51
253.1825636378
  0
LWPOLYLINE
  5
144
330
1F
100
AcDbEntity
  8
0
  6
Continuous
 62
     7
370
    25
100
AcDbPolyline
 90
        3
 70
   128
 43
0.0
 10
27.8572653326
 20
10.3319230186
 10
27.8496216531
 20
10.3391652614
 10
27.8437426656
 20
10.3459231889
  0
ARC
  5
145
330
1F
100
AcDbEntity
  8
0
  6
Continuous
 62
     7
370
    25
100
AcDbCircle
 10
27.8792803304
 20
9.8402336183
 30
0.0
 40
0.0899296537420205
100
AcDbArc
 50
165.5050469443
 51
254.4895231367
  0
ARC
  5
146
330
1F
100
AcDbEntity
  8
0
  6
Continuous
 62
     7
370
    25
100
AcDbCircle
 10
27.9301928846
 20
9.8696245658
 30
0.0
 40
0.1113954453272093
100
AcDbArc
 50
190.8895885392
 51
229.1051663483
  0
LINE
  5
147
330
1F
100
AcDbEntity
  8
0
  6
Continuous
 62
     7
370
    25
100
AcDbLine
 10
28.0575690598
 20
9.1877300562
 30
0.0
 11
28.0714883054
 21
9.1796946468
 31
0.0
  0
ARC
  5
148
330
1F
100
AcDbEntity
  8
0
  6
Continuous
 62
     7
370
    25
100
AcDbCircle
 10
28.0823557785
 20
9.1608702115
 30
0.0
 40
0.0171935844143504
100
AcDbArc
 50
230.7973169357
 51
9.2117250873
  0
LINE
  5
149
330
1F
100
AcDbEntity
  8
0
  6
Continuous
 62
     7
370
    25
100
AcDbLine
 10
28.0575690598
 20
9.1555821761
 30
0.0
 11
28.0714883054
 21
9.1475466469
 31
0.0
  0
LINE
  5
14A
330
1F
100
AcDbEntity
  8
0
  6
Continuous
 62
     7
370
    25
100
AcDbLine
 10
28.0714883054
 20
9.1796946468
 30
0.0
 11
28.0714883054
 21
9.4452029525
 31
0.0
  0
ARC
  5
14B
330
1F
100
AcDbEntity
  8
0
  6
Continuous
 62
     7
370
    25
100
AcDbCircle
 10
4.5694434713
 20
22.6787024029
 30
0.0
 40
0.0191321030168883
100
AcDbArc
 50
173.2099856492
 51
235.478959876
  0
LWPOLYLINE
  5
14C
330
1F
100
AcDbEntity
  8
0
  6
Continuous
 62
     7
370
    25
100
AcDbPolyline
 90
        3
 70
   128
 43
0.0
 10
23.074415244
 20
12.7715691328
 10
23.1007725805
 20
12.792880306
 10
23.1064443599
 20
12.8005779333
  0
LWPOLYLINE
  5
14D
330
1F
100
AcDbEntity
  8
0
  6
Continuous
 62
     7
370
    25
100
AcDbPolyline
 90
        6
 70
   128
 43
0.0
 10
22.9297936847
 20
12.9025561974
 10
22.8969096017
 20
12.8925573164
 10
22.8648348544
 20
12.874040959
 10
22.8449121719
 20
12.8505152227
 10
22.8393015801
 20
12.8245302977
 10
22.8447101491
 20
12.8055163071
  0
ARC
  5
14E
330
1F
100
AcDbEntity
  8
0
  6
Continuous
 62
     7
370
    25
100
AcDbCircle
 10
22.9765640288
 20
12.9632773046
 30
0.0
 40
0.215236807851043
100
AcDbArc
 50
259.7726928963
 51
297.0405640149
  0
LWPOLYLINE
  5
14F
330
1F
100
AcDbEntity
  8
0
  6
Continuous
 62
     7
370
    25
100
AcDbPolyline
 90
        3
 70
   128
 43
0.0
 10
11.4969663399
 20
19.459143904
 10
11.5233255431
 20
19.4804559154
 10
11.5270357933
 20
19.485228212
  0
LWPOLYLINE
  5
150
330
1F
100
AcDbEntity
  8
0
  6
Continuous
 62
     7
370
    25
100
AcDbPolyline
 90
        6
 70
   128
 43
0.0
 10
11.3472794844
 20
19.5889993203
 10
11.319460905
 20
19.5801319679
 10
11.2873861577
 20
19.5616156104
 10
11.2674651345
 20
19.5380908321
 10
11.2618524685
 20
19.5121051886
 10
11.2708277561
 20
19.4869763937
  0
ARC
  5
151
330
1F
100
AcDbEntity
  8
0
  6
Continuous
 62
     7
370
    25
100
AcDbCircle
 10
11.3988453214
 20
19.6515543209
 30
0.0
 40
0.2159849596189412
100
AcDbArc
 50
257.0129713364
 51
297.0196215626
  0
LWPOLYLINE
  5
152
330
1F
100
AcDbEntity
  8
0
  6
Continuous
 62
     7
370
    25
100
AcDbPolyline
 90
        3
 70
   128
 43
0.0
 10
10.9401898778
 20
19.780564114
 10
10.9665482514
 20
19.8018766043
 10
10.9702585015
 20
19.8066489009
  0
LWPOLYLINE
  5
153
330
1F
100
AcDbEntity
  8
0
  6
Continuous
 62
     7
370
    25
100
AcDbPolyline
 90
        6
 70
   128
 43
0.0
 10
10.7905021926
 20
19.9104200092
 10
10.7626836133
 20
19.9015526568
 10
10.730608866
 20
19.8830362993
 10
10.7106878428
 20
19.859511521
 10
10.7050760065
 20
19.8335253986
 10
10.714051294
 20
19.8083966036
  0
ARC
  5
154
330
1F
100
AcDbEntity
  8
0
  6
Continuous
 62
     7
370
    25
100
AcDbCircle
 10
10.8420673612
 20
19.9729867028
 30
0.0
 40
0.2159964836727673
100
AcDbArc
 50
257.014084154
 51
297.018508745
  0
LWPOLYLINE
  5
155
330
1F
100
AcDbEntity
  8
0
  6
Continuous
 62
     7
370
    25
100
AcDbPolyline
 90
        3
 70
   128
 43
0.0
 10
14.9768225465
 20
17.4502656761
 10
15.0031817498
 20
17.4715776875
 10
15.0068919999
 20
17.4763499841
  0
LWPOLYLINE
  5
156
330
1F
100
AcDbEntity
  8
0
  6
Continuous
 62
     7
370
    25
100
AcDbPolyline
 90
        6
 70
   128
 43
0.0
 10
14.8271352762
 20
17.5801213319
 10
14.7993171117
 20
17.57125374
 10
14.7672423643
 20
17.5527373825
 10
14.7473213411
 20
17.5292126042
 10
14.7417107493
 20
17.5032276792
 10
14.7506847924
 20
17.4780976868
  0
ARC
  5
157
330
1F
100
AcDbEntity
  8
0
  6
Continuous
 62
     7
370
    25
100
AcDbCircle
 10
14.8787015296
 20
17.6426777567
 30
0.0
 40
0.2159864410354831
100
AcDbArc
 50
257.0129486004
 51
297.0194206811
  0
LINE
  5
158
330
1F
100
AcDbEntity
  8
0
  6
Continuous
 62
     7
370
    25
100
AcDbLine
 10
34.7862122057
 20
13.0817439843
 30
0.0
 11
34.8084902998
 21
13.0688831144
 31
0.0
  0
ARC
  5
159
330
1F
100
AcDbEntity
  8
0
  6
Continuous
 62
     7
370
    25
100
AcDbCircle
 10
34.594558242
 20
12.9220087902
 30
0.0
 40
0.0191905880605982
100
AcDbArc
 50
304.6264589278
 51
6.684595547
  0
ARC
  5
15A
330
1F
100
AcDbEntity
  8
0
  6
Continuous
 62
     7
370
    25
100
AcDbCircle
 10
27.1042297182
 20
10.3135429379
 30
0.0
 40
0.0605042536451949
100
AcDbArc
 50
122.6059452053
 51
177.3944859858
  0
LINE
  5
15B
330
1F
100
AcDbEntity
  8
0
  6
Continuous
 62
     7
370
    25
100
AcDbLine
 10
27.1435026454
 20
10.3891345565
 30
0.0
 11
27.1273051469
 21
10.3966541044
 31
0.0
  0
LINE
  5
15C
330
1F
100
AcDbEntity
  8
0
  6
Continuous
 62
     7
370
    25
100
AcDbLine
 10
27.1273051469
 20
10.3966541044
 30
0.0
 11
27.0716265051
 21
10.3645115087
 31
0.0
  0
ARC
  5
15D
330
1F
100
AcDbEntity
  8
0
  6
Continuous
 62
     7
370
    25
100
AcDbCircle
 10
26.3791176646
 20
10.7321412164
 30
0.0
 40
0.0605042536452408
100
AcDbArc
 50
122.6059452053
 51
177.3944859858
  0
LINE
  5
15E
330
1F
100
AcDbEntity
  8
0
  6
Continuous
 62
     7
370
    25
100
AcDbLine
 10
26.3465144515
 20
10.7831097871
 30
0.0
 11
27.0716265051
 21
10.3645115087
 31
0.0
  0
ARC
  5
15F
330
1F
100
AcDbEntity
  8
0
  6
Continuous
 62
     7
370
    25
100
AcDbCircle
 10
26.2351592657
 20
10.9814933629
 30
0.0
 40
0.060512323404359
100
AcDbArc
 50
242.6094150479
 51
297.3900920764
  0
LINE
  5
160
330
1F
100
AcDbEntity
  8
0
  6
Continuous
 62
     7
370
    25
100
AcDbLine
 10
26.4021930933
 20
10.8152523829
 30
0.0
 11
26.3465144515
 21
10.7831097871
 31
0.0
  0
LINE
  5
161
330
1F
100
AcDbEntity
  8
0
  6
Continuous
 62
     7
370
    25
100
AcDbLine
 10
27.1273051469
 20
10.3966541044
 30
0.0
 11
26.4021930933
 21
10.8152523829
 31
0.0
  0
LINE
  5
162
330
1F
100
AcDbEntity
  8
0
  6
Continuous
 62
     7
370
    25
100
AcDbLine
 10
26.2629977333
 20
10.9277647764
 30
0.0
 11
26.3186763751
 21
10.9599073721
 31
0.0
  0
LINE
  5
163
330
1F
100
AcDbEntity
  8
0
  6
Continuous
 62
     7
370
    25
100
AcDbLine
 10
26.3186763751
 20
10.9599073721
 30
0.0
 11
26.3186763751
 21
11.2007605203
 31
0.0
  0
LINE
  5
164
330
1F
100
AcDbEntity
  8
0
  6
Continuous
 62
     7
370
    25
100
AcDbLine
 10
26.4596190041
 20
10.2355875736
 30
0.0
 11
26.4317805128
 21
10.2195167547
 31
0.0
  0
LINE
  5
165
330
1F
100
AcDbEntity
  8
0
  6
Continuous
 62
     7
370
    25
100
AcDbLine
 10
27.016395881
 20
9.9141670886
 30
0.0
 11
26.4596190041
 21
10.2355875736
 31
0.0
  0
ARC
  5
166
330
1F
100
AcDbEntity
  8
0
  6
Continuous
 62
     7
370
    25
100
AcDbCircle
 10
26.4443220641
 20
10.93601585
 30
0.0
 40
0.1815119642157632
100
AcDbArc
 50
182.6054186937
 51
237.3946533409
  0
ARC
  5
167
330
1F
100
AcDbEntity
  8
0
  6
Continuous
 62
     7
370
    25
100
AcDbCircle
 10
26.5000007059
 20
10.9681584458
 30
0.0
 40
0.1815119642157852
100
AcDbArc
 50
182.6054186937
 51
237.3946533409
  0
LINE
  5
168
330
1F
100
AcDbEntity
  8
0
  6
Continuous
 62
     7
370
    25
100
AcDbLine
 10
26.4596190041
 20
10.2355875736
 30
0.0
 11
26.4596190041
 21
10.3963291836
 31
0.0
  0
ELLIPSE
  5
169
330
1F
100
AcDbEntity
  8
0
  6
Continuous
 62
     7
370
    25
100
AcDbEllipse
 10
25.1303142551
 20
12.0403927046
 30
0.0
 11
0.1760274297427529
 21
0.03028933605505735
 31
0.0
210
0.0
220
0.0
230
1.0
 40
0.6618703072
 41
3.813590291074004
 42
4.237927164199455
  0
LINE
  5
16A
330
1F
100
AcDbEntity
  8
0
  6
Continuous
 62
     7
370
    25
100
AcDbLine
 10
25.0050391694
 20
11.9120099451
 30
0.0
 11
25.0050391694
 21
11.9441571666
 31
0.0
  0
LINE
  5
16B
330
1F
100
AcDbEntity
  8
0
  6
Continuous
 62
     7
370
    25
100
AcDbLine
 10
25.0050391694
 20
11.9441571666
 30
0.0
 11
22.6944147362
 21
13.2780522592
 31
0.0
  0
LINE
  5
16C
330
1F
100
AcDbEntity
  8
0
  6
Continuous
 62
     7
370
    25
100
AcDbLine
 10
22.6944147362
 20
13.2780522592
 30
0.0
 11
22.6944147362
 21
13.2459050377
 31
0.0
  0
LINE
  5
16D
330
1F
100
AcDbEntity
  8
0
  6
Continuous
 62
     7
370
    25
100
AcDbLine
 10
25.0050391694
 20
11.9120099451
 30
0.0
 11
22.6944147362
 21
13.2459050377
 31
0.0
  0
ARC
  5
16E
330
1F
100
AcDbEntity
  8
0
  6
Continuous
 62
     7
370
    25
100
AcDbCircle
 10
25.2661148652
 20
11.4248792856
 30
0.0
 40
0.11314319284594
100
AcDbArc
 50
84.1581239981
 51
115.5957559032
  0
ELLIPSE
  5
16F
330
1F
100
AcDbEntity
  8
0
  6
Continuous
 62
     7
370
    25
100
AcDbEllipse
 10
25.1303142551
 20
11.6224781158
 30
0.0
 11
0.1760274297427529
 21
0.03028933605505557
 31
0.0
210
0.0
220
0.0
230
1.0
 40
0.6618703072
 41
3.813590291074032
 42
5.111792398741718
  0
LINE
  5
170
330
1F
100
AcDbEntity
  8
0
  6
Continuous
 62
     7
370
    25
100
AcDbLine
 10
25.0328776607
 20
11.542313448
 30
0.0
 11
25.0050391694
 21
11.5262426291
 31
0.0
  0
ELLIPSE
  5
171
330
1F
100
AcDbEntity
  8
0
  6
Continuous
 62
     7
370
    25
100
AcDbEllipse
 10
25.1303142551
 20
11.6224781158
 30
0.0
 11
0.1360760078761309
 21
0.03188988368135704
 31
0.0
210
0.0
220
0.0
230
1.0
 40
0.6804434961
 41
3.768857936849814
 42
5.067060044517498
  0
LINE
  5
172
330
1F
100
AcDbEntity
  8
0
  6
Continuous
 62
     7
370
    25
100
AcDbLine
 10
25.2367510103
 20
11.5610343739
 30
0.0
 11
25.1979194926
 21
11.5467233825
 31
0.0
  0
LINE
  5
173
330
1F
100
AcDbEntity
  8
0
  6
Continuous
 62
     7
370
    25
100
AcDbLine
 10
25.2367510103
 20
11.5610343739
 30
0.0
 11
25.2776309643
 21
11.5374348787
 31
0.0
  0
LINE
  5
174
330
1F
100
AcDbEntity
  8
0
  6
Continuous
 62
     7
370
    25
100
AcDbLine
 10
25.0050391694
 20
11.4940953478
 30
0.0
 11
25.0050391694
 21
11.5262426291
 31
0.0
  0
LINE
  5
175
330
1F
100
AcDbEntity
  8
0
  6
Continuous
 62
     7
370
    25
100
AcDbLine
 10
25.2172348623
 20
11.4772948426
 30
0.0
 11
25.2172348623
 21
11.526919118
 31
0.0
  0
ARC
  5
176
330
1F
100
AcDbEntity
  8
0
  6
Continuous
 62
     7
370
    25
100
AcDbCircle
 10
25.1313806868
 20
11.7413790609
 30
0.0
 40
0.2776894197236135
100
AcDbArc
 50
242.936726748
 51
288.0094213727
  0
ELLIPSE
  5
177
330
1F
100
AcDbEntity
  8
0
  6
Continuous
 62
     7
370
    25
100
AcDbEllipse
 10
25.2558672446
 20
11.481791377
 30
0.0
 11
0.07775771878635852
 21
0.01822279067506117
 31
0.0
210
0.0
220
0.0
230
1.0
 40
0.6804434961
 41
0.6272652832598623
 42
1.132625793544303
  0
ARC
  5
178
330
1F
100
AcDbEntity
  8
0
  6
Continuous
 62
     7
370
    25
100
AcDbCircle
 10
25.2553933008
 20
11.3599223773
 30
0.0
 40
0.1234194556700956
100
AcDbArc
 50
62.9371927502
 51
108.0096306413
  0
ELLIPSE
  5
179
330
1F
100
AcDbEntity
  8
0
  6
Continuous
 62
     7
370
    25
100
AcDbEllipse
 10
25.2558672446
 20
11.481791377
 30
0.0
 11
0.1166365781795378
 21
0.02733418601259175
 31
0.0
210
0.0
220
0.0
230
1.0
 40
0.6804434961
 41
1.468333953827775
 42
1.575235024642742
  0
LINE
  5
17A
330
1F
100
AcDbEntity
  8
0
  6
Continuous
 62
     7
370
    25
100
AcDbLine
 10
22.6944147362
 20
12.8601377216
 30
0.0
 11
22.6944147362
 21
12.8279904403
 31
0.0
  0
LINE
  5
17B
330
1F
100
AcDbEntity
  8
0
  6
Continuous
 62
     7
370
    25
100
AcDbLine
 10
25.0050391694
 20
11.5262426291
 30
0.0
 11
22.6944147362
 21
12.8601377216
 31
0.0
  0
LINE
  5
17C
330
1F
100
AcDbEntity
  8
0
  6
Continuous
 62
     7
370
    25
100
AcDbLine
 10
25.0050391694
 20
11.4940953478
 30
0.0
 11
22.6944147362
 21
12.8279904403
 31
0.0
  0
LINE
  5
17D
330
1F
100
AcDbEntity
  8
0
  6
Continuous
 62
     7
370
    25
100
AcDbLine
 10
22.7222532274
 20
12.8762085406
 30
0.0
 11
22.6944147362
 21
12.8601377216
 31
0.0
  0
LINE
  5
17E
330
1F
100
AcDbEntity
  8
0
  6
Continuous
 62
     7
370
    25
100
AcDbLine
 10
25.0328776607
 20
11.542313448
 30
0.0
 11
22.7222532274
 21
12.8762085406
 31
0.0
  0
ELLIPSE
  5
17F
330
1F
100
AcDbEntity
  8
0
  6
Continuous
 62
     7
370
    25
100
AcDbEllipse
 10
22.8196897339
 20
13.3742878479
 30
0.0
 11
0.1760274297427493
 21
0.03028933605505557
 31
0.0
210
0.0
220
0.0
230
1.0
 40
0.6618703072
 41
3.389253417948563
 42
3.813590291073983
  0
ELLIPSE
  5
180
330
1F
100
AcDbEntity
  8
0
  6
Continuous
 62
     7
370
    25
100
AcDbEllipse
 10
22.8196897339
 20
12.9563732591
 30
0.0
 11
0.1760274297427493
 21
0.03028933605505735
 31
0.0
210
0.0
220
0.0
230
1.0
 40
0.6618703072
 41
2.5153881834062
 42
3.81359029107395
  0
ARC
  5
181
330
1F
100
AcDbEntity
  8
0
  6
Continuous
 62
     7
370
    25
100
AcDbCircle
 10
22.6340276887
 20
13.0267176904
 30
0.0
 40
0.0410676335790289
100
AcDbArc
 50
319.6215082151
 51
20.9738507751
  0
LINE
  5
182
330
1F
100
AcDbEntity
  8
0
  6
Continuous
 62
     7
370
    25
100
AcDbLine
 10
22.7132542945
 20
13.0178180194
 30
0.0
 11
22.6723743404
 21
13.0414175145
 31
0.0
  0
LINE
  5
183
330
1F
100
AcDbEntity
  8
0
  6
Continuous
 62
     7
370
    25
100
AcDbLine
 10
22.6996183786
 20
12.9889619167
 30
0.0
 11
22.7132542945
 21
13.0178180194
 31
0.0
  0
ELLIPSE
  5
184
330
1F
100
AcDbEntity
  8
0
  6
Continuous
 62
     7
370
    25
100
AcDbEllipse
 10
22.8196897339
 20
12.9563732591
 30
0.0
 11
0.1360760078761238
 21
0.03188988368136236
 31
0.0
210
0.0
220
0.0
230
1.0
 40
0.6804434961
 41
2.47065582918187
 42
3.76885793684963
  0
LINE
  5
185
330
1F
100
AcDbEntity
  8
0
  6
Continuous
 62
     7
370
    25
100
AcDbLine
 10
22.6996183786
 20
12.9393376413
 30
0.0
 11
22.6996183786
 21
12.9889619167
 31
0.0
  0
ELLIPSE
  5
186
330
1F
100
AcDbEntity
  8
0
  6
Continuous
 62
     7
370
    25
100
AcDbEllipse
 10
22.5967007705
 20
13.0168955069
 30
0.0
 11
0.1166365781795413
 21
0.02733418601259529
 31
0.0
210
0.0
220
0.0
230
1.0
 40
0.6804434961
 41
5.962480849056667
 42
6.06938191987155
  0
ELLIPSE
  5
187
330
1F
100
AcDbEntity
  8
0
  6
Continuous
 62
     7
370
    25
100
AcDbEllipse
 10
22.5967007705
 20
13.0168955069
 30
0.0
 11
0.07775771878636206
 21
0.01822279067506472
 31
0.0
210
0.0
220
0.0
230
1.0
 40
0.6804434961
 41
0.1219047729754742
 42
0.6272652832599174
  0
ARC
  5
188
330
1F
100
AcDbEntity
  8
0
  6
Continuous
 62
     7
370
    25
100
AcDbCircle
 10
22.9742158415
 20
12.6714098243
 30
0.0
 40
0.2038292946567994
100
AcDbArc
 50
89.1752517362
 51
117.6759053845
  0
LWPOLYLINE
  5
189
330
1F
100
AcDbEntity
  8
0
  6
Continuous
 62
     7
370
    25
100
AcDbPolyline
 90
        3
 70
   128
 43
0.0
 10
22.8420263987
 20
12.8117439192
 10
22.8531859799
 20
12.830607638
 10
22.8795433164
 20
12.8519188112
  0
LINE
  5
18A
330
1F
100
AcDbEntity
  8
0
  6
Continuous
 62
     7
370
    25
100
AcDbLine
 10
21.0310434172
 20
13.3694379026
 30
0.0
 11
21.0032049259
 21
13.3533670837
 31
0.0
  0
LINE
  5
18B
330
1F
100
AcDbEntity
  8
0
  6
Continuous
 62
     7
370
    25
100
AcDbLine
 10
21.5878203978
 20
13.0480173573
 30
0.0
 11
21.0310434172
 21
13.3694379026
 31
0.0
  0
LINE
  5
18C
330
1F
100
AcDbEntity
  8
0
  6
Continuous
 62
     7
370
    25
100
AcDbLine
 10
21.0310434172
 20
13.3694379026
 30
0.0
 11
21.0310434172
 21
13.5301795084
 31
0.0
  0
ARC
  5
18D
330
1F
100
AcDbEntity
  8
0
  6
Continuous
 62
     7
370
    25
100
AcDbCircle
 10
34.8193577621
 20
13.0500587152
 30
0.0
 40
0.0171935940188674
100
AcDbArc
 50
230.7973891925
 51
9.2116990399
  0
LINE
  5
18E
330
1F
100
AcDbEntity
  8
0
  6
Continuous
 62
     7
370
    25
100
AcDbLine
 10
34.8084902998
 20
13.0367351295
 30
0.0
 11
34.7583679069
 21
13.065670186
 31
0.0
  0
LINE
  5
18F
330
1F
100
AcDbEntity
  8
0
  6
Continuous
 62
     7
370
    25
100
AcDbLine
 10
34.8084902998
 20
13.0688831144
 30
0.0
 11
34.8084902998
 21
13.0946054573
 31
0.0
  0
ARC
  5
190
330
1F
100
AcDbEntity
  8
0
  6
Continuous
 62
     7
370
    25
100
AcDbCircle
 10
41.0315229758
 20
16.637348526
 30
0.0
 40
0.0186085060440625
100
AcDbArc
 50
303.5420995753
 51
7.7689548995
  0
ELLIPSE
  5
191
330
1F
100
AcDbEntity
  8
0
  6
Continuous
 62
     7
370
    25
100
AcDbEllipse
 10
19.0057673314
 20
15.5760183857
 30
0.0
 11
0.1760274297427493
 21
0.0302893360550538
 31
0.0
210
0.0
220
0.0
230
1.0
 40
0.6618703072
 41
3.813590291074011
 42
4.23792716419945
  0
LINE
  5
192
330
1F
100
AcDbEntity
  8
0
  6
Continuous
 62
     7
370
    25
100
AcDbLine
 10
18.8804923827
 20
15.4476355472
 30
0.0
 11
18.8804923827
 21
15.4797827687
 31
0.0
  0
LINE
  5
193
330
1F
100
AcDbEntity
  8
0
  6
Continuous
 62
     7
370
    25
100
AcDbLine
 10
16.5698678457
 20
16.8136779211
 30
0.0
 11
16.5698678457
 21
16.7815306997
 31
0.0
  0
LINE
  5
194
330
1F
100
AcDbEntity
  8
0
  6
Continuous
 62
     7
370
    25
100
AcDbLine
 10
18.8804923827
 20
15.4797827687
 30
0.0
 11
16.5698678457
 21
16.8136779211
 31
0.0
  0
LINE
  5
195
330
1F
100
AcDbEntity
  8
0
  6
Continuous
 62
     7
370
    25
100
AcDbLine
 10
18.8804923827
 20
15.4476355472
 30
0.0
 11
16.5698678457
 21
16.7815306997
 31
0.0
  0
ARC
  5
196
330
1F
100
AcDbEntity
  8
0
  6
Continuous
 62
     7
370
    25
100
AcDbCircle
 10
19.1415668182
 20
14.960512525
 30
0.0
 40
0.1131357112188957
100
AcDbArc
 50
84.157081608
 51
115.5968341687
  0
ELLIPSE
  5
197
330
1F
100
AcDbEntity
  8
0
  6
Continuous
 62
     7
370
    25
100
AcDbEllipse
 10
19.0057673314
 20
15.1581037969
 30
0.0
 11
0.1760274297427493
 21
0.03028933605505735
 31
0.0
210
0.0
220
0.0
230
1.0
 40
0.6618703072
 41
3.81359029107395
 42
5.111792398741713
  0
LINE
  5
198
330
1F
100
AcDbEntity
  8
0
  6
Continuous
 62
     7
370
    25
100
AcDbLine
 10
18.9083308739
 20
15.0779390501
 30
0.0
 11
18.8804923827
 21
15.0618682312
 31
0.0
  0
ELLIPSE
  5
199
330
1F
100
AcDbEntity
  8
0
  6
Continuous
 62
     7
370
    25
100
AcDbEllipse
 10
19.0057673314
 20
15.1581037969
 30
0.0
 11
0.1360760078761274
 21
0.03188988368136236
 31
0.0
210
0.0
220
0.0
230
1.0
 40
0.6804434961
 41
3.768857936849648
 42
5.067060044517436
  0
LINE
  5
19A
330
1F
100
AcDbEntity
  8
0
  6
Continuous
 62
     7
370
    25
100
AcDbLine
 10
19.1122041716
 20
15.0966600059
 30
0.0
 11
19.0733723688
 21
15.0823491792
 31
0.0
  0
LINE
  5
19B
330
1F
100
AcDbEntity
  8
0
  6
Continuous
 62
     7
370
    25
100
AcDbLine
 10
19.1122041716
 20
15.0966600059
 30
0.0
 11
19.1530842035
 21
15.0730604658
 31
0.0
  0
LINE
  5
19C
330
1F
100
AcDbEntity
  8
0
  6
Continuous
 62
     7
370
    25
100
AcDbLine
 10
18.8804923827
 20
15.0297209499
 30
0.0
 11
18.8804923827
 21
15.0618682312
 31
0.0
  0
LINE
  5
19D
330
1F
100
AcDbEntity
  8
0
  6
Continuous
 62
     7
370
    25
100
AcDbLine
 10
19.0926881274
 20
15.0129204147
 30
0.0
 11
19.0926881274
 21
15.0625446902
 31
0.0
  0
ARC
  5
19E
330
1F
100
AcDbEntity
  8
0
  6
Continuous
 62
     7
370
    25
100
AcDbCircle
 10
19.0068340333
 20
15.2770056106
 30
0.0
 40
0.2776903241808373
100
AcDbArc
 50
242.9367912174
 51
288.0093430418
  0
ELLIPSE
  5
19F
330
1F
100
AcDbEntity
  8
0
  6
Continuous
 62
     7
370
    25
100
AcDbEllipse
 10
19.131320321
 20
15.0174170581
 30
0.0
 11
0.07775771878635496
 21
0.01822279067506294
 31
0.0
210
0.0
220
0.0
230
1.0
 40
0.6804434961
 41
0.6272652832598888
 42
1.132625793544259
  0
ARC
  5
1A0
330
1F
100
AcDbEntity
  8
0
  6
Continuous
 62
     7
370
    25
100
AcDbCircle
 10
19.1308467799
 20
14.8955505775
 30
0.0
 40
0.1234170225969481
100
AcDbArc
 50
62.9367678092
 51
108.0101023652
  0
ELLIPSE
  5
1A1
330
1F
100
AcDbEntity
  8
0
  6
Continuous
 62
     7
370
    25
100
AcDbEllipse
 10
19.131320321
 20
15.0174170581
 30
0.0
 11
0.1166365781795342
 21
0.02733418601259352
 31
0.0
210
0.0
220
0.0
230
1.0
 40
0.6804434961
 41
1.468333953827756
 42
1.575235024642753
  0
LINE
  5
1A2
330
1F
100
AcDbEntity
  8
0
  6
Continuous
 62
     7
370
    25
100
AcDbLine
 10
16.5698678457
 20
16.3957633836
 30
0.0
 11
16.5698678457
 21
16.3636161023
 31
0.0
  0
LINE
  5
1A3
330
1F
100
AcDbEntity
  8
0
  6
Continuous
 62
     7
370
    25
100
AcDbLine
 10
18.8804923827
 20
15.0618682312
 30
0.0
 11
16.5698678457
 21
16.3957633836
 31
0.0
  0
LINE
  5
1A4
330
1F
100
AcDbEntity
  8
0
  6
Continuous
 62
     7
370
    25
100
AcDbLine
 10
18.8804923827
 20
15.0297209499
 30
0.0
 11
16.5698678457
 21
16.3636161023
 31
0.0
  0
LINE
  5
1A5
330
1F
100
AcDbEntity
  8
0
  6
Continuous
 62
     7
370
    25
100
AcDbLine
 10
16.597706337
 20
16.4118342025
 30
0.0
 11
16.5698678457
 21
16.3957633836
 31
0.0
  0
LINE
  5
1A6
330
1F
100
AcDbEntity
  8
0
  6
Continuous
 62
     7
370
    25
100
AcDbLine
 10
18.9083308739
 20
15.0779390501
 30
0.0
 11
16.597706337
 21
16.4118342025
 31
0.0
  0
ELLIPSE
  5
1A7
330
1F
100
AcDbEntity
  8
0
  6
Continuous
 62
     7
370
    25
100
AcDbEllipse
 10
16.6951428102
 20
16.909913529
 30
0.0
 11
0.1760274297427458
 21
0.03028933605505557
 31
0.0
210
0.0
220
0.0
230
1.0
 40
0.6618703072
 41
3.38925341794857
 42
3.813590291073995
  0
ELLIPSE
  5
1A8
330
1F
100
AcDbEntity
  8
0
  6
Continuous
 62
     7
370
    25
100
AcDbEllipse
 10
16.6951428102
 20
16.4919989402
 30
0.0
 11
0.1760274297427493
 21
0.03028933605505557
 31
0.0
210
0.0
220
0.0
230
1.0
 40
0.6618703072
 41
2.515388183406206
 42
3.813590291074027
  0
ARC
  5
1A9
330
1F
100
AcDbEntity
  8
0
  6
Continuous
 62
     7
370
    25
100
AcDbCircle
 10
16.5094807982
 20
16.5623433523
 30
0.0
 40
0.0410676335790332
100
AcDbArc
 50
319.6215082151
 51
20.9738507751
  0
LINE
  5
1AA
330
1F
100
AcDbEntity
  8
0
  6
Continuous
 62
     7
370
    25
100
AcDbLine
 10
16.588707404
 20
16.5534436813
 30
0.0
 11
16.54782745
 21
16.5770431765
 31
0.0
  0
LINE
  5
1AB
330
1F
100
AcDbEntity
  8
0
  6
Continuous
 62
     7
370
    25
100
AcDbLine
 10
16.5750714881
 20
16.5245875787
 30
0.0
 11
16.588707404
 21
16.5534436813
 31
0.0
  0
ELLIPSE
  5
1AC
330
1F
100
AcDbEntity
  8
0
  6
Continuous
 62
     7
370
    25
100
AcDbEllipse
 10
16.6951428102
 20
16.4919989402
 30
0.0
 11
0.1360760078761274
 21
0.03188988368135526
 31
0.0
210
0.0
220
0.0
230
1.0
 40
0.6804434961
 41
2.47065582918192
 42
3.768857936849771
  0
LINE
  5
1AD
330
1F
100
AcDbEntity
  8
0
  6
Continuous
 62
     7
370
    25
100
AcDbLine
 10
16.5750714881
 20
16.4749633033
 30
0.0
 11
16.5750714881
 21
16.5245875787
 31
0.0
  0
ELLIPSE
  5
1AE
330
1F
100
AcDbEntity
  8
0
  6
Continuous
 62
     7
370
    25
100
AcDbEllipse
 10
16.4721538468
 20
16.552521188
 30
0.0
 11
0.1166365781795378
 21
0.0273341860125953
 31
0.0
210
0.0
220
0.0
230
1.0
 40
0.6804434961
 41
5.962480849056652
 42
6.069381919871491
  0
ELLIPSE
  5
1AF
330
1F
100
AcDbEntity
  8
0
  6
Continuous
 62
     7
370
    25
100
AcDbEllipse
 10
16.4721538468
 20
16.552521188
 30
0.0
 11
0.07775771878635496
 21
0.01822279067506116
 31
0.0
210
0.0
220
0.0
230
1.0
 40
0.6804434961
 41
0.121904772975423
 42
0.6272652832599127
  0
ARC
  5
1B0
330
1F
100
AcDbEntity
  8
0
  6
Continuous
 62
     7
370
    25
100
AcDbCircle
 10
41.0501387598
 20
16.9552632785
 30
0.0
 40
0.0198026062158765
100
AcDbArc
 50
294.3783047679
 51
354.3024484917
  0
ARC
  5
1B1
330
1F
100
AcDbEntity
  8
0
  6
Continuous
 62
     7
370
    25
100
AcDbCircle
 10
41.013892264
 20
16.7055281995
 30
0.0
 40
0.0611959211004699
100
AcDbArc
 50
306.1139073982
 51
357.2021523165
  0
LINE
  5
1B2
330
1F
100
AcDbEntity
  8
0
  6
Continuous
 62
     7
370
    25
100
AcDbLine
 10
41.0750152378
 20
16.7025410889
 30
0.0
 11
41.0750152378
 21
17.9174394486
 31
0.0
  0
ELLIPSE
  5
1B3
330
1F
100
AcDbEntity
  8
0
  6
Continuous
 62
     7
370
    25
100
AcDbEllipse
 10
15.3867168765
 20
17.6652517427
 30
0.0
 11
0.1760274297427475
 21
0.03028933605505913
 31
0.0
210
0.0
220
0.0
230
1.0
 40
0.6618703072
 41
3.813590291073946
 42
4.237927164199387
  0
LINE
  5
1B4
330
1F
100
AcDbEntity
  8
0
  6
Continuous
 62
     7
370
    25
100
AcDbLine
 10
15.2614419568
 20
17.5368688875
 30
0.0
 11
15.2614419568
 21
17.5690161089
 31
0.0
  0
LINE
  5
1B5
330
1F
100
AcDbEntity
  8
0
  6
Continuous
 62
     7
370
    25
100
AcDbLine
 10
12.9508173162
 20
18.9029113212
 30
0.0
 11
12.9508173162
 21
18.8707640998
 31
0.0
  0
LINE
  5
1B6
330
1F
100
AcDbEntity
  8
0
  6
Continuous
 62
     7
370
    25
100
AcDbLine
 10
15.2614419568
 20
17.5690161089
 30
0.0
 11
12.9508173162
 21
18.9029113212
 31
0.0
  0
LINE
  5
1B7
330
1F
100
AcDbEntity
  8
0
  6
Continuous
 62
     7
370
    25
100
AcDbLine
 10
15.2614419568
 20
17.5368688875
 30
0.0
 11
12.9508173162
 21
18.8707640998
 31
0.0
  0
ARC
  5
1B8
330
1F
100
AcDbEntity
  8
0
  6
Continuous
 62
     7
370
    25
100
AcDbCircle
 10
15.5225158162
 20
17.049748775
 30
0.0
 40
0.1131328875383176
100
AcDbArc
 50
84.1566551234
 51
115.5972247779
  0
ELLIPSE
  5
1B9
330
1F
100
AcDbEntity
  8
0
  6
Continuous
 62
     7
370
    25
100
AcDbEllipse
 10
15.3867168765
 20
17.2473371539
 30
0.0
 11
0.1760274297427493
 21
0.03028933605505557
 31
0.0
210
0.0
220
0.0
230
1.0
 40
0.6618703072
 41
3.813590291073977
 42
5.111792398741732
  0
LINE
  5
1BA
330
1F
100
AcDbEntity
  8
0
  6
Continuous
 62
     7
370
    25
100
AcDbLine
 10
15.2892804481
 20
17.1671723904
 30
0.0
 11
15.2614419568
 21
17.1511015714
 31
0.0
  0
ELLIPSE
  5
1BB
330
1F
100
AcDbEntity
  8
0
  6
Continuous
 62
     7
370
    25
100
AcDbEllipse
 10
15.3867168765
 20
17.2473371539
 30
0.0
 11
0.1360760078761274
 21
0.03188988368136236
 31
0.0
210
0.0
220
0.0
230
1.0
 40
0.6804434961
 41
3.768857936849674
 42
5.067060044517456
  0
LINE
  5
1BC
330
1F
100
AcDbEntity
  8
0
  6
Continuous
 62
     7
370
    25
100
AcDbLine
 10
15.4931537976
 20
17.1858933162
 30
0.0
 11
15.4543218651
 21
17.1715825644
 31
0.0
  0
LINE
  5
1BD
330
1F
100
AcDbEntity
  8
0
  6
Continuous
 62
     7
370
    25
100
AcDbLine
 10
15.4931537976
 20
17.1858933162
 30
0.0
 11
15.5340337517
 21
17.1622938211
 31
0.0
  0
LINE
  5
1BE
330
1F
100
AcDbEntity
  8
0
  6
Continuous
 62
     7
370
    25
100
AcDbLine
 10
15.2614419568
 20
17.1189542901
 30
0.0
 11
15.2614419568
 21
17.1511015714
 31
0.0
  0
LINE
  5
1BF
330
1F
100
AcDbEntity
  8
0
  6
Continuous
 62
     7
370
    25
100
AcDbLine
 10
15.4736376496
 20
17.1021537849
 30
0.0
 11
15.4736376496
 21
17.1517780604
 31
0.0
  0
ARC
  5
1C0
330
1F
100
AcDbEntity
  8
0
  6
Continuous
 62
     7
370
    25
100
AcDbCircle
 10
15.3877835225
 20
17.3662386133
 30
0.0
 40
0.2776899849449349
100
AcDbArc
 50
242.9367751412
 51
288.0093729796
  0
ELLIPSE
  5
1C1
330
1F
100
AcDbEntity
  8
0
  6
Continuous
 62
     7
370
    25
100
AcDbEllipse
 10
15.5122698661
 20
17.1066504151
 30
0.0
 11
0.07775771878635673
 21
0.01822279067506472
 31
0.0
210
0.0
220
0.0
230
1.0
 40
0.6804434961
 41
0.6272652832599159
 42
1.132625793544342
  0
ARC
  5
1C2
330
1F
100
AcDbEntity
  8
0
  6
Continuous
 62
     7
370
    25
100
AcDbCircle
 10
15.5117963439
 20
16.9847845498
 30
0.0
 40
0.1234164628186861
100
AcDbArc
 50
62.9366162016
 51
108.0102071899
  0
LINE
  5
1C3
330
1F
100
AcDbEntity
  8
0
  6
Continuous
 62
     7
370
    25
100
AcDbLine
 10
15.6024676228
 20
16.5032883513
 30
0.0
 11
15.5746291316
 21
16.4872175324
 31
0.0
  0
LINE
  5
1C4
330
1F
100
AcDbEntity
  8
0
  6
Continuous
 62
     7
370
    25
100
AcDbLine
 10
16.1592447071
 20
16.1818677461
 30
0.0
 11
15.6024676228
 21
16.5032883513
 31
0.0
  0
ELLIPSE
  5
1C5
330
1F
100
AcDbEntity
  8
0
  6
Continuous
 62
     7
370
    25
100
AcDbEllipse
 10
15.5122698661
 20
17.1066504151
 30
0.0
 11
0.1166365781795378
 21
0.0273341860125953
 31
0.0
210
0.0
220
0.0
230
1.0
 40
0.6804434961
 41
1.468333953827766
 42
1.575235024642747
  0
LINE
  5
1C6
330
1F
100
AcDbEntity
  8
0
  6
Continuous
 62
     7
370
    25
100
AcDbLine
 10
15.2614419568
 20
17.1511015714
 30
0.0
 11
12.9508173162
 21
18.4849967837
 31
0.0
  0
LINE
  5
1C7
330
1F
100
AcDbEntity
  8
0
  6
Continuous
 62
     7
370
    25
100
AcDbLine
 10
12.9786558074
 20
18.5010676027
 30
0.0
 11
12.9508173162
 21
18.4849967837
 31
0.0
  0
LINE
  5
1C8
330
1F
100
AcDbEntity
  8
0
  6
Continuous
 62
     7
370
    25
100
AcDbLine
 10
15.2892804481
 20
17.1671723904
 30
0.0
 11
12.9786558074
 21
18.5010676027
 31
0.0
  0
LINE
  5
1C9
330
1F
100
AcDbEntity
  8
0
  6
Continuous
 62
     7
370
    25
100
AcDbLine
 10
12.9508173162
 20
18.4849967837
 30
0.0
 11
12.9508173162
 21
18.4528495024
 31
0.0
  0
LINE
  5
1CA
330
1F
100
AcDbEntity
  8
0
  6
Continuous
 62
     7
370
    25
100
AcDbLine
 10
15.2614419568
 20
17.1189542901
 30
0.0
 11
12.9508173162
 21
18.4528495024
 31
0.0
  0
LINE
  5
1CB
330
1F
100
AcDbEntity
  8
0
  6
Continuous
 62
     7
370
    25
100
AcDbLine
 10
15.6024676228
 20
16.5032883513
 30
0.0
 11
15.6024676228
 21
16.6640299529
 31
0.0
  0
LINE
  5
1CC
330
1F
100
AcDbEntity
  8
0
  6
Continuous
 62
     7
370
    25
100
AcDbLine
 10
13.6537483462
 20
17.6282601562
 30
0.0
 11
13.625909855
 21
17.6121893373
 31
0.0
  0
LINE
  5
1CD
330
1F
100
AcDbEntity
  8
0
  6
Continuous
 62
     7
370
    25
100
AcDbLine
 10
14.2105252231
 20
17.3068396713
 30
0.0
 11
13.6537483462
 21
17.6282601562
 31
0.0
  0
ELLIPSE
  5
1CE
330
1F
100
AcDbEntity
  8
0
  6
Continuous
 62
     7
370
    25
100
AcDbEllipse
 10
13.0760923553
 20
18.999146886
 30
0.0
 11
0.1760274297427476
 21
0.03028933605505557
 31
0.0
210
0.0
220
0.0
230
1.0
 40
0.6618703072
 41
3.389253417948547
 42
3.813590291073965
  0
LINE
  5
1CF
330
1F
100
AcDbEntity
  8
0
  6
Continuous
 62
     7
370
    25
100
AcDbLine
 10
13.6537483462
 20
17.6282601562
 30
0.0
 11
13.6537483462
 21
17.7890017653
 31
0.0
  0
ELLIPSE
  5
1D0
330
1F
100
AcDbEntity
  8
0
  6
Continuous
 62
     7
370
    25
100
AcDbEllipse
 10
13.0760923553
 20
18.5812322973
 30
0.0
 11
0.1760274297427493
 21
0.03028933605505912
 31
0.0
210
0.0
220
0.0
230
1.0
 40
0.6618703072
 41
2.515388183406177
 42
3.813590291073939
  0
ARC
  5
1D1
330
1F
100
AcDbEntity
  8
0
  6
Continuous
 62
     7
370
    25
100
AcDbCircle
 10
12.8904295558
 20
18.6515768744
 30
0.0
 40
0.0410682556368839
100
AcDbArc
 50
319.6220230203
 51
20.97333597
  0
LINE
  5
1D2
330
1F
100
AcDbEntity
  8
0
  6
Continuous
 62
     7
370
    25
100
AcDbLine
 10
12.9696568745
 20
18.6426770814
 30
0.0
 11
12.9287769204
 21
18.6662765766
 31
0.0
  0
LINE
  5
1D3
330
1F
100
AcDbEntity
  8
0
  6
Continuous
 62
     7
370
    25
100
AcDbLine
 10
12.9560209585
 20
18.6138209788
 30
0.0
 11
12.9696568745
 21
18.6426770814
 31
0.0
  0
ELLIPSE
  5
1D4
330
1F
100
AcDbEntity
  8
0
  6
Continuous
 62
     7
370
    25
100
AcDbEllipse
 10
13.0760923553
 20
18.5812322973
 30
0.0
 11
0.1360760078761274
 21
0.03188988368136236
 31
0.0
210
0.0
220
0.0
230
1.0
 40
0.6804434961
 41
2.470655829181865
 42
3.76885793684963
  0
LINE
  5
1D5
330
1F
100
AcDbEntity
  8
0
  6
Continuous
 62
     7
370
    25
100
AcDbLine
 10
12.9560209585
 20
18.5641967034
 30
0.0
 11
12.9560209585
 21
18.6138209788
 31
0.0
  0
ELLIPSE
  5
1D6
330
1F
100
AcDbEntity
  8
0
  6
Continuous
 62
     7
370
    25
100
AcDbEllipse
 10
12.8531033919
 20
18.6417545451
 30
0.0
 11
0.1166365781795378
 21
0.0273341860125953
 31
0.0
210
0.0
220
0.0
230
1.0
 40
0.6804434961
 41
5.962480849056695
 42
6.069381919871538
  0
ELLIPSE
  5
1D7
330
1F
100
AcDbEntity
  8
0
  6
Continuous
 62
     7
370
    25
100
AcDbEllipse
 10
12.8531033919
 20
18.6417545451
 30
0.0
 11
0.07775771878635673
 21
0.01822279067506472
 31
0.0
210
0.0
220
0.0
230
1.0
 40
0.6804434961
 41
0.12190477297548
 42
0.6272652832599461
  0
LWPOLYLINE
  5
1D8
330
1F
100
AcDbEntity
  8
0
  6
Continuous
 62
     7
370
    25
100
AcDbPolyline
 90
        3
 70
   128
 43
0.0
 10
14.7819506189
 20
17.5306159084
 10
14.7555934898
 20
17.5093046154
 10
14.7444341161
 20
17.4904407769
  0
ARC
  5
1D9
330
1F
100
AcDbEntity
  8
0
  6
Continuous
 62
     7
370
    25
100
AcDbCircle
 10
14.8759888994
 20
17.3519082922
 30
0.0
 40
0.2019396204026689
100
AcDbArc
 50
90.9356867925
 51
117.7539309684
  0
ELLIPSE
  5
1DA
330
1F
100
AcDbEntity
  8
0
  6
Continuous
 62
     7
370
    25
100
AcDbEllipse
 10
12.3244434147
 20
19.4330645833
 30
0.0
 11
0.1760274297427493
 21
0.03028933605505557
 31
0.0
210
0.0
220
0.0
230
1.0
 40
0.6618703072
 41
3.813590291073974
 42
4.237927164199409
  0
LINE
  5
1DB
330
1F
100
AcDbEntity
  8
0
  6
Continuous
 62
     7
370
    25
100
AcDbLine
 10
12.1991685116
 20
19.3046817185
 30
0.0
 11
12.1991685116
 21
19.3368289399
 31
0.0
  0
LINE
  5
1DC
330
1F
100
AcDbEntity
  8
0
  6
Continuous
 62
     7
370
    25
100
AcDbLine
 10
12.1991685116
 20
19.3368289399
 30
0.0
 11
9.8885438709
 21
20.6707241522
 31
0.0
  0
LINE
  5
1DD
330
1F
100
AcDbEntity
  8
0
  6
Continuous
 62
     7
370
    25
100
AcDbLine
 10
9.8885438709
 20
20.6707241522
 30
0.0
 11
9.8885438709
 21
20.6385769308
 31
0.0
  0
LINE
  5
1DE
330
1F
100
AcDbEntity
  8
0
  6
Continuous
 62
     7
370
    25
100
AcDbLine
 10
12.1991685116
 20
19.3046817185
 30
0.0
 11
9.8885438709
 21
20.6385769308
 31
0.0
  0
ARC
  5
1DF
330
1F
100
AcDbEntity
  8
0
  6
Continuous
 62
     7
370
    25
100
AcDbCircle
 10
12.4602447025
 20
18.8175545757
 30
0.0
 40
0.1131398399517582
100
AcDbArc
 50
84.1584135271
 51
115.5966144005
  0
ELLIPSE
  5
1E0
330
1F
100
AcDbEntity
  8
0
  6
Continuous
 62
     7
370
    25
100
AcDbEllipse
 10
12.3244434147
 20
19.0151499945
 30
0.0
 11
0.1760274297427511
 21
0.03028933605505912
 31
0.0
210
0.0
220
0.0
230
1.0
 40
0.6618703072
 41
3.813590291073982
 42
5.111792398741699
  0
LINE
  5
1E1
330
1F
100
AcDbEntity
  8
0
  6
Continuous
 62
     7
370
    25
100
AcDbLine
 10
12.2270070028
 20
18.9349852213
 30
0.0
 11
12.1991685116
 21
18.9189144024
 31
0.0
  0
ELLIPSE
  5
1E2
330
1F
100
AcDbEntity
  8
0
  6
Continuous
 62
     7
370
    25
100
AcDbEllipse
 10
12.3244434147
 20
19.0151499945
 30
0.0
 11
0.1360760078761256
 21
0.03188988368135881
 31
0.0
210
0.0
220
0.0
230
1.0
 40
0.6804434961
 41
3.768857936849689
 42
5.067060044517463
  0
LINE
  5
1E3
330
1F
100
AcDbEntity
  8
0
  6
Continuous
 62
     7
370
    25
100
AcDbLine
 10
12.4308799376
 20
18.9537063867
 30
0.0
 11
12.3920484199
 21
18.9393953953
 31
0.0
  0
LINE
  5
1E4
330
1F
100
AcDbEntity
  8
0
  6
Continuous
 62
     7
370
    25
100
AcDbLine
 10
12.4308799376
 20
18.9537063867
 30
0.0
 11
12.4717598916
 21
18.9301068915
 31
0.0
  0
LINE
  5
1E5
330
1F
100
AcDbEntity
  8
0
  6
Continuous
 62
     7
370
    25
100
AcDbLine
 10
12.1991685116
 20
18.8867671211
 30
0.0
 11
12.1991685116
 21
18.9189144024
 31
0.0
  0
LINE
  5
1E6
330
1F
100
AcDbEntity
  8
0
  6
Continuous
 62
     7
370
    25
100
AcDbLine
 10
12.4113646192
 20
18.8699663765
 30
0.0
 11
12.4113646192
 21
18.9195906519
 31
0.0
  0
ARC
  5
1E7
330
1F
100
AcDbEntity
  8
0
  6
Continuous
 62
     7
370
    25
100
AcDbCircle
 10
12.3255108536
 20
19.1340553648
 30
0.0
 40
0.2776938293451356
100
AcDbArc
 50
242.9370005394
 51
288.0090366892
  0
ELLIPSE
  5
1E8
330
1F
100
AcDbEntity
  8
0
  6
Continuous
 62
     7
370
    25
100
AcDbEllipse
 10
12.4499964042
 20
18.8744632557
 30
0.0
 11
0.07775771878635851
 21
0.01822279067506472
 31
0.0
210
0.0
220
0.0
230
1.0
 40
0.6804434961
 41
0.62726528325991
 42
1.132625793544284
  0
ARC
  5
1E9
330
1F
100
AcDbEntity
  8
0
  6
Continuous
 62
     7
370
    25
100
AcDbCircle
 10
12.4495235558
 20
18.7525993916
 30
0.0
 40
0.1234143977145916
100
AcDbArc
 50
62.9366852294
 51
108.0106371833
  0
ELLIPSE
  5
1EA
330
1F
100
AcDbEntity
  8
0
  6
Continuous
 62
     7
370
    25
100
AcDbEllipse
 10
12.4499964042
 20
18.8744632557
 30
0.0
 11
0.116636578179536
 21
0.0273341860125953
 31
0.0
210
0.0
220
0.0
230
1.0
 40
0.6804434961
 41
1.468333953827764
 42
1.575235024642738
  0
LINE
  5
1EB
330
1F
100
AcDbEntity
  8
0
  6
Continuous
 62
     7
370
    25
100
AcDbLine
 10
12.1991685116
 20
18.9189144024
 30
0.0
 11
9.8885438709
 21
20.2528096147
 31
0.0
  0
LINE
  5
1EC
330
1F
100
AcDbEntity
  8
0
  6
Continuous
 62
     7
370
    25
100
AcDbLine
 10
9.9163823622
 20
20.2688804336
 30
0.0
 11
9.8885438709
 21
20.2528096147
 31
0.0
  0
LINE
  5
1ED
330
1F
100
AcDbEntity
  8
0
  6
Continuous
 62
     7
370
    25
100
AcDbLine
 10
12.2270070028
 20
18.9349852213
 30
0.0
 11
9.9163823622
 21
20.2688804336
 31
0.0
  0
LINE
  5
1EE
330
1F
100
AcDbEntity
  8
0
  6
Continuous
 62
     7
370
    25
100
AcDbLine
 10
9.8885438709
 20
20.2528096147
 30
0.0
 11
9.8885438709
 21
20.2206623334
 31
0.0
  0
LINE
  5
1EF
330
1F
100
AcDbEntity
  8
0
  6
Continuous
 62
     7
370
    25
100
AcDbLine
 10
12.1991685116
 20
18.8867671211
 30
0.0
 11
9.8885438709
 21
20.2206623334
 31
0.0
  0
ELLIPSE
  5
1F0
330
1F
100
AcDbEntity
  8
0
  6
Continuous
 62
     7
370
    25
100
AcDbEllipse
 10
10.0138188935
 20
20.7669597266
 30
0.0
 11
0.1760274297427493
 21
0.03028933605505557
 31
0.0
210
0.0
220
0.0
230
1.0
 40
0.6618703072
 41
3.389253417948545
 42
3.813590291073958
  0
ELLIPSE
  5
1F1
330
1F
100
AcDbEntity
  8
0
  6
Continuous
 62
     7
370
    25
100
AcDbEllipse
 10
10.0138188935
 20
20.3490451378
 30
0.0
 11
0.1760274297427511
 21
0.03028933605505912
 31
0.0
210
0.0
220
0.0
230
1.0
 40
0.6618703072
 41
2.515388183406187
 42
3.813590291073936
  0
ARC
  5
1F2
330
1F
100
AcDbEntity
  8
0
  6
Continuous
 62
     7
370
    25
100
AcDbCircle
 10
9.8281565254
 20
20.4193894659
 30
0.0
 40
0.0410682556369079
100
AcDbArc
 50
319.6220230203
 51
20.97333597
  0
LINE
  5
1F3
330
1F
100
AcDbEntity
  8
0
  6
Continuous
 62
     7
370
    25
100
AcDbLine
 10
9.9073838441
 20
20.410489673
 30
0.0
 11
9.86650389
 21
20.4340891681
 31
0.0
  0
LINE
  5
1F4
330
1F
100
AcDbEntity
  8
0
  6
Continuous
 62
     7
370
    25
100
AcDbLine
 10
9.8937475133
 20
20.3816338098
 30
0.0
 11
9.9073838441
 21
20.410489673
 31
0.0
  0
ELLIPSE
  5
1F5
330
1F
100
AcDbEntity
  8
0
  6
Continuous
 62
     7
370
    25
100
AcDbEllipse
 10
10.0138188935
 20
20.3490451378
 30
0.0
 11
0.1360760078761256
 21
0.03188988368136236
 31
0.0
210
0.0
220
0.0
230
1.0
 40
0.6804434961
 41
2.470655829181915
 42
3.768857936849646
  0
LINE
  5
1F6
330
1F
100
AcDbEntity
  8
0
  6
Continuous
 62
     7
370
    25
100
AcDbLine
 10
9.8937475133
 20
20.3320095344
 30
0.0
 11
9.8937475133
 21
20.3816338098
 31
0.0
  0
ELLIPSE
  5
1F7
330
1F
100
AcDbEntity
  8
0
  6
Continuous
 62
     7
370
    25
100
AcDbEllipse
 10
9.7908299301
 20
20.4095673856
 30
0.0
 11
0.116636578179536
 21
0.0273341860125953
 31
0.0
210
0.0
220
0.0
230
1.0
 40
0.6804434961
 41
5.962480849056664
 42
6.069381919871544
  0
ELLIPSE
  5
1F8
330
1F
100
AcDbEntity
  8
0
  6
Continuous
 62
     7
370
    25
100
AcDbEllipse
 10
9.7908299301
 20
20.4095673856
 30
0.0
 11
0.07775771878635673
 21
0.01822279067506472
 31
0.0
210
0.0
220
0.0
230
1.0
 40
0.6804434961
 41
0.1219047729753902
 42
0.6272652832598974
  0
LINE
  5
1F9
330
1F
100
AcDbEntity
  8
0
  6
Continuous
 62
     7
370
    25
100
AcDbLine
 10
9.575357111
 20
19.9826655634
 30
0.0
 11
9.5475186198
 21
19.9665947445
 31
0.0
  0
LINE
  5
1FA
330
1F
100
AcDbEntity
  8
0
  6
Continuous
 62
     7
370
    25
100
AcDbLine
 10
10.1321335731
 20
19.6612453179
 30
0.0
 11
9.575357111
 21
19.9826655634
 31
0.0
  0
ARC
  5
1FB
330
1F
100
AcDbEntity
  8
0
  6
Continuous
 62
     7
370
    25
100
AcDbCircle
 10
11.3961308372
 20
19.3607917831
 30
0.0
 40
0.2019342312506493
100
AcDbArc
 50
90.9350674917
 51
117.7541406661
  0
LWPOLYLINE
  5
1FC
330
1F
100
AcDbEntity
  8
0
  6
Continuous
 62
     7
370
    25
100
AcDbPolyline
 90
        3
 70
   128
 43
0.0
 10
11.2645779094
 20
19.4993191545
 10
11.2757368683
 20
19.5181832325
 10
11.3020944123
 20
19.539494286
  0
LINE
  5
1FD
330
1F
100
AcDbEntity
  8
0
  6
Continuous
 62
     7
370
    25
100
AcDbLine
 10
9.575357111
 20
19.9826655634
 30
0.0
 11
9.575357111
 21
20.143407165
 31
0.0
  0
ARC
  5
1FE
330
1F
100
AcDbEntity
  8
0
  6
Continuous
 62
     7
370
    25
100
AcDbCircle
 10
10.8393550999
 20
19.6822135041
 30
0.0
 40
0.2019332845280583
100
AcDbArc
 50
90.9355129772
 51
117.7545143897
  0
LWPOLYLINE
  5
1FF
330
1F
100
AcDbEntity
  8
0
  6
Continuous
 62
     7
370
    25
100
AcDbPolyline
 90
        3
 70
   128
 43
0.0
 10
10.7078006177
 20
19.8207399033
 10
10.7189604063
 20
19.8396035023
 10
10.7453179502
 20
19.8609145558
  0
LINE
  5
200
330
1F
100
AcDbEntity
  8
0
  6
Continuous
 62
     7
370
    25
100
AcDbLine
 10
4.7620210786
 20
23.0844256799
 30
0.0
 11
4.7775656328
 21
23.0783930451
 31
0.0
  0
ARC
  5
201
330
1F
100
AcDbEntity
  8
0
  6
Continuous
 62
     7
370
    25
100
AcDbCircle
 10
4.8111664114
 20
23.1679210656
 30
0.0
 40
0.0968852062050548
100
AcDbArc
 50
169.6685596194
 51
239.5189593319
  0
LINE
  5
202
330
1F
100
AcDbEntity
  8
0
  6
Continuous
 62
     7
370
    25
100
AcDbLine
 10
4.7620210786
 20
23.6309293726
 30
0.0
 11
4.7775656328
 21
23.6248967678
 31
0.0
  0
LWPOLYLINE
  5
203
330
1F
100
AcDbEntity
  8
0
  6
Continuous
 62
     7
370
    25
100
AcDbPolyline
 90
        3
 70
   128
 43
0.0
 10
4.7296410155
 20
23.6638447969
 10
4.7433769057
 20
23.6459747886
 10
4.7620210786
 20
23.6309293726
  0
LINE
  5
204
330
1F
100
AcDbEntity
  8
0
  6
Continuous
 62
     7
370
    25
100
AcDbLine
 10
5.4969658758
 20
22.3370709705
 30
0.0
 11
5.4691273845
 21
22.3210001516
 31
0.0
  0
LINE
  5
205
330
1F
100
AcDbEntity
  8
0
  6
Continuous
 62
     7
370
    25
100
AcDbLine
 10
6.0537423378
 20
22.0156507246
 30
0.0
 11
5.4969658758
 21
22.3370709705
 31
0.0
  0
LINE
  5
206
330
1F
100
AcDbEntity
  8
0
  6
Continuous
 62
     7
370
    25
100
AcDbLine
 10
5.4969658758
 20
22.3370709705
 30
0.0
 11
5.4969658758
 21
22.4978125796
 31
0.0
  0
ARC
  5
207
330
1F
100
AcDbEntity
  8
0
  6
Continuous
 62
     7
370
    25
100
AcDbCircle
 10
4.8010411423
 20
23.7056555863
 30
0.0
 40
0.0861651672474548
100
AcDbArc
 50
206.570116554
 51
253.6779161363
  0
ARC
  5
208
330
1F
100
AcDbEntity
  8
0
  6
Continuous
 62
     7
370
    25
100
AcDbCircle
 10
4.8008699975
 20
23.1631108506
 30
0.0
 40
0.0899255631082841
100
AcDbArc
 50
165.5026390825
 51
254.491495466
  0
ARC
  5
209
330
1F
100
AcDbEntity
  8
0
  6
Continuous
 62
     7
370
    25
100
AcDbCircle
 10
4.8517912382
 20
23.1925085311
 30
0.0
 40
0.1114013800411382
100
AcDbArc
 50
190.8906459654
 51
229.1041089221
  0
LINE
  5
20A
330
1F
100
AcDbEntity
  8
0
  6
Continuous
 62
     8
370
    25
100
AcDbLine
 10
24.7265028437
 20
10.8406687214
 30
0.0
 11
24.8820462859
 21
10.9304620393
 31
0.0
  0
LINE
  5
20B
330
1F
100
AcDbEntity
  8
0
  6
Continuous
 62
     8
370
    25
100
AcDbLine
 10
31.7140495999
 20
11.2370406953
 30
0.0
 11
31.7443190018
 21
11.2195665415
 31
0.0
  0
LINE
  5
20C
330
1F
100
AcDbEntity
  8
0
  6
Continuous
 62
     8
370
    25
100
AcDbLine
 10
29.3092715545
 20
9.8487918795
 30
0.0
 11
29.3395409565
 21
9.8313177257
 31
0.0
  0
LINE
  5
20D
330
1F
100
AcDbEntity
  8
0
  6
Continuous
 62
     8
370
    25
100
AcDbLine
 10
26.753326536
 20
9.6706081595
 30
0.0
 11
26.9088699782
 21
9.7604014774
 31
0.0
  0
LINE
  5
20E
330
1F
100
AcDbEntity
  8
0
  6
Continuous
 62
     8
370
    25
100
AcDbLine
 10
24.798526249
 20
10.9786775001
 30
0.0
 11
24.6674478908
 21
10.9030075745
 31
0.0
  0
LINE
  5
20F
330
1F
100
AcDbEntity
  8
0
  6
Continuous
 62
     8
370
    25
100
AcDbLine
 10
31.8033735398
 20
11.2819051552
 30
0.0
 11
31.7975700515
 21
11.2852554377
 31
0.0
  0
LINE
  5
210
330
1F
100
AcDbEntity
  8
0
  6
Continuous
 62
     8
370
    25
100
AcDbLine
 10
11.6887096108
 20
18.5468140215
 30
0.0
 11
11.5331661685
 21
18.4570207036
 31
0.0
  0
LINE
  5
211
330
1F
100
AcDbEntity
  8
0
  6
Continuous
 62
     8
370
    25
100
AcDbLine
 10
9.7295017425
 20
19.6778407691
 30
0.0
 11
9.5739583002
 21
19.5880474512
 31
0.0
  0
LINE
  5
212
330
1F
100
AcDbEntity
  8
0
  6
Continuous
 62
     8
370
    25
100
AcDbLine
 10
9.5149037622
 20
19.6503860649
 30
0.0
 11
9.6459821204
 21
19.7260559904
 31
0.0
  0
ARC
  5
213
330
1F
100
AcDbEntity
  8
0
  6
Continuous
 62
     8
370
    25
100
AcDbCircle
 10
27.7582639659
 20
10.390759618
 30
0.0
 40
0.0182576610796609
100
AcDbArc
 50
171.5404277179
 51
237.1696343678
  0
ARC
  5
214
330
1F
100
AcDbEntity
  8
0
  6
Continuous
 62
     8
370
    25
100
AcDbCircle
 10
27.9988821522
 20
10.3915060813
 30
0.0
 40
0.0198069927813635
100
AcDbArc
 50
305.7049844643
 51
5.6178652317
  0
ARC
  5
215
330
1F
100
AcDbEntity
  8
0
  6
Continuous
 62
     8
370
    25
100
AcDbCircle
 10
42.7538906256
 20
18.9089610231
 30
0.0
 40
0.019411142579465
100
AcDbArc
 50
305.0172759429
 51
6.2937785318
  0
ARC
  5
216
330
1F
100
AcDbEntity
  8
0
  6
Continuous
 62
     8
370
    25
100
AcDbCircle
 10
2.5931795129
 20
24.919525531
 30
0.0
 40
0.0194119849568104
100
AcDbArc
 50
173.7076941117
 51
234.9812514135
  0
ARC
  5
217
330
1F
100
AcDbEntity
  8
0
  6
Continuous
 62
     8
370
    25
100
AcDbCircle
 10
42.7594223759
 20
19.1043481652
 30
0.0
 40
0.0178065027694585
100
AcDbArc
 50
62.0801271683
 51
129.4189752442
  0
ELLIPSE
  5
218
330
1F
100
AcDbEntity
  8
0
  6
Continuous
 62
     8
370
    25
100
AcDbEllipse
 10
42.6339902719
 20
19.0234312546
 30
0.0
 11
0.1966347519624065
 21
-0.01482583492035516
 31
0.0
210
0.0
220
0.0
230
1.0
 40
0.6213144054
 41
5.544598682847616
 42
6.295287748168045
  0
ARC
  5
219
330
1F
100
AcDbEntity
  8
0
  6
Continuous
 62
     8
370
    25
100
AcDbCircle
 10
42.7323257237
 20
19.0012676727
 30
0.0
 40
0.0990033115596171
100
AcDbArc
 50
294.3748019701
 51
354.3057225227
  0
ARC
  5
21A
330
1F
100
AcDbEntity
  8
0
  6
Continuous
 62
     8
370
    25
100
AcDbCircle
 10
2.6147492103
 20
25.0118348992
 30
0.0
 40
0.0990085027535175
100
AcDbArc
 50
185.6960722198
 51
245.6229457518
  0
ARC
  5
21B
330
1F
100
AcDbEntity
  8
0
  6
Continuous
 62
     8
370
    25
100
AcDbCircle
 10
2.5900153127
 20
25.1032440282
 30
0.0
 40
0.0181207432063029
100
AcDbArc
 50
60.444923323
 51
116.1464535519
  0
ARC
  5
21C
330
1F
100
AcDbEntity
  8
0
  6
Continuous
 62
     8
370
    25
100
AcDbCircle
 10
17.34460486
 20
33.6208828778
 30
0.0
 40
0.0181257758630393
100
AcDbArc
 50
60.4495222064
 51
116.0993105092
  0
ARC
  5
21D
330
1F
100
AcDbEntity
  8
0
  6
Continuous
 62
     8
370
    25
100
AcDbCircle
 10
17.5879345848
 20
33.6323370155
 30
0.0
 40
0.0207678538161457
100
AcDbArc
 50
68.540544824
 51
124.2198961791
  0
LINE
  5
21E
330
1F
100
AcDbEntity
  8
0
  6
Continuous
 62
     8
370
    25
100
AcDbLine
 10
28.0352984327
 20
9.4513428871
 30
0.0
 11
28.0352984327
 21
10.3897713849
 31
0.0
  0
LINE
  5
21F
330
1F
100
AcDbEntity
  8
0
  6
Continuous
 62
     8
370
    25
100
AcDbLine
 10
28.0909762449
 20
10.4219129778
 30
0.0
 11
28.0909762449
 21
9.4513424082
 31
0.0
  0
LINE
  5
220
330
1F
100
AcDbEntity
  8
0
  6
Continuous
 62
     8
370
    25
100
AcDbLine
 10
12.3314034191
 20
19.1539707745
 30
0.0
 11
12.2573286735
 21
19.1967332149
 31
0.0
  0
LWPOLYLINE
  5
221
330
1F
100
AcDbEntity
  8
0
  6
Continuous
 62
     8
370
    25
100
AcDbPolyline
 90
        5
 70
   128
 43
0.0
 10
12.4858160315
 20
19.1863001461
 10
12.4744479977
 20
19.1627795789
 10
12.436469373
 20
19.135920358
 10
12.3870804016
 20
19.1328136938
 10
12.3314034191
 20
19.1539707745
  0
LINE
  5
222
330
1F
100
AcDbEntity
  8
0
  6
Continuous
 62
     8
370
    25
100
AcDbLine
 10
9.8496833151
 20
20.3660735965
 30
0.0
 11
9.8465081972
 21
20.3976041858
 31
0.0
  0
LINE
  5
223
330
1F
100
AcDbEntity
  8
0
  6
Continuous
 62
     8
370
    25
100
AcDbLine
 10
12.3314034191
 20
18.736056207
 30
0.0
 11
12.2573286735
 21
18.7788186474
 31
0.0
  0
LINE
  5
224
330
1F
100
AcDbEntity
  8
0
  6
Continuous
 62
     8
370
    25
100
AcDbLine
 10
15.3936768644
 20
17.3861579435
 30
0.0
 11
15.3196017039
 21
17.4289206234
 31
0.0
  0
LWPOLYLINE
  5
225
330
1F
100
AcDbEntity
  8
0
  6
Continuous
 62
     8
370
    25
100
AcDbPolyline
 90
        5
 70
   128
 43
0.0
 10
15.5480898916
 20
17.4184870756
 10
15.536721443
 20
17.3949667479
 10
15.498743233
 20
17.3681072876
 10
15.449353432
 20
17.3650011023
 10
15.3936768644
 20
17.3861579435
  0
LINE
  5
226
330
1F
100
AcDbEntity
  8
0
  6
Continuous
 62
     8
370
    25
100
AcDbLine
 10
12.9119563455
 20
18.598261005
 30
0.0
 11
12.9087812276
 21
18.6297915943
 31
0.0
  0
LINE
  5
227
330
1F
100
AcDbEntity
  8
0
  6
Continuous
 62
     8
370
    25
100
AcDbLine
 10
15.3936768644
 20
16.9682433761
 30
0.0
 11
15.3196017039
 21
17.0110060559
 31
0.0
  0
LINE
  5
228
330
1F
100
AcDbEntity
  8
0
  6
Continuous
 62
     8
370
    25
100
AcDbLine
 10
19.0127272902
 20
15.2969246032
 30
0.0
 11
18.9386523372
 21
15.3396871634
 31
0.0
  0
LWPOLYLINE
  5
229
330
1F
100
AcDbEntity
  8
0
  6
Continuous
 62
     8
370
    25
100
AcDbPolyline
 90
        5
 70
   128
 43
0.0
 10
19.1671401619
 20
15.3292538251
 10
19.1557717651
 20
15.3057334675
 10
19.1177935292
 20
15.2788740221
 10
19.0684039616
 20
15.2757677021
 10
19.0127272902
 20
15.2969246032
  0
LINE
  5
22A
330
1F
100
AcDbEntity
  8
0
  6
Continuous
 62
     8
370
    25
100
AcDbLine
 10
16.531006875
 20
16.5090276049
 30
0.0
 11
16.5278317571
 21
16.5405581942
 31
0.0
  0
LINE
  5
22B
330
1F
100
AcDbEntity
  8
0
  6
Continuous
 62
     8
370
    25
100
AcDbLine
 10
19.0127272902
 20
14.8790100358
 30
0.0
 11
18.9386523372
 21
14.9217725959
 31
0.0
  0
LINE
  5
22C
330
1F
100
AcDbEntity
  8
0
  6
Continuous
 62
     8
370
    25
100
AcDbLine
 10
27.1551436381
 20
10.7178775742
 30
0.0
 11
27.1551436381
 21
10.3805982703
 31
0.0
  0
LINE
  5
22D
330
1F
100
AcDbEntity
  8
0
  6
Continuous
 62
     8
370
    25
100
AcDbLine
 10
26.207320336
 20
10.9277650158
 30
0.0
 11
26.207320336
 21
11.2650443198
 31
0.0
  0
LINE
  5
22E
330
1F
100
AcDbEntity
  8
0
  6
Continuous
 62
     8
370
    25
100
AcDbLine
 10
25.137274077
 20
11.7612990011
 30
0.0
 11
25.0631993314
 21
11.8040614415
 31
0.0
  0
LWPOLYLINE
  5
22F
330
1F
100
AcDbEntity
  8
0
  6
Continuous
 62
     8
370
    25
100
AcDbPolyline
 90
        5
 70
   128
 43
0.0
 10
25.2916871042
 20
11.7936281332
 10
25.2803186556
 20
11.7701078055
 10
25.2423404457
 20
11.7432483452
 10
25.1929510595
 20
11.7401419204
 10
25.137274077
 20
11.7612990011
  0
LINE
  5
230
330
1F
100
AcDbEntity
  8
0
  6
Continuous
 62
     8
370
    25
100
AcDbLine
 10
22.6555537655
 20
12.9734019429
 30
0.0
 11
22.6523786476
 21
13.0049325322
 31
0.0
  0
LINE
  5
231
330
1F
100
AcDbEntity
  8
0
  6
Continuous
 62
     8
370
    25
100
AcDbLine
 10
25.137274077
 20
11.3433844337
 30
0.0
 11
25.0631993314
 21
11.3861468741
 31
0.0
  0
LINE
  5
232
330
1F
100
AcDbEntity
  8
0
  6
Continuous
 62
     8
370
    25
100
AcDbLine
 10
41.058312475
 20
16.9372262723
 30
0.0
 11
41.058312475
 21
17.907796842
 31
0.0
  0
ARC
  5
233
330
1F
100
AcDbEntity
  8
0
  6
Continuous
 62
     8
370
    25
100
AcDbCircle
 10
27.1633085935
 20
10.3986285121
 30
0.0
 40
0.0197928299451244
100
AcDbArc
 50
185.6813933399
 51
245.6367095365
  0
ARC
  5
234
330
1F
100
AcDbEntity
  8
0
  6
Continuous
 62
     8
370
    25
100
AcDbCircle
 10
27.1062689757
 20
10.4129303704
 30
0.0
 40
0.0595355938541794
100
AcDbArc
 50
234.4172384271
 51
293.905777926
  0
LINE
  5
235
330
1F
100
AcDbEntity
  8
0
  6
Continuous
 62
     8
370
    25
100
AcDbLine
 10
26.2629977333
 20
11.2329020084
 30
0.0
 11
26.2629977333
 21
10.9277647764
 31
0.0
  0
LINE
  5
236
330
1F
100
AcDbEntity
  8
0
  6
Continuous
 62
     8
370
    25
100
AcDbLine
 10
25.0179868804
 20
11.951631721
 30
0.0
 11
25.0050391694
 21
11.9441571666
 31
0.0
  0
ARC
  5
237
330
1F
100
AcDbEntity
  8
0
  6
Continuous
 62
     8
370
    25
100
AcDbCircle
 10
25.126930465
 20
12.143770269
 30
0.0
 40
0.261859381405874
100
AcDbArc
 50
242.2584638366
 51
272.4950999224
  0
LWPOLYLINE
  5
238
330
1F
100
AcDbEntity
  8
0
  6
Continuous
 62
     8
370
    25
100
AcDbPolyline
 90
        4
 70
   128
 43
0.0
 10
25.1566707536
 20
11.7871558382
 10
25.1746470482
 20
11.7882923442
 10
25.1998297902
 20
11.8069994883
 10
25.2129222773
 20
11.8390986657
  0
ARC
  5
239
330
1F
100
AcDbEntity
  8
0
  6
Continuous
 62
     8
370
    25
100
AcDbCircle
 10
25.1140494161
 20
11.9002781162
 30
0.0
 40
0.1096397268175308
100
AcDbArc
 50
173.85739383
 51
235.0163663058
  0
ARC
  5
23A
330
1F
100
AcDbEntity
  8
0
  6
Continuous
 62
     8
370
    25
100
AcDbCircle
 10
25.0887384644
 20
11.7633629193
 30
0.0
 40
0.0485794755299687
100
AcDbArc
 50
357.5650333631
 51
29.6897466896
  0
LINE
  5
23B
330
1F
100
AcDbEntity
  8
0
  6
Continuous
 62
     8
370
    25
100
AcDbLine
 10
22.7073624472
 20
13.2855268136
 30
0.0
 11
22.6944147362
 21
13.2780522592
 31
0.0
  0
ARC
  5
23C
330
1F
100
AcDbEntity
  8
0
  6
Continuous
 62
     8
370
    25
100
AcDbCircle
 10
22.803546349
 20
13.2341974084
 30
0.0
 40
0.1097578129258312
100
AcDbArc
 50
173.8767332599
 51
234.8106465602
  0
LWPOLYLINE
  5
23D
330
1F
100
AcDbEntity
  8
0
  6
Continuous
 62
     8
370
    25
100
AcDbPolyline
 90
        5
 70
   128
 43
0.0
 10
25.1566707536
 20
11.3692412707
 10
25.1746470482
 20
11.3703777768
 10
25.1998297902
 20
11.3890848909
 10
25.2138751445
 20
11.4235211409
 10
25.2172348623
 20
11.4772948426
  0
ARC
  5
23E
330
1F
100
AcDbEntity
  8
0
  6
Continuous
 62
     8
370
    25
100
AcDbCircle
 10
25.114049702
 20
11.4823636487
 30
0.0
 40
0.1096399971480974
100
AcDbArc
 50
173.8574773083
 51
235.0162828274
  0
ARC
  5
23F
330
1F
100
AcDbEntity
  8
0
  6
Continuous
 62
     8
370
    25
100
AcDbCircle
 10
25.0887390078
 20
11.345448456
 30
0.0
 40
0.0485789370993334
100
AcDbArc
 50
357.5648834091
 51
29.6899267126
  0
ARC
  5
240
330
1F
100
AcDbEntity
  8
0
  6
Continuous
 62
     8
370
    25
100
AcDbCircle
 10
22.8035463555
 20
12.8162828404
 30
0.0
 40
0.1097578162185166
100
AcDbArc
 50
173.8767488843
 51
234.8106436418
  0
ARC
  5
241
330
1F
100
AcDbEntity
  8
0
  6
Continuous
 62
     8
370
    25
100
AcDbCircle
 10
22.729975319
 20
13.3261956327
 30
0.0
 40
0.0878130667704296
100
AcDbArc
 50
185.2078540266
 51
246.1115198068
  0
ARC
  5
242
330
1F
100
AcDbEntity
  8
0
  6
Continuous
 62
     8
370
    25
100
AcDbCircle
 10
22.729975319
 20
12.9082810353
 30
0.0
 40
0.0878130667704296
100
AcDbArc
 50
185.2078540266
 51
246.1115198068
  0
LWPOLYLINE
  5
243
330
1F
100
AcDbEntity
  8
0
  6
Continuous
 62
     8
370
    25
100
AcDbPolyline
 90
        3
 70
   128
 43
0.0
 10
22.6854240999
 20
12.9182006876
 10
22.690273269
 20
12.927626141
 10
22.6996183786
 20
12.9393376413
  0
LWPOLYLINE
  5
244
330
1F
100
AcDbEntity
  8
0
  6
Continuous
 62
     8
370
    25
100
AcDbPolyline
 90
        3
 70
   128
 43
0.0
 10
22.7072502353
 20
12.8879070507
 10
22.7070451013
 20
12.8884547522
 10
22.6996183786
 20
12.9393376413
  0
LWPOLYLINE
  5
245
330
1F
100
AcDbEntity
  8
0
  6
Continuous
 62
     8
370
    25
100
AcDbPolyline
 90
        3
 70
   128
 43
0.0
 10
22.6631213234
 20
12.9972040124
 10
22.6606424997
 20
12.9993170373
 10
22.6523786476
 20
13.0049325322
  0
ARC
  5
246
330
1F
100
AcDbEntity
  8
0
  6
Continuous
 62
     8
370
    25
100
AcDbCircle
 10
22.6675032068
 20
12.9741269857
 30
0.0
 40
0.0473464121491361
100
AcDbArc
 50
312.7111068494
 51
357.4817766255
  0
LINE
  5
247
330
1F
100
AcDbEntity
  8
0
  6
Continuous
 62
     8
370
    25
100
AcDbLine
 10
18.8934400937
 20
15.4872573231
 30
0.0
 11
18.8804923827
 21
15.4797827687
 31
0.0
  0
ARC
  5
248
330
1F
100
AcDbEntity
  8
0
  6
Continuous
 62
     8
370
    25
100
AcDbCircle
 10
19.0023862399
 20
15.6794070274
 30
0.0
 40
0.2618704477943514
100
AcDbArc
 50
242.2591039982
 51
272.4944447616
  0
LWPOLYLINE
  5
249
330
1F
100
AcDbEntity
  8
0
  6
Continuous
 62
     8
370
    25
100
AcDbPolyline
 90
        4
 70
   128
 43
0.0
 10
19.032123915
 20
15.3227814702
 10
19.0501002614
 20
15.3239179463
 10
19.075282796
 20
15.3426252101
 10
19.088375309
 20
15.3747243726
  0
ARC
  5
24A
330
1F
100
AcDbEntity
  8
0
  6
Continuous
 62
     8
370
    25
100
AcDbCircle
 10
18.9895026294
 20
15.4359037183
 30
0.0
 40
0.1096397268175644
100
AcDbArc
 50
173.85739383
 51
235.0163663058
  0
ARC
  5
24B
330
1F
100
AcDbEntity
  8
0
  6
Continuous
 62
     8
370
    25
100
AcDbCircle
 10
18.9641916777
 20
15.2989885214
 30
0.0
 40
0.0485794755298106
100
AcDbArc
 50
357.5650333631
 51
29.6897466896
  0
LINE
  5
24C
330
1F
100
AcDbEntity
  8
0
  6
Continuous
 62
     8
370
    25
100
AcDbLine
 10
16.5828155567
 20
16.8211524756
 30
0.0
 11
16.5698678457
 21
16.8136779211
 31
0.0
  0
ARC
  5
24D
330
1F
100
AcDbEntity
  8
0
  6
Continuous
 62
     8
370
    25
100
AcDbCircle
 10
16.6789994585
 20
16.7698230703
 30
0.0
 40
0.1097578129258007
100
AcDbArc
 50
173.8767332599
 51
234.8106465603
  0
LWPOLYLINE
  5
24E
330
1F
100
AcDbEntity
  8
0
  6
Continuous
 62
     8
370
    25
100
AcDbPolyline
 90
        5
 70
   128
 43
0.0
 10
19.032123915
 20
14.9048669028
 10
19.0501002614
 20
14.9060033788
 10
19.075282796
 20
14.9247106128
 10
19.0893283059
 20
14.9591467729
 10
19.0926881274
 20
15.0129204147
  0
ARC
  5
24F
330
1F
100
AcDbEntity
  8
0
  6
Continuous
 62
     8
370
    25
100
AcDbCircle
 10
18.9895029152
 20
15.0179892508
 30
0.0
 40
0.1096399971481384
100
AcDbArc
 50
173.8574773083
 51
235.0162828274
  0
ARC
  5
250
330
1F
100
AcDbEntity
  8
0
  6
Continuous
 62
     8
370
    25
100
AcDbCircle
 10
18.964192221
 20
14.8810740581
 30
0.0
 40
0.0485789370991822
100
AcDbArc
 50
357.564883409
 51
29.6899267127
  0
ARC
  5
251
330
1F
100
AcDbEntity
  8
0
  6
Continuous
 62
     8
370
    25
100
AcDbCircle
 10
16.678999465
 20
16.3519085024
 30
0.0
 40
0.1097578162184854
100
AcDbArc
 50
173.8767488843
 51
234.8106436418
  0
ARC
  5
252
330
1F
100
AcDbEntity
  8
0
  6
Continuous
 62
     8
370
    25
100
AcDbCircle
 10
16.6054284285
 20
16.8618212947
 30
0.0
 40
0.0878130667704512
100
AcDbArc
 50
185.2078540266
 51
246.1115198067
  0
ARC
  5
253
330
1F
100
AcDbEntity
  8
0
  6
Continuous
 62
     8
370
    25
100
AcDbCircle
 10
16.6054284285
 20
16.4439066973
 30
0.0
 40
0.0878130667704472
100
AcDbArc
 50
185.2078540266
 51
246.1115198067
  0
LWPOLYLINE
  5
254
330
1F
100
AcDbEntity
  8
0
  6
Continuous
 62
     8
370
    25
100
AcDbPolyline
 90
        3
 70
   128
 43
0.0
 10
16.5608772094
 20
16.4538263495
 10
16.5657263786
 20
16.4632518029
 10
16.5750714881
 20
16.4749633033
  0
LWPOLYLINE
  5
255
330
1F
100
AcDbEntity
  8
0
  6
Continuous
 62
     8
370
    25
100
AcDbPolyline
 90
        3
 70
   128
 43
0.0
 10
16.5827033449
 20
16.4235327127
 10
16.5824982108
 20
16.4240804142
 10
16.5750714881
 20
16.4749633033
  0
LWPOLYLINE
  5
256
330
1F
100
AcDbEntity
  8
0
  6
Continuous
 62
     8
370
    25
100
AcDbPolyline
 90
        3
 70
   128
 43
0.0
 10
16.5385744329
 20
16.5328296744
 10
16.5360956092
 20
16.5349426992
 10
16.5278317571
 20
16.5405581942
  0
ARC
  5
257
330
1F
100
AcDbEntity
  8
0
  6
Continuous
 62
     8
370
    25
100
AcDbCircle
 10
16.5429551191
 20
16.5097532035
 30
0.0
 40
0.0473476325934461
100
AcDbArc
 50
312.7117151279
 51
357.481168347
  0
LINE
  5
258
330
1F
100
AcDbEntity
  8
0
  6
Continuous
 62
     8
370
    25
100
AcDbLine
 10
15.2743896678
 20
17.5764906634
 30
0.0
 11
15.2614419568
 21
17.5690161089
 31
0.0
  0
ARC
  5
259
330
1F
100
AcDbEntity
  8
0
  6
Continuous
 62
     8
370
    25
100
AcDbCircle
 10
15.3833332524
 20
17.7686292113
 30
0.0
 40
0.2618593814064836
100
AcDbArc
 50
242.2584638366
 51
272.4950999223
  0
LWPOLYLINE
  5
25A
330
1F
100
AcDbEntity
  8
0
  6
Continuous
 62
     8
370
    25
100
AcDbPolyline
 90
        4
 70
   128
 43
0.0
 10
15.413073541
 20
17.4120147805
 10
15.4310498356
 20
17.4131512866
 10
15.4562321627
 20
17.4318586701
 10
15.4693246498
 20
17.4639578476
  0
ARC
  5
25B
330
1F
100
AcDbEntity
  8
0
  6
Continuous
 62
     8
370
    25
100
AcDbCircle
 10
15.3704522035
 20
17.5251370585
 30
0.0
 40
0.1096397268175634
100
AcDbArc
 50
173.85739383
 51
235.0163663058
  0
ARC
  5
25C
330
1F
100
AcDbEntity
  8
0
  6
Continuous
 62
     8
370
    25
100
AcDbCircle
 10
15.3451412518
 20
17.3882218616
 30
0.0
 40
0.0485794755297826
100
AcDbArc
 50
357.565033363
 51
29.6897466896
  0
LINE
  5
25D
330
1F
100
AcDbEntity
  8
0
  6
Continuous
 62
     8
370
    25
100
AcDbLine
 10
12.9637650271
 20
18.9103858757
 30
0.0
 11
12.9508173162
 21
18.9029113212
 31
0.0
  0
ARC
  5
25E
330
1F
100
AcDbEntity
  8
0
  6
Continuous
 62
     8
370
    25
100
AcDbCircle
 10
13.059948929
 20
18.8590564705
 30
0.0
 40
0.1097578129258106
100
AcDbArc
 50
173.8767332599
 51
234.8106465603
  0
LWPOLYLINE
  5
25F
330
1F
100
AcDbEntity
  8
0
  6
Continuous
 62
     8
370
    25
100
AcDbPolyline
 90
        5
 70
   128
 43
0.0
 10
15.413073541
 20
16.9941002131
 10
15.4310498356
 20
16.9952367191
 10
15.4562321627
 20
17.0139440728
 10
15.4702779319
 20
17.0483800833
 10
15.4736376496
 20
17.1021537849
  0
ARC
  5
260
330
1F
100
AcDbEntity
  8
0
  6
Continuous
 62
     8
370
    25
100
AcDbCircle
 10
15.3704524894
 20
17.1072225911
 30
0.0
 40
0.109639997148109
100
AcDbArc
 50
173.8574773083
 51
235.0162828274
  0
ARC
  5
261
330
1F
100
AcDbEntity
  8
0
  6
Continuous
 62
     8
370
    25
100
AcDbCircle
 10
15.3451417952
 20
16.9703073983
 30
0.0
 40
0.0485789370991811
100
AcDbArc
 50
357.564883409
 51
29.6899267127
  0
ARC
  5
262
330
1F
100
AcDbEntity
  8
0
  6
Continuous
 62
     8
370
    25
100
AcDbCircle
 10
13.0599489354
 20
18.4411419025
 30
0.0
 40
0.1097578162185261
100
AcDbArc
 50
173.8767488843
 51
234.8106436418
  0
ARC
  5
263
330
1F
100
AcDbEntity
  8
0
  6
Continuous
 62
     8
370
    25
100
AcDbCircle
 10
12.9863777716
 20
18.9510546034
 30
0.0
 40
0.0878129315992526
100
AcDbArc
 50
185.207802175
 51
246.1115716583
  0
ARC
  5
264
330
1F
100
AcDbEntity
  8
0
  6
Continuous
 62
     8
370
    25
100
AcDbCircle
 10
12.9863777716
 20
18.533140006
 30
0.0
 40
0.0878129315992579
100
AcDbArc
 50
185.207802175
 51
246.1115716583
  0
LWPOLYLINE
  5
265
330
1F
100
AcDbEntity
  8
0
  6
Continuous
 62
     8
370
    25
100
AcDbPolyline
 90
        3
 70
   128
 43
0.0
 10
12.9418266799
 20
18.5430597497
 10
12.9466760564
 20
18.5524850833
 10
12.9560209585
 20
18.5641967034
  0
LWPOLYLINE
  5
266
330
1F
100
AcDbEntity
  8
0
  6
Continuous
 62
     8
370
    25
100
AcDbPolyline
 90
        3
 70
   128
 43
0.0
 10
12.9636530227
 20
18.5127659931
 10
12.9634476813
 20
18.5133138143
 10
12.9560209585
 20
18.5641967034
  0
LWPOLYLINE
  5
267
330
1F
100
AcDbEntity
  8
0
  6
Continuous
 62
     8
370
    25
100
AcDbPolyline
 90
        3
 70
   128
 43
0.0
 10
12.9195241108
 20
18.6220629548
 10
12.9170450796
 20
18.6241760994
 10
12.9087812276
 20
18.6297915943
  0
ARC
  5
268
330
1F
100
AcDbEntity
  8
0
  6
Continuous
 62
     8
370
    25
100
AcDbCircle
 10
12.9238896974
 20
18.5989938251
 30
0.0
 40
0.0473630406999829
100
AcDbArc
 50
312.7190266156
 51
357.473098839
  0
LINE
  5
269
330
1F
100
AcDbEntity
  8
0
  6
Continuous
 62
     8
370
    25
100
AcDbLine
 10
12.2121162226
 20
19.3443034944
 30
0.0
 11
12.1991685116
 21
19.3368289399
 31
0.0
  0
ARC
  5
26A
330
1F
100
AcDbEntity
  8
0
  6
Continuous
 62
     8
370
    25
100
AcDbCircle
 10
12.3210599817
 20
19.536442822
 30
0.0
 40
0.2618601527866745
100
AcDbArc
 50
242.2585094349
 51
272.495054324
  0
LWPOLYLINE
  5
26B
330
1F
100
AcDbEntity
  8
0
  6
Continuous
 62
     8
370
    25
100
AcDbPolyline
 90
        4
 70
   128
 43
0.0
 10
12.3508000957
 20
19.1798276115
 10
12.3687763903
 20
19.1809641175
 10
12.3939591323
 20
19.1996712616
 10
12.4070512046
 20
19.2317706786
  0
ARC
  5
26C
330
1F
100
AcDbEntity
  8
0
  6
Continuous
 62
     8
370
    25
100
AcDbCircle
 10
12.3081787583
 20
19.2929498895
 30
0.0
 40
0.1096397268175391
100
AcDbArc
 50
173.85739383
 51
235.0163663058
  0
ARC
  5
26D
330
1F
100
AcDbEntity
  8
0
  6
Continuous
 62
     8
370
    25
100
AcDbCircle
 10
12.2828678066
 20
19.1560346926
 30
0.0
 40
0.0485794755300208
100
AcDbArc
 50
357.5650333631
 51
29.6897466895
  0
LINE
  5
26E
330
1F
100
AcDbEntity
  8
0
  6
Continuous
 62
     8
370
    25
100
AcDbLine
 10
9.9014915819
 20
20.6781987067
 30
0.0
 11
9.8885438709
 21
20.6707241522
 31
0.0
  0
ARC
  5
26F
330
1F
100
AcDbEntity
  8
0
  6
Continuous
 62
     8
370
    25
100
AcDbCircle
 10
9.9976754837
 20
20.6268693015
 30
0.0
 40
0.1097578129257966
100
AcDbArc
 50
173.8767332599
 51
234.8106465603
  0
LWPOLYLINE
  5
270
330
1F
100
AcDbEntity
  8
0
  6
Continuous
 62
     8
370
    25
100
AcDbPolyline
 90
        5
 70
   128
 43
0.0
 10
12.3508000957
 20
18.7619130441
 10
12.3687763903
 20
18.7630495501
 10
12.3939591323
 20
18.7817566643
 10
12.4080044866
 20
18.8161929142
 10
12.4113646192
 20
18.8699663765
  0
ARC
  5
271
330
1F
100
AcDbEntity
  8
0
  6
Continuous
 62
     8
370
    25
100
AcDbCircle
 10
12.3081790442
 20
18.875035422
 30
0.0
 40
0.1096399971481488
100
AcDbArc
 50
173.8574773083
 51
235.0162828274
  0
ARC
  5
272
330
1F
100
AcDbEntity
  8
0
  6
Continuous
 62
     8
370
    25
100
AcDbCircle
 10
12.2828683499
 20
18.7381202293
 30
0.0
 40
0.0485789370993923
100
AcDbArc
 50
357.5648834091
 51
29.6899267126
  0
ARC
  5
273
330
1F
100
AcDbEntity
  8
0
  6
Continuous
 62
     8
370
    25
100
AcDbCircle
 10
9.9976754902
 20
20.2089547335
 30
0.0
 40
0.1097578162184903
100
AcDbArc
 50
173.8767488843
 51
234.8106436418
  0
ARC
  5
274
330
1F
100
AcDbEntity
  8
0
  6
Continuous
 62
     8
370
    25
100
AcDbCircle
 10
9.9241025737
 20
20.7188657016
 30
0.0
 40
0.0878106375372079
100
AcDbArc
 50
185.2069602138
 51
246.1121594331
  0
ARC
  5
275
330
1F
100
AcDbEntity
  8
0
  6
Continuous
 62
     8
370
    25
100
AcDbCircle
 10
9.9241025737
 20
20.3009511042
 30
0.0
 40
0.0878106375372085
100
AcDbArc
 50
185.2069602138
 51
246.1121594331
  0
LWPOLYLINE
  5
276
330
1F
100
AcDbEntity
  8
0
  6
Continuous
 62
     8
370
    25
100
AcDbPolyline
 90
        3
 70
   128
 43
0.0
 10
9.8795536494
 20
20.3108723412
 10
9.8844021964
 20
20.3202981538
 10
9.8937475133
 20
20.3320095344
  0
LWPOLYLINE
  5
277
330
1F
100
AcDbEntity
  8
0
  6
Continuous
 62
     8
370
    25
100
AcDbPolyline
 90
        3
 70
   128
 43
0.0
 10
9.9013795775
 20
20.2805788241
 10
9.9011738212
 20
20.2811268847
 10
9.8937475133
 20
20.3320095344
  0
LWPOLYLINE
  5
278
330
1F
100
AcDbEntity
  8
0
  6
Continuous
 62
     8
370
    25
100
AcDbPolyline
 90
        3
 70
   128
 43
0.0
 10
9.8572506656
 20
20.3898757858
 10
9.8547716344
 20
20.3919889304
 10
9.8465081972
 20
20.3976041858
  0
ARC
  5
279
330
1F
100
AcDbEntity
  8
0
  6
Continuous
 62
     8
370
    25
100
AcDbCircle
 10
9.8616362559
 20
20.366796754
 30
0.0
 40
0.047342195733609
100
AcDbArc
 50
312.7093701881
 51
357.4842713064
  0
ENDSEC
  0
SECTION
  2
OBJECTS
  0
DICTIONARY
  5
C
330
0
100
AcDbDictionary
281
     1
  3
ACAD_GROUP
350
D
  3
ACAD_LAYOUT
350
1A
  3
ACAD_MLINESTYLE
350
17
  3
ACAD_PLOTSETTINGS
350
19
  3
ACAD_PLOTSTYLENAME
350
E
  3
ACAD_SCALELIST
350
47
  0
DICTIONARY
  5
D
102
{ACAD_REACTORS
330
C
102
}
330
C
100
AcDbDictionary
281
     1
  0
DICTIONARY
  5
1A
102
{ACAD_REACTORS
330
C
102
}
330
C
100
AcDbDictionary
281
     1
  3
Layout1
350
1E
  3
Layout2
350
26
  3
Model
350
22
  0
DICTIONARY
  5
17
102
{ACAD_REACTORS
330
C
102
}
330
C
100
AcDbDictionary
281
     1
  3
Standard
350
18
  0
DICTIONARY
  5
19
102
{ACAD_REACTORS
330
C
102
}
330
C
100
AcDbDictionary
281
     1
  0
ACDBDICTIONARYWDFLT
  5
E
102
{ACAD_REACTORS
330
C
102
}
330
C
100
AcDbDictionary
281
     1
  3
Normal
350
F
100
AcDbDictionaryWithDefault
340
F
  0
DICTIONARY
  5
47
102
{ACAD_REACTORS
330
C
102
}
330
C
100
AcDbDictionary
281
     1
  3
A0
350
48
  3
A1
350
49
  3
A2
350
4A
  3
A3
350
4B
  3
A4
350
4C
  3
A5
350
4D
  3
A6
350
4E
  3
A7
350
4F
  3
A8
350
50
  3
A9
350
51
  3
B0
350
52
  3
B1
350
53
  3
B2
350
54
  3
B3
350
55
  3
B4
350
56
  3
B5
350
57
  3
B6
350
58
  3
B7
350
59
  3
B8
350
5A
  3
B9
350
5B
  3
C0
350
5C
  3
C1
350
5D
  3
C2
350
5E
  3
C3
350
5F
  3
C4
350
60
  3
C5
350
61
  3
C6
350
62
  3
C7
350
63
  3
C8
350
64
  3
C9
350
65
  3
D0
350
66
  3
D1
350
67
  3
D2
350
68
  0
LAYOUT
  5
1E
102
{ACAD_REACTORS
330
1A
102
}
330
1A
100
AcDbPlotSettings
  1

  2
none_device
  4

  6

 40
0.0
 41
0.0
 42
0.0
 43
0.0
 44
0.0
 45
0.0
 46
0.0
 47
0.0
 48
0.0
 49
0.0
140
0.0
141
0.0
142
1.0
143
1.0
 70
   688
 72
     0
 73
     0
 74
     5
  7

 75
    16
147
1.0
148
0.0
149
0.0
100
AcDbLayout
  1
Layout1
 70
     1
 71
     1
 10
0.0
 20
0.0
 11
12.0
 21
9.0
 12
0.0
 22
0.0
 32
0.0
 14
1.0000000000E+20
 24
1.0000000000E+20
 34
1.0000000000E+20
 15
-1.0000000000E+20
 25
-1.0000000000E+20
 35
-1.0000000000E+20
146
0.0
 13
0.0
 23
0.0
 33
0.0
 16
1.0
 26
0.0
 36
0.0
 17
0.0
 27
1.0
 37
0.0
 76
     0
330
1B
  0
LAYOUT
  5
26
102
{ACAD_REACTORS
330
1A
102
}
330
1A
100
AcDbPlotSettings
  1

  2
none_device
  4

  6

 40
0.0
 41
0.0
 42
0.0
 43
0.0
 44
0.0
 45
0.0
 46
0.0
 47
0.0
 48
0.0
 49
0.0
140
0.0
141
0.0
142
1.0
143
1.0
 70
   688
 72
     0
 73
     0
 74
     5
  7

 75
    16
147
1.0
148
0.0
149
0.0
100
AcDbLayout
  1
Layout2
 70
     1
 71
     2
 10
0.0
 20
0.0
 11
0.0
 21
0.0
 12
0.0
 22
0.0
 32
0.0
 14
0.0
 24
0.0
 34
0.0
 15
0.0
 25
0.0
 35
0.0
146
0.0
 13
0.0
 23
0.0
 33
0.0
 16
1.0
 26
0.0
 36
0.0
 17
0.0
 27
1.0
 37
0.0
 76
     0
330
23
  0
LAYOUT
  5
22
102
{ACAD_REACTORS
330
1A
102
}
330
1A
100
AcDbPlotSettings
  1

  2
none_device
  4
Letter_(8.50_x_11.00_Inches)
  6

 40
6.35
 41
6.35
 42
6.35000508
 43
6.35000508
 44
215.9
 45
279.4
 46
0.0
 47
0.0
 48
0.0
 49
0.0
140
0.0
141
0.0
142
1.0
143
1.0
 70
  1712
 72
     0
 73
     0
 74
     0
  7

 75
     0
147
1.0
148
0.0
149
0.0
100
AcDbLayout
  1
Model
 70
     1
 71
     0
 10
0.0
 20
0.0
 11
45.0
 21
40.0
 12
0.0
 22
0.0
 32
0.0
 14
0.0
 24
0.0
 34
0.0
 15
45.0
 25
40.0
 35
0.0
146
0.0
 13
0.0
 23
0.0
 33
0.0
 16
1.0
 26
0.0
 36
0.0
 17
0.0
 27
1.0
 37
0.0
 76
     0
330
1F
331
29
  0
MLINESTYLE
  5
18
102
{ACAD_REACTORS
330
17
102
}
330
17
100
AcDbMlineStyle
  2
Standard
 70
     0
  3

 62
   256
 51
90.0
 52
90.0
 71
     2
 49
0.5
 62
   256
  6
BYLAYER
 49
-0.5
 62
   256
  6
BYLAYER
  0
ACDBPLACEHOLDER
  5
F
102
{ACAD_REACTORS
330
E
102
}
330
E
  0
SCALE
  5
48
102
{ACAD_REACTORS
330
47
102
}
330
47
100
AcDbScale
 70
     0
300
1:1
140
1.0
141
1.0
290
     1
  0
SCALE
  5
49
102
{ACAD_REACTORS
330
47
102
}
330
47
100
AcDbScale
 70
     0
300
1:2
140
1.0
141
2.0
290
     0
  0
SCALE
  5
4A
102
{ACAD_REACTORS
330
47
102
}
330
47
100
AcDbScale
 70
     0
300
1:4
140
1.0
141
4.0
290
     0
  0
SCALE
  5
4B
102
{ACAD_REACTORS
330
47
102
}
330
47
100
AcDbScale
 70
     0
300
1:5
140
1.0
141
5.0
290
     0
  0
SCALE
  5
4C
102
{ACAD_REACTORS
330
47
102
}
330
47
100
AcDbScale
 70
     0
300
1:8
140
1.0
141
8.0
290
     0
  0
SCALE
  5
4D
102
{ACAD_REACTORS
330
47
102
}
330
47
100
AcDbScale
 70
     0
300
1:10
140
1.0
141
10.0
290
     0
  0
SCALE
  5
4E
102
{ACAD_REACTORS
330
47
102
}
330
47
100
AcDbScale
 70
     0
300
1:16
140
1.0
141
16.0
290
     0
  0
SCALE
  5
4F
102
{ACAD_REACTORS
330
47
102
}
330
47
100
AcDbScale
 70
     0
300
1:20
140
1.0
141
20.0
290
     0
  0
SCALE
  5
50
102
{ACAD_REACTORS
330
47
102
}
330
47
100
AcDbScale
 70
     0
300
1:30
140
1.0
141
30.0
290
     0
  0
SCALE
  5
51
102
{ACAD_REACTORS
330
47
102
}
330
47
100
AcDbScale
 70
     0
300
1:40
140
1.0
141
40.0
290
     0
  0
SCALE
  5
52
102
{ACAD_REACTORS
330
47
102
}
330
47
100
AcDbScale
 70
     0
300
1:50
140
1.0
141
50.0
290
     0
  0
SCALE
  5
53
102
{ACAD_REACTORS
330
47
102
}
330
47
100
AcDbScale
 70
     0
300
1:100
140
1.0
141
100.0
290
     0
  0
SCALE
  5
54
102
{ACAD_REACTORS
330
47
102
}
330
47
100
AcDbScale
 70
     0
300
2:1
140
2.0
141
1.0
290
     0
  0
SCALE
  5
55
102
{ACAD_REACTORS
330
47
102
}
330
47
100
AcDbScale
 70
     0
300
4:1
140
4.0
141
1.0
290
     0
  0
SCALE
  5
56
102
{ACAD_REACTORS
330
47
102
}
330
47
100
AcDbScale
 70
     0
300
8:1
140
8.0
141
1.0
290
     0
  0
SCALE
  5
57
102
{ACAD_REACTORS
330
47
102
}
330
47
100
AcDbScale
 70
     0
300
10:1
140
10.0
141
1.0
290
     0
  0
SCALE
  5
58
102
{ACAD_REACTORS
330
47
102
}
330
47
100
AcDbScale
 70
     0
300
100:1
140
100.0
141
1.0
290
     0
  0
SCALE
  5
59
102
{ACAD_REACTORS
330
47
102
}
330
47
100
AcDbScale
 70
     0
300
1/128" = 1'-0"
140
0.0078125
141
12.0
290
     0
  0
SCALE
  5
5A
102
{ACAD_REACTORS
330
47
102
}
330
47
100
AcDbScale
 70
     0
300
1/64" = 1'-0"
140
0.015625
141
12.0
290
     0
  0
SCALE
  5
5B
102
{ACAD_REACTORS
330
47
102
}
330
47
100
AcDbScale
 70
     0
300
1/32" = 1'-0"
140
0.03125
141
12.0
290
     0
  0
SCALE
  5
5C
102
{ACAD_REACTORS
330
47
102
}
330
47
100
AcDbScale
 70
     0
300
1/16" = 1'-0"
140
0.0625
141
12.0
290
     0
  0
SCALE
  5
5D
102
{ACAD_REACTORS
330
47
102
}
330
47
100
AcDbScale
 70
     0
300
3/32" = 1'-0"
140
0.09375
141
12.0
290
     0
  0
SCALE
  5
5E
102
{ACAD_REACTORS
330
47
102
}
330
47
100
AcDbScale
 70
     0
300
1/8" = 1'-0"
140
0.125
141
12.0
290
     0
  0
SCALE
  5
5F
102
{ACAD_REACTORS
330
47
102
}
330
47
100
AcDbScale
 70
     0
300
3/16" = 1'-0"
140
0.1875
141
12.0
290
     0
  0
SCALE
  5
60
102
{ACAD_REACTORS
330
47
102
}
330
47
100
AcDbScale
 70
     0
300
1/4" = 1'-0"
140
0.25
141
12.0
290
     0
  0
SCALE
  5
61
102
{ACAD_REACTORS
330
47
102
}
330
47
100
AcDbScale
 70
     0
300
3/8" = 1'-0"
140
0.375
141
12.0
290
     0
  0
SCALE
  5
62
102
{ACAD_REACTORS
330
47
102
}
330
47
100
AcDbScale
 70
     0
300
1/2" = 1'-0"
140
0.5
141
12.0
290
     0
  0
SCALE
  5
63
102
{ACAD_REACTORS
330
47
102
}
330
47
100
AcDbScale
 70
     0
300
3/4" = 1'-0"
140
0.75
141
12.0
290
     0
  0
SCALE
  5
64
102
{ACAD_REACTORS
330
47
102
}
330
47
100
AcDbScale
 70
     0
300
1" = 1'-0"
140
1.0
141
12.0
290
     0
  0
SCALE
  5
65
102
{ACAD_REACTORS
330
47
102
}
330
47
100
AcDbScale
 70
     0
300
1-1/2" = 1'-0"
140
1.5
141
12.0
290
     0
  0
SCALE
  5
66
102
{ACAD_REACTORS
330
47
102
}
330
47
100
AcDbScale
 70
     0
300
3" = 1'-0"
140
3.0
141
12.0
290
     0
  0
SCALE
  5
67
102
{ACAD_REACTORS
330
47
102
}
330
47
100
AcDbScale
 70
     0
300
6" = 1'-0"
140
6.0
141
12.0
290
     0
  0
SCALE
  5
68
102
{ACAD_REACTORS
330
47
102
}
330
47
100
AcDbScale
 70
     0
300
1'-0" = 1'-0"
140
12.0
141
12.0
290
     0
  0
ENDSEC
  0
EOF
