  0
SECTION
  2
HEADER
  9
$ACADVER
  1
AC1015
  9
$ACADMAINTVER
 70
     6
  9
$DWGCODEPAGE
  3
ANSI_1252
  9
$INSBASE
 10
0.0
 20
0.0
 30
0.0
  9
$EXTMIN
 10
0.0
 20
0.0
 30
0.0
  9
$EXTMAX
 10
45.0
 20
40.0
 30
0.0
  9
$LIMMIN
 10
0.0
 20
0.0
  9
$LIMMAX
 10
45.0
 20
40.0
  9
$ORTHOMODE
 70
     0
  9
$REGENMODE
 70
     1
  9
$FILLMODE
 70
     1
  9
$QTEXTMODE
 70
     0
  9
$MIRRTEXT
 70
     1
  9
$LTSCALE
 40
1.0
  9
$ATTMODE
 70
     1
  9
$TEXTSIZE
 40
0.125
  9
$TRACEWID
 40
0.05
  9
$TEXTSTYLE
  7
Standard
  9
$CLAYER
  8
0
  9
$CELTYPE
  6
ByLayer
  9
$CECOLOR
 62
   256
  9
$CELTSCALE
 40
1.0
  9
$DISPSILH
 70
     0
  9
$DIMSCALE
 40
1.0
  9
$DIMASZ
 40
0.13
  9
$DIMEXO
 40
0.05
  9
$DIMDLI
 40
0.38
  9
$DIMRND
 40
0.0
  9
$DIMDLE
 40
0.0
  9
$DIMEXE
 40
0.125
  9
$DIMTP
 40
0.0
  9
$DIMTM
 40
0.0
  9
$DIMTXT
 40
0.125
  9
$DIMCEN
 40
0.09
  9
$DIMTSZ
 40
0.0
  9
$DIMTOL
 70
     0
  9
$DIMLIM
 70
     0
  9
$DIMTIH
 70
     1
  9
$DIMTOH
 70
     1
  9
$DIMSE1
 70
     0
  9
$DIMSE2
 70
     0
  9
$DIMTAD
 70
     0
  9
$DIMZIN
 70
     0
  9
$DIMBLK
  1

  9
$DIMASO
 70
     1
  9
$DIMSHO
 70
     1
  9
$DIMPOST
  1

  9
$DIMAPOST
  1

  9
$DIMALT
 70
     0
  9
$DIMALTD
 70
     2
  9
$DIMALTF
 40
25.4
  9
$DIMLFAC
 40
1.0
  9
$DIMTOFL
 70
     0
  9
$DIMTVP
 40
0.0
  9
$DIMTIX
 70
     0
  9
$DIMSOXD
 70
     0
  9
$DIMSAH
 70
     0
  9
$DIMBLK1
  1

  9
$DIMBLK2
  1

  9
$DIMSTYLE
  2
Standard
  9
$DIMCLRD
 70
     0
  9
$DIMCLRE
 70
     0
  9
$DIMCLRT
 70
     0
  9
$DIMTFAC
 40
1.0
  9
$DIMGAP
 40
0.06
  9
$DIMJUST
 70
     0
  9
$DIMSD1
 70
     0
  9
$DIMSD2
 70
     0
  9
$DIMTOLJ
 70
     1
  9
$DIMTZIN
 70
     0
  9
$DIMALTZ
 70
     0
  9
$DIMALTTZ
 70
     0
  9
$DIMUPT
 70
     0
  9
$DIMDEC
 70
     2
  9
$DIMTDEC
 70
     2
  9
$DIMALTU
 70
     2
  9
$DIMALTTD
 70
     2
  9
$DIMTXSTY
  7
Standard
  9
$DIMAUNIT
 70
     0
  9
$DIMADEC
 70
     2
  9
$DIMALTRND
 40
0.0
  9
$DIMAZIN
 70
     0
  9
$DIMDSEP
 70
    46
  9
$DIMATFIT
 70
     3
  9
$DIMFRAC
 70
     0
  9
$DIMLDRBLK
  1

  9
$DIMLUNIT
 70
     2
  9
$DIMLWD
 70
    -2
  9
$DIMLWE
 70
    -2
  9
$DIMTMOVE
 70
     0
  9
$LUNITS
 70
     2
  9
$LUPREC
 70
     2
  9
$SKETCHINC
 40
0.1
  9
$FILLETRAD
 40
0.5
  9
$AUNITS
 70
     0
  9
$AUPREC
 70
     2
  9
$MENU
  1
.
  9
$ELEVATION
 40
0.0
  9
$PELEVATION
 40
0.0
  9
$THICKNESS
 40
0.0
  9
$LIMCHECK
 70
     0
  9
$CHAMFERA
 40
0.0
  9
$CHAMFERB
 40
0.0
  9
$CHAMFERC
 40
0.0
  9
$CHAMFERD
 40
0.0
  9
$SKPOLY
 70
     0
  9
$TDCREATE
 40
2458813.419322604
  9
$TDUCREATE
 40
2458813.752655937
  9
$TDUPDATE
 40
2458813.419323148
  9
$TDUUPDATE
 40
2458813.752656482
  9
$TDINDWG
 40
0.0000000116
  9
$TDUSRTIMER
 40
0.0000000116
  9
$USRTIMER
 70
     1
  9
$ANGBASE
 50
0.0
  9
$ANGDIR
 70
     0
  9
$PDMODE
 70
     0
  9
$PDSIZE
 40
-1.0
  9
$PLINEWID
 40
0.0
  9
$SPLFRAME
 70
     0
  9
$SPLINETYPE
 70
     6
  9
$SPLINESEGS
 70
     8
  9
$HANDSEED
  5
1D4
  9
$SURFTAB1
 70
     6
  9
$SURFTAB2
 70
     6
  9
$SURFTYPE
 70
     6
  9
$SURFU
 70
     6
  9
$SURFV
 70
     6
  9
$UCSBASE
  2

  9
$UCSNAME
  2

  9
$UCSORG
 10
0.0
 20
0.0
 30
0.0
  9
$UCSXDIR
 10
1.0
 20
0.0
 30
0.0
  9
$UCSYDIR
 10
0.0
 20
1.0
 30
0.0
  9
$UCSORTHOREF
  2

  9
$UCSORTHOVIEW
 70
     0
  9
$UCSORGTOP
 10
0.0
 20
0.0
 30
0.0
  9
$UCSORGBOTTOM
 10
0.0
 20
0.0
 30
0.0
  9
$UCSORGLEFT
 10
0.0
 20
0.0
 30
0.0
  9
$UCSORGRIGHT
 10
0.0
 20
0.0
 30
0.0
  9
$UCSORGFRONT
 10
0.0
 20
0.0
 30
0.0
  9
$UCSORGBACK
 10
0.0
 20
0.0
 30
0.0
  9
$PUCSBASE
  2

  9
$PUCSNAME
  2

  9
$PUCSORG
 10
0.0
 20
0.0
 30
0.0
  9
$PUCSXDIR
 10
1.0
 20
0.0
 30
0.0
  9
$PUCSYDIR
 10
0.0
 20
1.0
 30
0.0
  9
$PUCSORTHOREF
  2

  9
$PUCSORTHOVIEW
 70
     0
  9
$PUCSORGTOP
 10
0.0
 20
0.0
 30
0.0
  9
$PUCSORGBOTTOM
 10
0.0
 20
0.0
 30
0.0
  9
$PUCSORGLEFT
 10
0.0
 20
0.0
 30
0.0
  9
$PUCSORGRIGHT
 10
0.0
 20
0.0
 30
0.0
  9
$PUCSORGFRONT
 10
0.0
 20
0.0
 30
0.0
  9
$PUCSORGBACK
 10
0.0
 20
0.0
 30
0.0
  9
$USERI1
 70
     0
  9
$USERI2
 70
     0
  9
$USERI3
 70
     0
  9
$USERI4
 70
     0
  9
$USERI5
 70
     0
  9
$USERR1
 40
0.0
  9
$USERR2
 40
0.0
  9
$USERR3
 40
0.0
  9
$USERR4
 40
0.0
  9
$USERR5
 40
0.0
  9
$WORLDVIEW
 70
     1
  9
$SHADEDGE
 70
     3
  9
$SHADEDIF
 70
    70
  9
$TILEMODE
 70
     1
  9
$MAXACTVP
 70
    64
  9
$PINSBASE
 10
0.0
 20
0.0
 30
0.0
  9
$PLIMCHECK
 70
     0
  9
$PEXTMIN
 10
1.0000000000E+20
 20
1.0000000000E+20
 30
1.0000000000E+20
  9
$PEXTMAX
 10
-1.0000000000E+20
 20
-1.0000000000E+20
 30
-1.0000000000E+20
  9
$PLIMMIN
 10
0.0
 20
0.0
  9
$PLIMMAX
 10
12.0
 20
9.0
  9
$UNITMODE
 70
     0
  9
$VISRETAIN
 70
     1
  9
$PLINEGEN
 70
     0
  9
$PSLTSCALE
 70
     1
  9
$TREEDEPTH
 70
  3020
  9
$CMLSTYLE
  2
Standard
  9
$CMLJUST
 70
     0
  9
$CMLSCALE
 40
1.0
  9
$PROXYGRAPHICS
 70
     1
  9
$MEASUREMENT
 70
     0
  9
$CELWEIGHT
370
    -1
  9
$ENDCAPS
280
     0
  9
$JOINSTYLE
280
     0
  9
$LWDISPLAY
290
     1
  9
$INSUNITS
 70
     1
  9
$HYPERLINKBASE
  1

  9
$STYLESHEET
  1

  9
$XEDIT
290
     1
  9
$CEPSNTYPE
380
     0
  9
$PSTYLEMODE
290
     1
  9
$FINGERPRINTGUID
  2
{A302079D-AF2A-4E3A-B9C0-BBA911A95CF8}
  9
$VERSIONGUID
  2
{FAEB1C32-E019-11D5-929B-00C0DF256EC4}
  9
$EXTNAMES
290
     1
  9
$PSVPSCALE
 40
0.0
  9
$OLESTARTUP
290
     0
  0
ENDSEC
  0
SECTION
  2
CLASSES
  0
CLASS
  1
ACDBDICTIONARYWDFLT
  2
AcDbDictionaryWithDefault
  3
ObjectDBX Classes
 90
        0
280
     0
281
     0
  0
CLASS
  1
VISUALSTYLE
  2
AcDbVisualStyle
  3
ObjectDBX Classes
 90
     4095
280
     0
281
     0
  0
CLASS
  1
MATERIAL
  2
AcDbMaterial
  3
ObjectDBX Classes
 90
     1153
280
     0
281
     0
  0
CLASS
  1
SCALE
  2
AcDbScale
  3
ObjectDBX Classes
 90
     1153
280
     0
281
     0
  0
CLASS
  1
TABLESTYLE
  2
AcDbTableStyle
  3
ObjectDBX Classes
 90
     4095
280
     0
281
     0
  0
CLASS
  1
MLEADERSTYLE
  2
AcDbMLeaderStyle
  3
ACDB_MLEADERSTYLE_CLASS
 90
     4095
280
     0
281
     0
  0
CLASS
  1
SUN
  2
AcDbSun
  3
SCENEOE
 90
     1153
280
     0
281
     0
  0
CLASS
  1
ACDBPLACEHOLDER
  2
AcDbPlaceHolder
  3
ObjectDBX Classes
 90
        0
280
     0
281
     0
  0
CLASS
  1
LAYOUT
  2
AcDbLayout
  3
ObjectDBX Classes
 90
        0
280
     0
281
     0
  0
ENDSEC
  0
SECTION
  2
TABLES
  0
TABLE
  2
VPORT
  5
8
330
0
100
AcDbSymbolTable
 70
     1
  0
VPORT
  5
29
330
8
100
AcDbSymbolTableRecord
100
AcDbViewportTableRecord
  2
*Active
 70
     0
 10
0.0
 20
0.0
 11
1.0
 21
1.0
 12
22.5
 22
20.0
 13
0.0
 23
0.0
 14
0.5
 24
0.5
 15
0.5
 25
0.5
 16
0.0
 26
0.0
 36
1.0
 17
0.0
 27
0.0
 37
0.0
 40
40.0
 41
1.125
 42
50.0
 43
0.0
 44
0.0
 50
0.0
 51
0.0
 71
     0
 72
  2000
 73
     1
 74
     3
 75
     0
 76
     0
 77
     0
 78
     0
281
     0
 65
     1
110
0.0
120
0.0
130
0.0
111
1.0
121
0.0
131
0.0
112
0.0
122
1.0
132
0.0
 79
     0
146
0.0
  0
ENDTAB
  0
TABLE
  2
LTYPE
  5
5
330
0
100
AcDbSymbolTable
 70
     6
  0
LTYPE
  5
14
330
5
100
AcDbSymbolTableRecord
100
AcDbLinetypeTableRecord
  2
ByBlock
 70
     0
  3

 72
    65
 73
     0
 40
0.0
  0
LTYPE
  5
15
330
5
100
AcDbSymbolTableRecord
100
AcDbLinetypeTableRecord
  2
ByLayer
 70
     0
  3

 72
    65
 73
     0
 40
0.0
  0
LTYPE
  5
16
330
5
100
AcDbSymbolTableRecord
100
AcDbLinetypeTableRecord
  2
Continuous
 70
     0
  3
Solid line
 72
    65
 73
     0
 40
0.0
  0
LTYPE
  5
6E
330
5
100
AcDbSymbolTableRecord
100
AcDbLinetypeTableRecord
  2
HIDDEN
 70
     0
  3
Hidden __ __ __ __ __ __ __ __ __ __ __ __ __ __
 72
    65
 73
     2
 40
0.075
 49
0.05
 74
     0
 49
-0.025
 74
     0
  0
LTYPE
  5
6F
330
5
100
AcDbSymbolTableRecord
100
AcDbLinetypeTableRecord
  2
PHANTOM
 70
     0
  3
Phantom ______  __  __  ______  __  __  ______
 72
    65
 73
     6
 40
0.5
 49
0.25
 74
     0
 49
-0.05
 74
     0
 49
0.05
 74
     0
 49
-0.05
 74
     0
 49
0.05
 74
     0
 49
-0.05
 74
     0
  0
LTYPE
  5
70
330
5
100
AcDbSymbolTableRecord
100
AcDbLinetypeTableRecord
  2
CENTER
 70
     0
  3
Center ____ _ ____ _ ____ _ ____ _ ____ _ ____
 72
    65
 73
     4
 40
0.4
 49
0.25
 74
     0
 49
-0.05
 74
     0
 49
0.05
 74
     0
 49
-0.05
 74
     0
  0
LTYPE
  5
71
330
5
100
AcDbSymbolTableRecord
100
AcDbLinetypeTableRecord
  2
CENTERX2
 70
     0
  3
Center (2x) ________  __  ________  __  _____
 72
    65
 73
     4
 40
0.8
 49
0.5
 74
     0
 49
-0.1
 74
     0
 49
0.1
 74
     0
 49
-0.1
 74
     0
  0
LTYPE
  5
72
330
5
100
AcDbSymbolTableRecord
100
AcDbLinetypeTableRecord
  2
DOT2
 70
     0
  3
Dot (.5x) ........................................
 72
    65
 73
     2
 40
0.025
 49
0.0
 74
     0
 49
-0.025
 74
     0
  0
ENDTAB
  0
TABLE
  2
LAYER
  5
2
330
0
100
AcDbSymbolTable
 70
     1
  0
LAYER
  5
10
330
2
100
AcDbSymbolTableRecord
100
AcDbLayerTableRecord
  2
0
 70
     0
 62
     7
  6
Continuous
370
    -3
390
F
  0
ENDTAB
  0
TABLE
  2
STYLE
  5
3
330
0
100
AcDbSymbolTable
 70
     1
  0
STYLE
  5
11
330
3
100
AcDbSymbolTableRecord
100
AcDbTextStyleTableRecord
  2
Standard
 70
     0
 40
0.0
 41
1.0
 50
0.0
 71
     0
 42
0.125
  3
txt
  4

  0
ENDTAB
  0
TABLE
  2
VIEW
  5
6
330
0
100
AcDbSymbolTable
 70
     0
  0
ENDTAB
  0
TABLE
  2
UCS
  5
7
330
0
100
AcDbSymbolTable
 70
     0
  0
ENDTAB
  0
TABLE
  2
APPID
  5
9
330
0
100
AcDbSymbolTable
 70
     1
  0
APPID
  5
12
330
9
100
AcDbSymbolTableRecord
100
AcDbRegAppTableRecord
  2
ACAD
 70
     0
  0
ENDTAB
  0
TABLE
  2
DIMSTYLE
  5
A
330
0
100
AcDbSymbolTable
 70
     1
100
AcDbDimStyleTable
  0
DIMSTYLE
105
27
330
A
100
AcDbSymbolTableRecord
100
AcDbDimStyleTableRecord
  2
Standard
 70
     0
178
     0
340
11
  0
ENDTAB
  0
TABLE
  2
BLOCK_RECORD
  5
1
330
0
100
AcDbSymbolTable
 70
     1
  0
BLOCK_RECORD
  5
1F
330
1
100
AcDbSymbolTableRecord
100
AcDbBlockTableRecord
  2
*Model_Space
340
22
  0
BLOCK_RECORD
  5
1B
330
1
100
AcDbSymbolTableRecord
100
AcDbBlockTableRecord
  2
*Paper_Space
340
1E
  0
BLOCK_RECORD
  5
23
330
1
100
AcDbSymbolTableRecord
100
AcDbBlockTableRecord
  2
*Paper_Space0
340
26
  0
ENDTAB
  0
ENDSEC
  0
SECTION
  2
BLOCKS
  0
BLOCK
  5
20
330
1F
100
AcDbEntity
  8
0
100
AcDbBlockBegin
  2
*Model_Space
 70
     0
 10
0.0
 20
0.0
 30
0.0
  3
*Model_Space
  1

  0
ENDBLK
  5
21
330
1F
100
AcDbEntity
  8
0
100
AcDbBlockEnd
  0
BLOCK
  5
1C
330
1B
100
AcDbEntity
 67
     1
  8
0
100
AcDbBlockBegin
  2
*Paper_Space
 70
     0
 10
0.0
 20
0.0
 30
0.0
  3
*Paper_Space
  1

  0
ENDBLK
  5
1D
330
1B
100
AcDbEntity
 67
     1
  8
0
100
AcDbBlockEnd
  0
BLOCK
  5
24
330
23
100
AcDbEntity
  8
0
100
AcDbBlockBegin
  2
*Paper_Space0
 70
     0
 10
0.0
 20
0.0
 30
0.0
  3
*Paper_Space0
  1

  0
ENDBLK
  5
25
330
23
100
AcDbEntity
  8
0
100
AcDbBlockEnd
  0
ENDSEC
  0
SECTION
  2
ENTITIES
  0
LINE
  5
73
330
1F
100
AcDbEntity
  8
0
  6
Continuous
 62
     7
370
    25
100
AcDbLine
 10
22.7599212173
 20
17.7109970322
 30
0.0
 11
22.7599212173
 21
17.781862311
 31
0.0
  0
LINE
  5
74
330
1F
100
AcDbEntity
  8
0
  6
Continuous
 62
     7
370
    25
100
AcDbLine
 10
22.555195689
 20
17.781862311
 30
0.0
 11
22.555195689
 21
17.7109970322
 31
0.0
  0
LINE
  5
75
330
1F
100
AcDbEntity
  8
0
  6
Continuous
 62
     7
370
    25
100
AcDbLine
 10
31.5551955069
 20
17.651941831
 30
0.0
 11
31.5551955069
 21
17.6716268736
 31
0.0
  0
ARC
  5
76
330
1F
100
AcDbEntity
  8
0
  6
Continuous
 62
     7
370
    25
100
AcDbCircle
 10
31.0217212161
 20
17.5338316039
 30
0.0
 40
0.1181102362204705
100
AcDbArc
 50
89.9999999522
 51
134.9999999522
  0
LINE
  5
77
330
1F
100
AcDbEntity
  8
0
  6
Continuous
 62
     7
370
    25
100
AcDbLine
 10
30.6588267152
 20
17.3379704414
 30
0.0
 11
30.9382047144
 21
17.6173481473
 31
0.0
  0
ARC
  5
78
330
1F
100
AcDbEntity
  8
0
  6
Continuous
 62
     7
370
    25
100
AcDbCircle
 10
30.5613909737
 20
17.4354064074
 30
0.0
 40
0.1377952755905553
100
AcDbArc
 50
269.9999999522
 51
314.9999999522
  0
LINE
  5
79
330
1F
100
AcDbEntity
  8
0
  6
Continuous
 62
     7
370
    25
100
AcDbLine
 10
31.6536217832
 20
19.7936440399
 30
0.0
 11
31.6536217832
 21
18.0692647451
 31
0.0
  0
LINE
  5
7A
330
1F
100
AcDbEntity
  8
0
  6
Continuous
 62
     7
370
    25
100
AcDbLine
 10
31.6536217832
 20
18.0692647451
 30
0.0
 11
31.6142516247
 21
18.0692647451
 31
0.0
  0
LINE
  5
7B
330
1F
100
AcDbEntity
  8
0
  6
Continuous
 62
     7
370
    25
100
AcDbLine
 10
31.6024404011
 20
17.7109962072
 30
0.0
 11
31.6024404011
 21
17.671626122
 31
0.0
  0
LINE
  5
7C
330
1F
100
AcDbEntity
  8
0
  6
Continuous
 62
     7
370
    25
100
AcDbLine
 10
31.6024404011
 20
17.671626122
 30
0.0
 11
22.8150390873
 21
17.6716260853
 31
0.0
  0
LINE
  5
7D
330
1F
100
AcDbEntity
  8
0
  6
Continuous
 62
     7
370
    25
100
AcDbLine
 10
22.8150390873
 20
17.7109961705
 30
0.0
 11
22.8150390873
 21
17.6716260853
 31
0.0
  0
LINE
  5
7E
330
1F
100
AcDbEntity
  8
0
  6
Continuous
 62
     7
370
    25
100
AcDbLine
 10
22.8150390873
 20
17.7109961705
 30
0.0
 11
31.6024404011
 21
17.7109962072
 31
0.0
  0
LINE
  5
7F
330
1F
100
AcDbEntity
  8
0
  6
Continuous
 62
     7
370
    25
100
AcDbLine
 10
13.2874794971
 20
17.7109961338
 30
0.0
 11
22.5000778191
 21
17.7109961705
 31
0.0
  0
LINE
  5
80
330
1F
100
AcDbEntity
  8
0
  6
Continuous
 62
     7
370
    25
100
AcDbLine
 10
13.2874794971
 20
17.7109961338
 30
0.0
 11
13.2874794971
 21
18.0692647451
 31
0.0
  0
LINE
  5
81
330
1F
100
AcDbEntity
  8
0
  6
Continuous
 62
     7
370
    25
100
AcDbLine
 10
13.2756688602
 20
18.0692647451
 30
0.0
 11
13.2874794971
 21
18.0692647451
 31
0.0
  0
LINE
  5
82
330
1F
100
AcDbEntity
  8
0
  6
Continuous
 62
     7
370
    25
100
AcDbLine
 10
22.8150390873
 20
17.7109961705
 30
0.0
 11
22.8150390873
 21
17.781862311
 31
0.0
  0
LINE
  5
83
330
1F
100
AcDbEntity
  8
0
  6
Continuous
 62
     7
370
    25
100
AcDbLine
 10
22.5000778191
 20
17.781862311
 30
0.0
 11
22.8150390873
 21
17.781862311
 31
0.0
  0
LINE
  5
84
330
1F
100
AcDbEntity
  8
0
  6
Continuous
 62
     7
370
    25
100
AcDbLine
 10
22.5000778191
 20
17.781862311
 30
0.0
 11
22.5000778191
 21
17.7109961705
 31
0.0
  0
LINE
  5
85
330
1F
100
AcDbEntity
  8
0
  6
Continuous
 62
     7
370
    25
100
AcDbLine
 10
31.6024404011
 20
18.0692647451
 30
0.0
 11
31.6024404011
 21
17.7109962072
 31
0.0
  0
LINE
  5
86
330
1F
100
AcDbEntity
  8
0
  6
Continuous
 62
     7
370
    25
100
AcDbLine
 10
31.6142516247
 20
18.0692647451
 30
0.0
 11
31.6024404011
 21
18.0692647451
 31
0.0
  0
CIRCLE
  5
87
330
1F
100
AcDbEntity
  8
0
  6
Continuous
 62
     7
370
    25
100
AcDbCircle
 10
29.7874758763
 20
20.0318765341
 30
0.0
 40
0.0629921259842519
  0
CIRCLE
  5
88
330
1F
100
AcDbEntity
  8
0
  6
Continuous
 62
     7
370
    25
100
AcDbCircle
 10
22.7008617031
 20
20.0318765341
 30
0.0
 40
0.0629921259842554
  0
LINE
  5
89
330
1F
100
AcDbEntity
  8
0
  6
Continuous
 62
     7
370
    25
100
AcDbLine
 10
13.2874794971
 20
17.671626067
 30
0.0
 11
13.2874794971
 21
17.7109961338
 31
0.0
  0
LINE
  5
8A
330
1F
100
AcDbEntity
  8
0
  6
Continuous
 62
     7
370
    25
100
AcDbLine
 10
22.5000778191
 20
17.6716260853
 30
0.0
 11
13.2874794971
 21
17.671626067
 31
0.0
  0
LINE
  5
8B
330
1F
100
AcDbEntity
  8
0
  6
Continuous
 62
     7
370
    25
100
AcDbLine
 10
22.5000778191
 20
17.6716260853
 30
0.0
 11
22.5000778191
 21
17.7109961705
 31
0.0
  0
CIRCLE
  5
8C
330
1F
100
AcDbEntity
  8
0
  6
Continuous
 62
     7
370
    25
100
AcDbCircle
 10
15.6142475298
 20
20.0318765341
 30
0.0
 40
0.0629921259842554
  0
LINE
  5
8D
330
1F
100
AcDbEntity
  8
0
  6
Continuous
 62
     7
370
    25
100
AcDbLine
 10
13.2362992884
 20
18.0692647451
 30
0.0
 11
13.2362992884
 21
19.7936440399
 31
0.0
  0
LINE
  5
8E
330
1F
100
AcDbEntity
  8
0
  6
Continuous
 62
     7
370
    25
100
AcDbLine
 10
13.2756688602
 20
18.0692647451
 30
0.0
 11
13.2362992884
 21
18.0692647451
 31
0.0
  0
ARC
  5
8F
330
1F
100
AcDbEntity
  8
0
  6
Continuous
 62
     7
370
    25
100
AcDbCircle
 10
31.6575586394
 20
17.7109961913
 30
0.0
 40
0.0393700787401592
100
AcDbArc
 50
270.0
 51
0.0
  0
LINE
  5
90
330
1F
100
AcDbEntity
  8
0
  6
Continuous
 62
     7
370
    25
100
AcDbLine
 10
31.6575588577
 20
17.7109970138
 30
0.0
 11
31.6575588577
 21
19.7936440399
 31
0.0
  0
LINE
  5
91
330
1F
100
AcDbEntity
  8
0
  6
Continuous
 62
     7
370
    25
100
AcDbLine
 10
31.6969284296
 20
17.7109961888
 30
0.0
 11
31.6969284296
 21
19.7936440399
 31
0.0
  0
LINE
  5
92
330
1F
100
AcDbEntity
  8
0
  6
Continuous
 62
     7
370
    25
100
AcDbLine
 10
31.6024404011
 20
17.671626287
 30
0.0
 11
31.6575588577
 21
17.6716261036
 31
0.0
  0
LINE
  5
93
330
1F
100
AcDbEntity
  8
0
  6
Continuous
 62
     7
370
    25
100
AcDbLine
 10
31.6024404011
 20
17.7109970322
 30
0.0
 11
31.6575588577
 21
17.7109970138
 31
0.0
  0
ARC
  5
94
330
1F
100
AcDbEntity
  8
0
  6
Continuous
 62
     7
370
    25
100
AcDbCircle
 10
13.232361789
 20
17.7109962063
 30
0.0
 40
0.0393700787401574
100
AcDbArc
 50
180.0
 51
270.0000002071
  0
LINE
  5
95
330
1F
100
AcDbEntity
  8
0
  6
Continuous
 62
     7
370
    25
100
AcDbLine
 10
13.1929920553
 20
17.7109962072
 30
0.0
 11
13.1929920553
 21
19.7936440399
 31
0.0
  0
LINE
  5
96
330
1F
100
AcDbEntity
  8
0
  6
Continuous
 62
     7
370
    25
100
AcDbLine
 10
13.2323616272
 20
17.7109970322
 30
0.0
 11
13.2323616272
 21
19.7936440399
 31
0.0
  0
LINE
  5
97
330
1F
100
AcDbEntity
  8
0
  6
Continuous
 62
     7
370
    25
100
AcDbLine
 10
13.2874794971
 20
17.6716262136
 30
0.0
 11
13.2323616272
 21
17.671626122
 31
0.0
  0
LINE
  5
98
330
1F
100
AcDbEntity
  8
0
  6
Continuous
 62
     7
370
    25
100
AcDbLine
 10
13.2874794971
 20
17.7109970322
 30
0.0
 11
13.2323616272
 21
17.7109970322
 31
0.0
  0
LINE
  5
99
330
1F
100
AcDbEntity
  8
0
  6
Continuous
 62
     7
370
    25
100
AcDbLine
 10
22.7362987702
 20
17.6716261036
 30
0.0
 11
22.7362987702
 21
17.7109970322
 31
0.0
  0
LINE
  5
9A
330
1F
100
AcDbEntity
  8
0
  6
Continuous
 62
     7
370
    25
100
AcDbLine
 10
22.8150390873
 20
17.6716261036
 30
0.0
 11
22.7362987702
 21
17.6716261036
 31
0.0
  0
LINE
  5
9B
330
1F
100
AcDbEntity
  8
0
  6
Continuous
 62
     7
370
    25
100
AcDbLine
 10
22.7362987702
 20
17.7109970322
 30
0.0
 11
22.8150390873
 21
17.7109970322
 31
0.0
  0
LINE
  5
9C
330
1F
100
AcDbEntity
  8
0
  6
Continuous
 62
     7
370
    25
100
AcDbLine
 10
22.5788181361
 20
17.6716261036
 30
0.0
 11
22.5788181361
 21
17.7109970322
 31
0.0
  0
LINE
  5
9D
330
1F
100
AcDbEntity
  8
0
  6
Continuous
 62
     7
370
    25
100
AcDbLine
 10
22.5788181361
 20
17.6716261036
 30
0.0
 11
22.5000778191
 21
17.6716261036
 31
0.0
  0
LINE
  5
9E
330
1F
100
AcDbEntity
  8
0
  6
Continuous
 62
     7
370
    25
100
AcDbLine
 10
22.5000778191
 20
17.7109970322
 30
0.0
 11
22.5788181361
 21
17.7109970322
 31
0.0
  0
LINE
  5
9F
330
1F
100
AcDbEntity
  8
0
  6
Continuous
 62
     7
370
    25
100
AcDbLine
 10
22.7362987702
 20
17.6716261036
 30
0.0
 11
22.5788181361
 21
17.6716261036
 31
0.0
  0
LINE
  5
A0
330
1F
100
AcDbEntity
  8
0
  6
Continuous
 62
     7
370
    25
100
AcDbLine
 10
22.5788181361
 20
17.7109970322
 30
0.0
 11
22.7362987702
 21
17.7109970322
 31
0.0
  0
LWPOLYLINE
  5
A1
330
1F
100
AcDbEntity
  8
0
  6
Continuous
 62
     7
370
    25
100
AcDbPolyline
 90
        6
 70
   128
 43
0.0
 10
22.6575584532
 20
17.6716261403
 10
22.6205812803
 20
17.6716261403
 10
22.5885977565
 20
17.6716261403
 10
22.565928045
 20
17.6716261403
 10
22.5556333373
 20
17.6716261403
 10
22.5551968623
 20
17.671626122
  0
LINE
  5
A2
330
1F
100
AcDbEntity
  8
0
  6
Continuous
 62
     7
370
    25
100
AcDbLine
 10
22.7599212173
 20
17.6716261403
 30
0.0
 11
22.6575584532
 21
17.6716261403
 31
0.0
  0
LWPOLYLINE
  5
A3
330
1F
100
AcDbEntity
  8
0
  6
Continuous
 62
     7
370
    25
100
AcDbPolyline
 90
        9
 70
   128
 43
0.0
 10
20.3021377699
 20
17.671626287
 10
20.3017587876
 20
17.671626287
 10
20.3006382672
 20
17.671626287
 10
20.2988196215
 20
17.671626287
 10
20.2963720765
 20
17.671626287
 10
20.2933883243
 20
17.671626287
 10
20.2899856969
 20
17.671626287
 10
20.2862920862
 20
17.671626287
 10
20.2824518106
 20
17.6716261403
  0
LINE
  5
A4
330
1F
100
AcDbEntity
  8
0
  6
Continuous
 62
     7
370
    25
100
AcDbLine
 10
20.2312716019
 20
17.6499731654
 30
0.0
 11
20.2312716019
 21
17.6716252603
 31
0.0
  0
LINE
  5
A5
330
1F
100
AcDbEntity
  8
0
  6
Continuous
 62
     7
370
    25
100
AcDbLine
 10
20.2312716019
 20
17.6106030986
 30
0.0
 11
20.0830848337
 21
17.6106030986
 31
0.0
  0
LINE
  5
A6
330
1F
100
AcDbEntity
  8
0
  6
Continuous
 62
     7
370
    25
100
AcDbLine
 10
20.0654779971
 20
17.6458167535
 30
0.0
 11
20.0830848337
 21
17.6106030986
 31
0.0
  0
LINE
  5
A7
330
1F
100
AcDbEntity
  8
0
  6
Continuous
 62
     7
370
    25
100
AcDbLine
 10
20.270642347
 20
17.6716261403
 30
0.0
 11
20.270642347
 21
17.6499731654
 31
0.0
  0
ARC
  5
A8
330
1F
100
AcDbEntity
  8
0
  6
Continuous
 62
     7
370
    25
100
AcDbCircle
 10
20.2312718879
 20
17.6499731608
 30
0.0
 40
0.0393700787401592
100
AcDbArc
 50
270.0
 51
360.0
  0
LINE
  5
A9
330
1F
100
AcDbEntity
  8
0
  6
Continuous
 62
     7
370
    25
100
AcDbLine
 10
20.0830848337
 20
17.6499731654
 30
0.0
 11
20.2312716019
 21
17.6499731654
 31
0.0
  0
ARC
  5
AA
330
1F
100
AcDbEntity
  8
0
  6
Continuous
 62
     7
370
    25
100
AcDbCircle
 10
20.0830848144
 20
17.6106030821
 30
0.0
 40
0.0393700787401556
100
AcDbArc
 50
90.0
 51
116.5650511771
  0
LINE
  5
AB
330
1F
100
AcDbEntity
  8
0
  6
Continuous
 62
     7
370
    25
100
AcDbLine
 10
20.2824518106
 20
17.6716261403
 30
0.0
 11
20.270642347
 21
17.6716261403
 31
0.0
  0
LINE
  5
AC
330
1F
100
AcDbEntity
  8
0
  6
Continuous
 62
     7
370
    25
100
AcDbLine
 10
20.0126574873
 20
17.5753894254
 30
0.0
 11
19.9950506507
 21
17.6106030986
 31
0.0
  0
LWPOLYLINE
  5
AD
330
1F
100
AcDbEntity
  8
0
  6
Continuous
 62
     7
370
    25
100
AcDbPolyline
 90
        9
 70
   128
 43
0.0
 10
19.9950506507
 20
17.6106030986
 10
19.9964034884
 20
17.6112797008
 10
20.0004115488
 20
17.6132835476
 10
20.0069199536
 20
17.61653764
 10
20.0156787857
 20
17.6209169278
 10
20.0263501291
 20
17.6262530761
 10
20.0385268418
 20
17.6323410658
 10
20.0517384225
 20
17.6389469112
 10
20.0654779971
 20
17.6458167535
  0
LWPOLYLINE
  5
AE
330
1F
100
AcDbEntity
  8
0
  6
Continuous
 62
     7
370
    25
100
AcDbPolyline
 90
        9
 70
   128
 43
0.0
 10
20.0830848337
 20
17.6106030986
 10
20.0693452591
 20
17.603733238
 10
20.0561336784
 20
17.5971274109
 10
20.0439569657
 20
17.5910394213
 10
20.0332856223
 20
17.5857032729
 10
20.0245267902
 20
17.5813240035
 10
20.0180183854
 20
17.5780699111
 10
20.014010325
 20
17.5760660276
 10
20.0126574873
 20
17.5753894254
  0
LINE
  5
AF
330
1F
100
AcDbEntity
  8
0
  6
Continuous
 62
     7
370
    25
100
AcDbLine
 10
30.413463843
 20
17.6716263603
 30
0.0
 11
30.5512591045
 21
17.6716263603
 31
0.0
  0
LINE
  5
B0
330
1F
100
AcDbEntity
  8
0
  6
Continuous
 62
     7
370
    25
100
AcDbLine
 10
30.2756685815
 20
17.6716263603
 30
0.0
 11
30.413463843
 21
17.6716263603
 31
0.0
  0
LINE
  5
B1
330
1F
100
AcDbEntity
  8
0
  6
Continuous
 62
     7
370
    25
100
AcDbLine
 10
13.2362992884
 20
18.4708614708
 30
0.0
 11
13.2323616272
 21
18.4708614708
 31
0.0
  0
LINE
  5
B2
330
1F
100
AcDbEntity
  8
0
  6
Continuous
 62
     7
370
    25
100
AcDbLine
 10
13.2362992884
 20
19.7818580427
 30
0.0
 11
13.2323616272
 21
19.7818580427
 31
0.0
  0
ELLIPSE
  5
B3
330
1F
100
AcDbEntity
  8
0
  6
Continuous
 62
     7
370
    25
100
AcDbEllipse
 10
21.9896872988
 20
17.6716280253
 30
0.0
 11
0.01839574407139111
 21
0.07681369157014828
 31
0.0
210
0.0
220
0.0
230
1.0
 40
0.0409000496
 41
3.146974332367308
 42
4.543237733959257
  0
ELLIPSE
  5
B4
330
1F
100
AcDbEntity
  8
0
  6
Continuous
 62
     7
370
    25
100
AcDbEllipse
 10
22.110855942
 20
17.6322579462
 30
0.0
 11
0.1395845089778014
 21
0.0374311147583164
 31
0.0
210
0.0
220
0.0
230
1.0
 40
0.0080754904
 41
3.154021864354323
 42
3.162645471568162
  0
LINE
  5
B5
330
1F
100
AcDbEntity
  8
0
  6
Continuous
 62
     7
370
    25
100
AcDbLine
 10
21.9712860611
 20
17.5948157143
 30
0.0
 11
21.7348879386
 21
17.671626177
 31
0.0
  0
LINE
  5
B6
330
1F
100
AcDbEntity
  8
0
  6
Continuous
 62
     7
370
    25
100
AcDbLine
 10
21.9476119879
 20
17.671626177
 30
0.0
 11
21.9896872351
 21
17.6579551132
 31
0.0
  0
LINE
  5
B7
330
1F
100
AcDbEntity
  8
0
  6
Continuous
 62
     7
370
    25
100
AcDbLine
 10
22.0591336862
 20
17.6579551132
 30
0.0
 11
22.0591336862
 21
17.671626177
 31
0.0
  0
LINE
  5
B8
330
1F
100
AcDbEntity
  8
0
  6
Continuous
 62
     7
370
    25
100
AcDbLine
 10
21.9896872351
 20
17.6579551132
 30
0.0
 11
22.0591336862
 21
17.6579551132
 31
0.0
  0
ELLIPSE
  5
B9
330
1F
100
AcDbEntity
  8
0
  6
Continuous
 62
     7
370
    25
100
AcDbEllipse
 10
21.9896872988
 20
17.6716280253
 30
0.0
 11
0.006232072658402644
 21
0.0787391258119996
 31
0.0
210
0.0
220
0.0
230
1.0
 40
0.0138664368
 41
3.142690225065438
 42
4.538953626662503
  0
ARC
  5
BA
330
1F
100
AcDbEntity
  8
0
  6
Continuous
 62
     7
370
    25
100
AcDbCircle
 10
21.9834567003
 20
17.6322326222
 30
0.0
 40
0.0393437556184014
100
AcDbArc
 50
252.0146118015
 51
270.0003011645
  0
LINE
  5
BB
330
1F
100
AcDbEntity
  8
0
  6
Continuous
 62
     7
370
    25
100
AcDbLine
 10
22.0591336862
 20
17.5928888666
 30
0.0
 11
21.9834569071
 21
17.5928888666
 31
0.0
  0
LINE
  5
BC
330
1F
100
AcDbEntity
  8
0
  6
Continuous
 62
     7
370
    25
100
AcDbLine
 10
22.0591336862
 20
17.6579551132
 30
0.0
 11
22.0591336862
 21
17.5928888666
 31
0.0
  0
LINE
  5
BD
330
1F
100
AcDbEntity
  8
0
  6
Continuous
 62
     7
370
    25
100
AcDbLine
 10
21.7348867653
 20
17.671626342
 30
0.0
 11
21.9712860611
 21
17.5948156776
 31
0.0
  0
ARC
  5
BE
330
1F
100
AcDbEntity
  8
0
  6
Continuous
 62
     7
370
    25
100
AcDbCircle
 10
21.9834516909
 20
17.6322579465
 30
0.0
 40
0.0393690944881905
100
AcDbArc
 50
252.0000000461
 51
270.0000000461
  0
LINE
  5
BF
330
1F
100
AcDbEntity
  8
0
  6
Continuous
 62
     7
370
    25
100
AcDbLine
 10
21.9834569071
 20
17.5928888666
 30
0.0
 11
21.9834522138
 21
17.5928888666
 31
0.0
  0
LINE
  5
C0
330
1F
100
AcDbEntity
  8
0
  6
Continuous
 62
     7
370
    25
100
AcDbLine
 10
21.9834569071
 20
17.5928888299
 30
0.0
 11
22.0591336862
 21
17.5928888299
 31
0.0
  0
ARC
  5
C1
330
1F
100
AcDbEntity
  8
0
  6
Continuous
 62
     7
370
    25
100
AcDbCircle
 10
21.9834516909
 20
17.6322579258
 30
0.0
 40
0.0393690944881869
100
AcDbArc
 50
252.0000000462
 51
270.0000000461
  0
ARC
  5
C2
330
1F
100
AcDbEntity
  8
0
  6
Continuous
 62
     7
370
    25
100
AcDbCircle
 10
-30.4395724099
 20
17.2634734792
 30
0.0
 40
43.61674107363498
100
AcDbArc
 50
2.2364682453
 51
2.5061686055
  0
LINE
  5
C3
330
1F
100
AcDbEntity
  8
0
  6
Continuous
 62
     7
370
    25
100
AcDbLine
 10
13.1354501067
 20
19.1707004095
 30
0.0
 11
13.1929920553
 21
19.1707004095
 31
0.0
  0
ARC
  5
C4
330
1F
100
AcDbEntity
  8
0
  6
Continuous
 62
     7
370
    25
100
AcDbCircle
 10
13.1142515528
 20
18.8926389655
 30
0.0
 40
0.0787401574803148
100
AcDbArc
 50
0.0
 51
67.8449488045
  0
ARC
  5
C5
330
1F
100
AcDbEntity
  8
0
  6
Continuous
 62
     7
370
    25
100
AcDbCircle
 10
-30.4400880025
 20
16.7516407896
 30
0.0
 40
43.61725712006783
100
AcDbArc
 50
2.2364702882
 51
2.5061674093
  0
LINE
  5
C6
330
1F
100
AcDbEntity
  8
0
  6
Continuous
 62
     7
370
    25
100
AcDbLine
 10
13.1354501067
 20
18.6588893754
 30
0.0
 11
13.1929920553
 21
18.6588893754
 31
0.0
  0
ARC
  5
C7
330
1F
100
AcDbEntity
  8
0
  6
Continuous
 62
     7
370
    25
100
AcDbCircle
 10
13.1142515528
 20
18.3808279419
 30
0.0
 40
0.0787401574803148
100
AcDbArc
 50
0.0
 51
67.8449488045
  0
ARC
  5
C8
330
1F
100
AcDbEntity
  8
0
  6
Continuous
 62
     7
370
    25
100
AcDbCircle
 10
-30.440631535
 20
17.7752400455
 30
0.0
 40
43.61780113022886
100
AcDbArc
 50
2.2364724175
 51
2.5061661268
  0
LINE
  5
C9
330
1F
100
AcDbEntity
  8
0
  6
Continuous
 62
     7
370
    25
100
AcDbLine
 10
13.1354501067
 20
19.6825114437
 30
0.0
 11
13.1929920553
 21
19.6825114437
 31
0.0
  0
ARC
  5
CA
330
1F
100
AcDbEntity
  8
0
  6
Continuous
 62
     7
370
    25
100
AcDbCircle
 10
13.1142515528
 20
19.4044499891
 30
0.0
 40
0.0787401574803148
100
AcDbArc
 50
0.0
 51
67.8449488045
  0
LWPOLYLINE
  5
CB
330
1F
100
AcDbEntity
  8
0
  6
Continuous
 62
     7
370
    25
100
AcDbPolyline
 90
        4
 70
   128
 43
0.0
 10
13.183150249
 20
18.7275487489
 10
13.1885639465
 20
18.7286999222
 10
13.1918774015
 20
18.7294039141
 10
13.1929920553
 20
18.729640778
  0
LINE
  5
CC
330
1F
100
AcDbEntity
  8
0
  6
Continuous
 62
     7
370
    25
100
AcDbLine
 10
13.1354501067
 20
18.6588893754
 30
0.0
 11
13.1354501067
 21
18.71966316
 31
0.0
  0
ARC
  5
CD
330
1F
100
AcDbEntity
  8
0
  6
Continuous
 62
     7
370
    25
100
AcDbCircle
 10
13.430255614
 20
17.0845891335
 30
0.0
 40
1.661438340423133
100
AcDbArc
 50
98.5533228425
 51
100.2206784943
  0
LWPOLYLINE
  5
CE
330
1F
100
AcDbEntity
  8
0
  6
Continuous
 62
     7
370
    25
100
AcDbPolyline
 90
        4
 70
   128
 43
0.0
 10
13.183150249
 20
19.7511707439
 10
13.1885639465
 20
19.7523219173
 10
13.1918774015
 20
19.7530259091
 10
13.1929920553
 20
19.7532629197
  0
LINE
  5
CF
330
1F
100
AcDbEntity
  8
0
  6
Continuous
 62
     7
370
    25
100
AcDbLine
 10
13.1354501067
 20
19.6825114437
 30
0.0
 11
13.1354501067
 21
19.743285155
 31
0.0
  0
ARC
  5
D0
330
1F
100
AcDbEntity
  8
0
  6
Continuous
 62
     7
370
    25
100
AcDbCircle
 10
13.430255614
 20
18.1082111286
 30
0.0
 40
1.661438340423137
100
AcDbArc
 50
98.5533228425
 51
100.2206784943
  0
LINE
  5
D1
330
1F
100
AcDbEntity
  8
0
  6
Continuous
 62
     7
370
    25
100
AcDbLine
 10
13.1354501067
 20
19.1707004095
 30
0.0
 11
13.1354501067
 21
19.2314741208
 31
0.0
  0
ARC
  5
D2
330
1F
100
AcDbEntity
  8
0
  6
Continuous
 62
     7
370
    25
100
AcDbCircle
 10
13.430255614
 20
17.5964000944
 30
0.0
 40
1.661438340439447
100
AcDbArc
 50
98.5533228425
 51
100.2206784943
  0
LWPOLYLINE
  5
D3
330
1F
100
AcDbEntity
  8
0
  6
Continuous
 62
     7
370
    25
100
AcDbPolyline
 90
        4
 70
   128
 43
0.0
 10
13.183150249
 20
19.2393597097
 10
13.1885639465
 20
19.2405108831
 10
13.1918774015
 20
19.241214875
 10
13.1929920553
 20
19.2414518856
  0
LWPOLYLINE
  5
D4
330
1F
100
AcDbEntity
  8
0
  6
Continuous
 62
     7
370
    25
100
AcDbPolyline
 90
        8
 70
   128
 43
0.0
 10
13.0059836557
 20
18.6982594606
 10
13.0090225539
 20
18.6987617148
 10
13.0180313032
 20
18.7002512442
 10
13.0327048403
 20
18.7026769362
 10
13.0525362912
 20
18.705955705
 10
13.0768498237
 20
18.7099749852
 10
13.1048053407
 20
18.7145969852
 10
13.1354501067
 20
18.71966316
  0
LWPOLYLINE
  5
D5
330
1F
100
AcDbEntity
  8
0
  6
Continuous
 62
     7
370
    25
100
AcDbPolyline
 90
        8
 70
   128
 43
0.0
 10
13.0059836557
 20
19.7218814556
 10
13.0090225539
 20
19.7223837831
 10
13.0180313032
 20
19.7238733126
 10
13.0327048403
 20
19.7262990046
 10
13.0525362912
 20
19.7295777
 10
13.0768498237
 20
19.7335970536
 10
13.1048053407
 20
19.7382190535
 10
13.1354501067
 20
19.743285155
  0
LWPOLYLINE
  5
D6
330
1F
100
AcDbEntity
  8
0
  6
Continuous
 62
     7
370
    25
100
AcDbPolyline
 90
        8
 70
   128
 43
0.0
 10
13.0059836557
 20
19.2100704214
 10
13.0090225539
 20
19.2105727489
 10
13.0180313032
 20
19.2120622784
 10
13.0327048403
 20
19.2144879704
 10
13.0525362912
 20
19.2177666658
 10
13.0768498237
 20
19.2217860194
 10
13.1048053407
 20
19.2264080193
 10
13.1354501067
 20
19.2314741208
  0
LINE
  5
D7
330
1F
100
AcDbEntity
  8
0
  6
Continuous
 62
     7
370
    25
100
AcDbLine
 10
13.1354501067
 20
19.6825114437
 30
0.0
 11
13.0059836557
 21
19.6825114437
 31
0.0
  0
ARC
  5
D8
330
1F
100
AcDbEntity
  8
0
  6
Continuous
 62
     7
370
    25
100
AcDbCircle
 10
13.2274719233
 20
19.682511397
 30
0.0
 40
0.2214880870883444
100
AcDbArc
 50
179.9999999959
 51
247.8449488045
  0
LINE
  5
D9
330
1F
100
AcDbEntity
  8
0
  6
Continuous
 62
     7
370
    25
100
AcDbLine
 10
13.1354501067
 20
18.6588893754
 30
0.0
 11
13.0059836557
 21
18.6588893754
 31
0.0
  0
ARC
  5
DA
330
1F
100
AcDbEntity
  8
0
  6
Continuous
 62
     7
370
    25
100
AcDbCircle
 10
13.2274719233
 20
18.6588893497
 30
0.0
 40
0.2214880870883444
100
AcDbArc
 50
179.9999999959
 51
247.8449488045
  0
LINE
  5
DB
330
1F
100
AcDbEntity
  8
0
  6
Continuous
 62
     7
370
    25
100
AcDbLine
 10
13.1354501067
 20
19.1707004095
 30
0.0
 11
13.0059836557
 21
19.1707004095
 31
0.0
  0
ARC
  5
DC
330
1F
100
AcDbEntity
  8
0
  6
Continuous
 62
     7
370
    25
100
AcDbCircle
 10
13.2274719233
 20
19.1707003733
 30
0.0
 40
0.2214880870883444
100
AcDbArc
 50
179.9999999959
 51
247.8449488045
  0
LINE
  5
DD
330
1F
100
AcDbEntity
  8
0
  6
Continuous
 62
     7
370
    25
100
AcDbLine
 10
13.0059836557
 20
18.6588893754
 30
0.0
 11
13.0059836557
 21
18.6982594606
 31
0.0
  0
LINE
  5
DE
330
1F
100
AcDbEntity
  8
0
  6
Continuous
 62
     7
370
    25
100
AcDbLine
 10
13.0059836557
 20
19.6825114437
 30
0.0
 11
13.0059836557
 21
19.7218814556
 31
0.0
  0
LINE
  5
DF
330
1F
100
AcDbEntity
  8
0
  6
Continuous
 62
     7
370
    25
100
AcDbLine
 10
13.0059836557
 20
19.1707004095
 30
0.0
 11
13.0059836557
 21
19.2100704214
 31
0.0
  0
LINE
  5
E0
330
1F
100
AcDbEntity
  8
0
  6
Continuous
 62
     7
370
    25
100
AcDbLine
 10
31.0040150475
 20
17.6716264153
 30
0.0
 11
31.141810309
 21
17.671626397
 31
0.0
  0
LWPOLYLINE
  5
E1
330
1F
100
AcDbEntity
  8
0
  6
Continuous
 62
     7
370
    25
100
AcDbPolyline
 90
        6
 70
   128
 43
0.0
 10
30.866219786
 20
17.671626397
 10
30.8704361106
 20
17.671626397
 10
30.8886571802
 20
17.671626397
 10
30.9193793853
 20
17.671626397
 10
30.9592728444
 20
17.671626397
 10
31.0040150475
 20
17.6716264153
  0
LINE
  5
E2
330
1F
100
AcDbEntity
  8
0
  6
Continuous
 62
     7
370
    25
100
AcDbLine
 10
30.9095270191
 20
20.5613754777
 30
0.0
 11
30.9095270191
 21
20.5298794682
 31
0.0
  0
LINE
  5
E3
330
1F
100
AcDbEntity
  8
0
  6
Continuous
 62
     7
370
    25
100
AcDbLine
 10
30.8701568605
 20
20.5298794682
 30
0.0
 11
30.8701568605
 21
20.5613754777
 31
0.0
  0
LINE
  5
E4
330
1F
100
AcDbEntity
  8
0
  6
Continuous
 62
     7
370
    25
100
AcDbLine
 10
30.9095270191
 20
20.5298794682
 30
0.0
 11
30.8701568605
 21
20.5298794682
 31
0.0
  0
LINE
  5
E5
330
1F
100
AcDbEntity
  8
0
  6
Continuous
 62
     7
370
    25
100
AcDbLine
 10
30.8701568605
 20
20.5613754777
 30
0.0
 11
30.9095270191
 21
20.5613754777
 31
0.0
  0
LINE
  5
E6
330
1F
100
AcDbEntity
  8
0
  6
Continuous
 62
     7
370
    25
100
AcDbLine
 10
13.9882682016
 20
20.5613754777
 30
0.0
 11
13.9882682016
 21
20.5298794682
 31
0.0
  0
LINE
  5
E7
330
1F
100
AcDbEntity
  8
0
  6
Continuous
 62
     7
370
    25
100
AcDbLine
 10
13.9882682016
 20
20.5298794682
 30
0.0
 11
30.8701568605
 21
20.5298794682
 31
0.0
  0
LINE
  5
E8
330
1F
100
AcDbEntity
  8
0
  6
Continuous
 62
     7
370
    25
100
AcDbLine
 10
13.9882682016
 20
20.5613754777
 30
0.0
 11
30.8701568605
 21
20.5613754777
 31
0.0
  0
LINE
  5
E9
330
1F
100
AcDbEntity
  8
0
  6
Continuous
 62
     7
370
    25
100
AcDbLine
 10
13.9488962831
 20
20.5298794682
 30
0.0
 11
13.9488962831
 21
20.5613754777
 31
0.0
  0
LINE
  5
EA
330
1F
100
AcDbEntity
  8
0
  6
Continuous
 62
     7
370
    25
100
AcDbLine
 10
13.9882682016
 20
20.5298794682
 30
0.0
 11
13.9488962831
 21
20.5298794682
 31
0.0
  0
LINE
  5
EB
330
1F
100
AcDbEntity
  8
0
  6
Continuous
 62
     7
370
    25
100
AcDbLine
 10
13.9488962831
 20
20.5613754777
 30
0.0
 11
13.9882682016
 21
20.5613754777
 31
0.0
  0
LINE
  5
EC
330
1F
100
AcDbEntity
  8
0
  6
Continuous
 62
     7
370
    25
100
AcDbLine
 10
30.9882673361
 20
20.5613754777
 30
0.0
 11
30.9882673361
 21
20.5298794682
 31
0.0
  0
LINE
  5
ED
330
1F
100
AcDbEntity
  8
0
  6
Continuous
 62
     7
370
    25
100
AcDbLine
 10
30.9882673361
 20
20.5298794682
 30
0.0
 11
30.9095270191
 21
20.5298794682
 31
0.0
  0
LINE
  5
EE
330
1F
100
AcDbEntity
  8
0
  6
Continuous
 62
     7
370
    25
100
AcDbLine
 10
30.9095270191
 20
20.5613754777
 30
0.0
 11
30.9882673361
 21
20.5613754777
 31
0.0
  0
LINE
  5
EF
330
1F
100
AcDbEntity
  8
0
  6
Continuous
 62
     7
370
    25
100
AcDbLine
 10
13.8701571393
 20
20.5298794682
 30
0.0
 11
13.8701571393
 21
20.5613754777
 31
0.0
  0
LINE
  5
F0
330
1F
100
AcDbEntity
  8
0
  6
Continuous
 62
     7
370
    25
100
AcDbLine
 10
13.9488962831
 20
20.5298794682
 30
0.0
 11
13.8701571393
 21
20.5298794682
 31
0.0
  0
LINE
  5
F1
330
1F
100
AcDbEntity
  8
0
  6
Continuous
 62
     7
370
    25
100
AcDbLine
 10
13.8701571393
 20
20.5613754777
 30
0.0
 11
13.9488962831
 21
20.5613754777
 31
0.0
  0
LINE
  5
F2
330
1F
100
AcDbEntity
  8
0
  6
Continuous
 62
     7
370
    25
100
AcDbLine
 10
31.6181886992
 20
20.5298794682
 30
0.0
 11
31.6181886992
 21
20.5613754777
 31
0.0
  0
LINE
  5
F3
330
1F
100
AcDbEntity
  8
0
  6
Continuous
 62
     7
370
    25
100
AcDbLine
 10
30.9882673361
 20
20.5298794682
 30
0.0
 11
31.6181886992
 21
20.5298794682
 31
0.0
  0
LINE
  5
F4
330
1F
100
AcDbEntity
  8
0
  6
Continuous
 62
     7
370
    25
100
AcDbLine
 10
31.6181886992
 20
20.5613754777
 30
0.0
 11
30.9882673361
 21
20.5613754777
 31
0.0
  0
LINE
  5
F5
330
1F
100
AcDbEntity
  8
0
  6
Continuous
 62
     7
370
    25
100
AcDbLine
 10
31.6969284296
 20
20.5613754777
 30
0.0
 11
31.6969284296
 21
20.5298794682
 31
0.0
  0
LINE
  5
F6
330
1F
100
AcDbEntity
  8
0
  6
Continuous
 62
     7
370
    25
100
AcDbLine
 10
31.6969284296
 20
20.5298794682
 30
0.0
 11
31.6181886992
 21
20.5298794682
 31
0.0
  0
LINE
  5
F7
330
1F
100
AcDbEntity
  8
0
  6
Continuous
 62
     7
370
    25
100
AcDbLine
 10
31.6181886992
 20
20.5613754777
 30
0.0
 11
31.6969284296
 21
20.5613754777
 31
0.0
  0
LINE
  5
F8
330
1F
100
AcDbEntity
  8
0
  6
Continuous
 62
     7
370
    25
100
AcDbLine
 10
13.2402369495
 20
20.5613754777
 30
0.0
 11
13.2402369495
 21
20.5298794682
 31
0.0
  0
LINE
  5
F9
330
1F
100
AcDbEntity
  8
0
  6
Continuous
 62
     7
370
    25
100
AcDbLine
 10
13.8701571393
 20
20.5298794682
 30
0.0
 11
13.2402369495
 21
20.5298794682
 31
0.0
  0
LINE
  5
FA
330
1F
100
AcDbEntity
  8
0
  6
Continuous
 62
     7
370
    25
100
AcDbLine
 10
13.2402369495
 20
20.5613754777
 30
0.0
 11
13.8701571393
 21
20.5613754777
 31
0.0
  0
LINE
  5
FB
330
1F
100
AcDbEntity
  8
0
  6
Continuous
 62
     7
370
    25
100
AcDbLine
 10
13.1614954592
 20
20.5298794682
 30
0.0
 11
13.1614954592
 21
20.5613754777
 31
0.0
  0
LINE
  5
FC
330
1F
100
AcDbEntity
  8
0
  6
Continuous
 62
     7
370
    25
100
AcDbLine
 10
13.2402369495
 20
20.5298794682
 30
0.0
 11
13.1614954592
 21
20.5298794682
 31
0.0
  0
LINE
  5
FD
330
1F
100
AcDbEntity
  8
0
  6
Continuous
 62
     7
370
    25
100
AcDbLine
 10
13.1614954592
 20
20.5613754777
 30
0.0
 11
13.2402369495
 21
20.5613754777
 31
0.0
  0
LINE
  5
FE
330
1F
100
AcDbEntity
  8
0
  6
Continuous
 62
     7
370
    25
100
AcDbLine
 10
13.0433843969
 20
20.5613754777
 30
0.0
 11
13.0433843969
 21
20.5298794682
 31
0.0
  0
LINE
  5
FF
330
1F
100
AcDbEntity
  8
0
  6
Continuous
 62
     7
370
    25
100
AcDbLine
 10
13.1614954592
 20
20.5298794682
 30
0.0
 11
13.0433843969
 21
20.5298794682
 31
0.0
  0
LINE
  5
100
330
1F
100
AcDbEntity
  8
0
  6
Continuous
 62
     7
370
    25
100
AcDbLine
 10
13.0433843969
 20
20.5613754777
 30
0.0
 11
13.1614954592
 21
20.5613754777
 31
0.0
  0
ARC
  5
101
330
1F
100
AcDbEntity
  8
0
  6
Continuous
 62
     7
370
    25
100
AcDbCircle
 10
18.311105988
 20
19.8330140819
 30
0.0
 40
0.0393700787401556
100
AcDbArc
 50
180.0
 51
270.0
  0
LINE
  5
102
330
1F
100
AcDbEntity
  8
0
  6
Continuous
 62
     7
370
    25
100
AcDbLine
 10
18.2717360519
 20
19.8960101774
 30
0.0
 11
18.2717360519
 21
19.8330140518
 31
0.0
  0
ARC
  5
103
330
1F
100
AcDbEntity
  8
0
  6
Continuous
 62
     7
370
    25
100
AcDbCircle
 10
18.2323658305
 20
19.8960102479
 30
0.0
 40
0.0393700787401595
100
AcDbArc
 50
0.0
 51
90.0000491996
  0
LINE
  5
104
330
1F
100
AcDbEntity
  8
0
  6
Continuous
 62
     7
370
    25
100
AcDbLine
 10
16.7363028027
 20
19.9353790159
 30
0.0
 11
18.2323653067
 21
19.9353803359
 31
0.0
  0
ARC
  5
105
330
1F
100
AcDbEntity
  8
0
  6
Continuous
 62
     7
370
    25
100
AcDbCircle
 10
16.7363028384
 20
19.8960089632
 30
0.0
 40
0.0393700787401559
100
AcDbArc
 50
90.0000491996
 51
180.0
  0
LINE
  5
106
330
1F
100
AcDbEntity
  8
0
  6
Continuous
 62
     7
370
    25
100
AcDbLine
 10
16.6969332308
 20
19.8330140518
 30
0.0
 11
16.6969332308
 21
19.8960090041
 31
0.0
  0
ARC
  5
107
330
1F
100
AcDbEntity
  8
0
  6
Continuous
 62
     7
370
    25
100
AcDbCircle
 10
16.6575626809
 20
19.8330140819
 30
0.0
 40
0.0393700787401592
100
AcDbArc
 50
270.0
 51
0.0
  0
LINE
  5
108
330
1F
100
AcDbEntity
  8
0
  6
Continuous
 62
     7
370
    25
100
AcDbLine
 10
13.1614954592
 20
19.7936440399
 30
0.0
 11
16.657563659
 21
19.7936440399
 31
0.0
  0
LINE
  5
109
330
1F
100
AcDbEntity
  8
0
  6
Continuous
 62
     7
370
    25
100
AcDbLine
 10
13.1614954592
 20
20.5298794682
 30
0.0
 11
13.1614954592
 21
19.7936440399
 31
0.0
  0
ARC
  5
10A
330
1F
100
AcDbEntity
  8
0
  6
Continuous
 62
     7
370
    25
100
AcDbCircle
 10
31.6181884358
 20
19.8723841607
 30
0.0
 40
0.0787401574803148
100
AcDbArc
 50
270.0
 51
0.0
  0
ARC
  5
10B
330
1F
100
AcDbEntity
  8
0
  6
Continuous
 62
     7
370
    25
100
AcDbCircle
 10
28.7441768947
 20
19.8330140819
 30
0.0
 40
0.0393700787401556
100
AcDbArc
 50
180.0
 51
270.0
  0
LINE
  5
10C
330
1F
100
AcDbEntity
  8
0
  6
Continuous
 62
     7
370
    25
100
AcDbLine
 10
28.7048069415
 20
19.8330140518
 30
0.0
 11
28.7048069415
 21
19.8960192706
 31
0.0
  0
ARC
  5
10D
330
1F
100
AcDbEntity
  8
0
  6
Continuous
 62
     7
370
    25
100
AcDbCircle
 10
28.6654367373
 20
19.8960192067
 30
0.0
 40
0.0393700787401556
100
AcDbArc
 50
0.0
 51
90.0000491997
  0
LINE
  5
10E
330
1F
100
AcDbEntity
  8
0
  6
Continuous
 62
     7
370
    25
100
AcDbLine
 10
28.665436783
 20
19.9353892825
 30
0.0
 11
27.169374279
 21
19.9353879625
 31
0.0
  0
ARC
  5
10F
330
1F
100
AcDbEntity
  8
0
  6
Continuous
 62
     7
370
    25
100
AcDbCircle
 10
27.1693737992
 20
19.896017922
 30
0.0
 40
0.0393700787401595
100
AcDbArc
 50
90.0000491996
 51
180.0
  0
LINE
  5
110
330
1F
100
AcDbEntity
  8
0
  6
Continuous
 62
     7
370
    25
100
AcDbLine
 10
27.1300035338
 20
19.8960179506
 30
0.0
 11
27.1300035338
 21
19.8330140518
 31
0.0
  0
ARC
  5
111
330
1F
100
AcDbEntity
  8
0
  6
Continuous
 62
     7
370
    25
100
AcDbCircle
 10
27.0906336418
 20
19.8330140819
 30
0.0
 40
0.0393700787401627
100
AcDbArc
 50
270.0
 51
0.0
  0
LINE
  5
112
330
1F
100
AcDbEntity
  8
0
  6
Continuous
 62
     7
370
    25
100
AcDbLine
 10
18.3111056238
 20
19.7936440399
 30
0.0
 11
27.0906339619
 21
19.7936440399
 31
0.0
  0
ARC
  5
113
330
1F
100
AcDbEntity
  8
0
  6
Continuous
 62
     7
370
    25
100
AcDbCircle
 10
14.5315782853
 20
20.0318491856
 30
0.0
 40
0.0885826771653555
100
AcDbArc
 50
90.0
 51
270.0000000002
  0
LINE
  5
114
330
1F
100
AcDbEntity
  8
0
  6
Continuous
 62
     7
370
    25
100
AcDbLine
 10
14.7677983964
 20
19.9432665115
 30
0.0
 11
14.5315786185
 21
19.9432665115
 31
0.0
  0
ARC
  5
115
330
1F
100
AcDbEntity
  8
0
  6
Continuous
 62
     7
370
    25
100
AcDbCircle
 10
14.7677987577
 20
20.0318491856
 30
0.0
 40
0.0885826771653555
100
AcDbArc
 50
270.0000000002
 51
89.9999999998
  0
LINE
  5
116
330
1F
100
AcDbEntity
  8
0
  6
Continuous
 62
     7
370
    25
100
AcDbLine
 10
14.5315786185
 20
20.1204319315
 30
0.0
 11
14.7677983964
 21
20.1204319315
 31
0.0
  0
ARC
  5
117
330
1F
100
AcDbEntity
  8
0
  6
Continuous
 62
     7
370
    25
100
AcDbCircle
 10
15.4961452144
 20
20.0318491856
 30
0.0
 40
0.0885826771618099
100
AcDbArc
 50
90.0000000009
 51
269.9999999993
  0
LINE
  5
118
330
1F
100
AcDbEntity
  8
0
  6
Continuous
 62
     7
370
    25
100
AcDbLine
 10
15.7323658136
 20
19.9432665115
 30
0.0
 11
15.4961460358
 21
19.9432665115
 31
0.0
  0
ARC
  5
119
330
1F
100
AcDbEntity
  8
0
  6
Continuous
 62
     7
370
    25
100
AcDbCircle
 10
15.7323656869
 20
20.0318491856
 30
0.0
 40
0.0885826771653555
100
AcDbArc
 50
269.9999999993
 51
90.0000000007
  0
LINE
  5
11A
330
1F
100
AcDbEntity
  8
0
  6
Continuous
 62
     7
370
    25
100
AcDbLine
 10
15.4961460358
 20
20.1204319315
 30
0.0
 11
15.7323658136
 21
20.1204319315
 31
0.0
  0
ARC
  5
11B
330
1F
100
AcDbEntity
  8
0
  6
Continuous
 62
     7
370
    25
100
AcDbCircle
 10
21.9922082066
 20
20.0318491856
 30
0.0
 40
0.0885826771618099
100
AcDbArc
 50
90.0000000009
 51
269.9999999993
  0
LINE
  5
11C
330
1F
100
AcDbEntity
  8
0
  6
Continuous
 62
     7
370
    25
100
AcDbLine
 10
22.2284284772
 20
19.9432665115
 30
0.0
 11
21.9922086994
 21
19.9432665115
 31
0.0
  0
ARC
  5
11D
330
1F
100
AcDbEntity
  8
0
  6
Continuous
 62
     7
370
    25
100
AcDbCircle
 10
22.228428679
 20
20.0318491856
 30
0.0
 40
0.0885826771653555
100
AcDbArc
 50
269.9999999993
 51
90.0000000007
  0
LINE
  5
11E
330
1F
100
AcDbEntity
  8
0
  6
Continuous
 62
     7
370
    25
100
AcDbLine
 10
21.9922086994
 20
20.1204319315
 30
0.0
 11
22.2284284772
 21
20.1204319315
 31
0.0
  0
ARC
  5
11F
330
1F
100
AcDbEntity
  8
0
  6
Continuous
 62
     7
370
    25
100
AcDbCircle
 10
23.1733105688
 20
20.0318491856
 30
0.0
 40
0.0885826771653555
100
AcDbArc
 50
89.9999999991
 51
270.000000001
  0
LINE
  5
120
330
1F
100
AcDbEntity
  8
0
  6
Continuous
 62
     7
370
    25
100
AcDbLine
 10
23.4095308863
 20
19.9432665115
 30
0.0
 11
23.1733111085
 21
19.9432665115
 31
0.0
  0
ARC
  5
121
330
1F
100
AcDbEntity
  8
0
  6
Continuous
 62
     7
370
    25
100
AcDbCircle
 10
23.4095310412
 20
20.0318491856
 30
0.0
 40
0.0885826771618099
100
AcDbArc
 50
270.000000001
 51
89.999999999
  0
LINE
  5
122
330
1F
100
AcDbEntity
  8
0
  6
Continuous
 62
     7
370
    25
100
AcDbLine
 10
23.1733111085
 20
20.1204319315
 30
0.0
 11
23.4095308863
 21
20.1204319315
 31
0.0
  0
ARC
  5
123
330
1F
100
AcDbEntity
  8
0
  6
Continuous
 62
     7
370
    25
100
AcDbCircle
 10
29.6693735609
 20
20.0318491856
 30
0.0
 40
0.0885826771653555
100
AcDbArc
 50
89.9999999991
 51
269.9999999996
  0
LINE
  5
124
330
1F
100
AcDbEntity
  8
0
  6
Continuous
 62
     7
370
    25
100
AcDbLine
 10
29.9055941366
 20
19.9432665115
 30
0.0
 11
29.6693737721
 21
19.9432665115
 31
0.0
  0
ARC
  5
125
330
1F
100
AcDbEntity
  8
0
  6
Continuous
 62
     7
370
    25
100
AcDbCircle
 10
29.9055940333
 20
20.0318491856
 30
0.0
 40
0.0885826771675617
100
AcDbArc
 50
269.9999999996
 51
89.999999999
  0
LINE
  5
126
330
1F
100
AcDbEntity
  8
0
  6
Continuous
 62
     7
370
    25
100
AcDbLine
 10
29.6693737721
 20
20.1204319315
 30
0.0
 11
29.9055941366
 21
20.1204319315
 31
0.0
  0
CIRCLE
  5
127
330
1F
100
AcDbEntity
  8
0
  6
Continuous
 62
     7
370
    25
100
AcDbCircle
 10
22.7008696239
 20
20.0318491856
 30
0.0
 40
0.0885826771653591
  0
CIRCLE
  5
128
330
1F
100
AcDbEntity
  8
0
  6
Continuous
 62
     7
370
    25
100
AcDbCircle
 10
30.8386608768
 20
20.1755486243
 30
0.0
 40
0.0688976377952741
  0
CIRCLE
  5
129
330
1F
100
AcDbEntity
  8
0
  6
Continuous
 62
     7
370
    25
100
AcDbCircle
 10
31.3111018216
 20
20.1755486243
 30
0.0
 40
0.0688976377952741
  0
LINE
  5
12A
330
1F
100
AcDbEntity
  8
0
  6
Continuous
 62
     7
370
    25
100
AcDbLine
 10
28.7441771
 20
19.7936440399
 30
0.0
 11
31.6181886992
 21
19.7936440399
 31
0.0
  0
LINE
  5
12B
330
1F
100
AcDbEntity
  8
0
  6
Continuous
 62
     7
370
    25
100
AcDbLine
 10
31.6969284296
 20
20.5298794682
 30
0.0
 11
31.6969284296
 21
19.8723842103
 31
0.0
  0
LINE
  5
12C
330
1F
100
AcDbEntity
  8
0
  6
Continuous
 62
     7
370
    25
100
AcDbLine
 10
13.0827563154
 20
20.5298794682
 30
0.0
 11
13.0827563154
 21
19.7936440399
 31
0.0
  0
LINE
  5
12D
330
1F
100
AcDbEntity
  8
0
  6
Continuous
 62
     7
370
    25
100
AcDbLine
 10
13.1614954592
 20
19.7936440399
 30
0.0
 11
13.0827563154
 21
19.7936440399
 31
0.0
  0
LINE
  5
12E
330
1F
100
AcDbEntity
  8
0
  6
Continuous
 62
     7
370
    25
100
AcDbLine
 10
12.944959294
 20
20.5613754777
 30
0.0
 11
12.944959294
 21
20.5298794682
 31
0.0
  0
LINE
  5
12F
330
1F
100
AcDbEntity
  8
0
  6
Continuous
 62
     7
370
    25
100
AcDbLine
 10
12.8268505784
 20
20.5298794682
 30
0.0
 11
12.8268505784
 21
20.5613754777
 31
0.0
  0
LINE
  5
130
330
1F
100
AcDbEntity
  8
0
  6
Continuous
 62
     7
370
    25
100
AcDbLine
 10
12.944959294
 20
20.5298794682
 30
0.0
 11
12.8268505784
 21
20.5298794682
 31
0.0
  0
LINE
  5
131
330
1F
100
AcDbEntity
  8
0
  6
Continuous
 62
     7
370
    25
100
AcDbLine
 10
12.8268505784
 20
20.5613754777
 30
0.0
 11
12.944959294
 21
20.5613754777
 31
0.0
  0
LINE
  5
132
330
1F
100
AcDbEntity
  8
0
  6
Continuous
 62
     7
370
    25
100
AcDbLine
 10
13.0433843969
 20
20.5298794682
 30
0.0
 11
12.944959294
 21
20.5298794682
 31
0.0
  0
LINE
  5
133
330
1F
100
AcDbEntity
  8
0
  6
Continuous
 62
     7
370
    25
100
AcDbLine
 10
12.944959294
 20
20.5613754777
 30
0.0
 11
13.0433843969
 21
20.5613754777
 31
0.0
  0
LINE
  5
134
330
1F
100
AcDbEntity
  8
0
  6
Continuous
 62
     7
370
    25
100
AcDbLine
 10
31.8071647561
 20
20.5298794682
 30
0.0
 11
31.8071647561
 21
19.7936440399
 31
0.0
  0
LINE
  5
135
330
1F
100
AcDbEntity
  8
0
  6
Continuous
 62
     7
370
    25
100
AcDbLine
 10
31.8071647561
 20
19.7936440399
 30
0.0
 11
31.7362985881
 21
19.7936440399
 31
0.0
  0
LINE
  5
136
330
1F
100
AcDbEntity
  8
0
  6
Continuous
 62
     7
370
    25
100
AcDbLine
 10
31.7362985881
 20
19.7936440399
 30
0.0
 11
31.7362985881
 21
20.5298794682
 31
0.0
  0
LINE
  5
137
330
1F
100
AcDbEntity
  8
0
  6
Continuous
 62
     7
370
    25
100
AcDbLine
 10
31.8071647561
 20
20.5298794682
 30
0.0
 11
31.7362985881
 21
20.5298794682
 31
0.0
  0
LINE
  5
138
330
1F
100
AcDbEntity
  8
0
  6
Continuous
 62
     7
370
    25
100
AcDbLine
 10
31.7362985881
 20
20.5298794682
 30
0.0
 11
31.6969284296
 21
20.5298794682
 31
0.0
  0
LINE
  5
139
330
1F
100
AcDbEntity
  8
0
  6
Continuous
 62
     7
370
    25
100
AcDbLine
 10
31.7362985881
 20
19.7936440399
 30
0.0
 11
31.6181886992
 21
19.7936440399
 31
0.0
  0
LINE
  5
13A
330
1F
100
AcDbEntity
  8
0
  6
Continuous
 62
     7
370
    25
100
AcDbLine
 10
31.8071647561
 20
20.5613754777
 30
0.0
 11
31.9449600177
 21
20.5613754777
 31
0.0
  0
LINE
  5
13B
330
1F
100
AcDbEntity
  8
0
  6
Continuous
 62
     7
370
    25
100
AcDbLine
 10
31.9449600177
 20
20.5298794682
 30
0.0
 11
31.9449600177
 21
20.5613754777
 31
0.0
  0
ARC
  5
13C
330
1F
100
AcDbEntity
  8
0
  6
Continuous
 62
     7
370
    25
100
AcDbCircle
 10
31.8071648138
 20
20.529879333
 30
0.0
 40
0.0314960629921259
100
AcDbArc
 50
90.0
 51
180.0
  0
LINE
  5
13D
330
1F
100
AcDbEntity
  8
0
  6
Continuous
 62
     7
370
    25
100
AcDbLine
 10
31.9449600177
 20
20.5298794682
 30
0.0
 11
31.8071647561
 21
20.5298794682
 31
0.0
  0
LINE
  5
13E
330
1F
100
AcDbEntity
  8
0
  6
Continuous
 62
     7
370
    25
100
AcDbLine
 10
32.0630704932
 20
20.5613754777
 30
0.0
 11
32.0630704932
 21
20.5298794682
 31
0.0
  0
LINE
  5
13F
330
1F
100
AcDbEntity
  8
0
  6
Continuous
 62
     7
370
    25
100
AcDbLine
 10
31.9449600177
 20
20.5613754777
 30
0.0
 11
32.0630704932
 21
20.5613754777
 31
0.0
  0
LINE
  5
140
330
1F
100
AcDbEntity
  8
0
  6
Continuous
 62
     7
370
    25
100
AcDbLine
 10
32.0630704932
 20
20.5298794682
 30
0.0
 11
31.9449600177
 21
20.5298794682
 31
0.0
  0
LINE
  5
141
330
1F
100
AcDbEntity
  8
0
  6
Continuous
 62
     7
370
    25
100
AcDbLine
 10
31.7284244391
 20
20.5298794682
 30
0.0
 11
31.7284244391
 21
20.5613754777
 31
0.0
  0
LINE
  5
142
330
1F
100
AcDbEntity
  8
0
  6
Continuous
 62
     7
370
    25
100
AcDbLine
 10
31.7284244391
 20
20.5613754777
 30
0.0
 11
31.8071647561
 21
20.5613754777
 31
0.0
  0
LINE
  5
143
330
1F
100
AcDbEntity
  8
0
  6
Continuous
 62
     7
370
    25
100
AcDbLine
 10
31.7284244391
 20
20.5613754777
 30
0.0
 11
31.6969284296
 21
20.5613754777
 31
0.0
  0
LINE
  5
144
330
1F
100
AcDbEntity
  8
0
  6
Continuous
 62
     7
370
    25
100
AcDbLine
 10
32.6811806328
 20
20.6556828149
 30
0.0
 11
11.8150382669
 21
20.6556828149
 31
0.0
  0
LINE
  5
145
330
1F
100
AcDbEntity
  8
0
  6
Continuous
 62
     7
370
    25
100
AcDbLine
 10
32.6811806328
 20
20.6322571922
 30
0.0
 11
32.6811806328
 21
20.6556828149
 31
0.0
  0
LINE
  5
146
330
1F
100
AcDbEntity
  8
0
  6
Continuous
 62
     7
370
    25
100
AcDbLine
 10
11.8150382669
 20
20.6322571922
 30
0.0
 11
32.6811806328
 21
20.6322571922
 31
0.0
  0
LINE
  5
147
330
1F
100
AcDbEntity
  8
0
  6
Continuous
 62
     7
370
    25
100
AcDbLine
 10
11.8150382669
 20
20.6556828149
 30
0.0
 11
11.8150382669
 21
20.6322571922
 31
0.0
  0
ELLIPSE
  5
148
330
1F
100
AcDbEntity
  8
0
  6
Continuous
 62
     7
370
    25
100
AcDbEllipse
 10
32.6811806866
 20
20.6714309086
 30
0.0
 11
0.1968503937007924
 21
0.0
 31
0.0
210
0.0
220
0.0
230
1.0
 40
0.08
 41
4.712388980384691
 42
6.283185307179586
  0
LINE
  5
149
330
1F
100
AcDbEntity
  8
0
  6
Continuous
 62
     7
370
    25
100
AcDbLine
 10
32.8780311321
 20
20.6714308196
 30
0.0
 11
32.8780311321
 21
20.6322571922
 31
0.0
  0
LINE
  5
14A
330
1F
100
AcDbEntity
  8
0
  6
Continuous
 62
     7
370
    25
100
AcDbLine
 10
32.6811806328
 20
20.6322571922
 30
0.0
 11
32.8780311321
 21
20.6322571922
 31
0.0
  0
ELLIPSE
  5
14B
330
1F
100
AcDbEntity
  8
0
  6
Continuous
 62
     7
370
    25
100
AcDbEllipse
 10
32.6811806866
 20
20.7106056011
 30
0.0
 11
0.1574803149606296
 21
0.0
 31
0.0
210
0.0
220
0.0
230
1.0
 40
0.1
 41
4.712388980384691
 42
6.283185307179586
  0
ARC
  5
14C
330
1F
100
AcDbEntity
  8
0
  6
Continuous
 62
     7
370
    25
100
AcDbCircle
 10
32.8387583305
 20
20.6713328172
 30
0.0
 40
0.0392729238641277
100
AcDbArc
 50
0.1429771365
 51
90.1420354525
  0
LINE
  5
14D
330
1F
100
AcDbEntity
  8
0
  6
Continuous
 62
     7
370
    25
100
AcDbLine
 10
32.6811806328
 20
20.6556828149
 30
0.0
 11
32.6811806328
 21
20.6948576157
 31
0.0
  0
LINE
  5
14E
330
1F
100
AcDbEntity
  8
0
  6
Continuous
 62
     7
370
    25
100
AcDbLine
 10
32.6811806328
 20
20.5928870337
 30
0.0
 11
11.8150382669
 21
20.5928870337
 31
0.0
  0
LINE
  5
14F
330
1F
100
AcDbEntity
  8
0
  6
Continuous
 62
     7
370
    25
100
AcDbLine
 10
11.8150382669
 20
20.5928870337
 30
0.0
 11
11.8150382669
 21
20.6322571922
 31
0.0
  0
LINE
  5
150
330
1F
100
AcDbEntity
  8
0
  6
Continuous
 62
     7
370
    25
100
AcDbLine
 10
32.6811806328
 20
20.5928870337
 30
0.0
 11
32.6811806328
 21
20.6322571922
 31
0.0
  0
LINE
  5
151
330
1F
100
AcDbEntity
  8
0
  6
Continuous
 62
     7
370
    25
100
AcDbLine
 10
11.8150382669
 20
20.6556828149
 30
0.0
 11
11.8150382669
 21
20.6948576157
 31
0.0
  0
LINE
  5
152
330
1F
100
AcDbEntity
  8
0
  6
Continuous
 62
     7
370
    25
100
AcDbLine
 10
11.8150382669
 20
20.6948576157
 30
0.0
 11
32.6811806328
 21
20.6948576157
 31
0.0
  0
LINE
  5
153
330
1F
100
AcDbEntity
  8
0
  6
Continuous
 62
     7
370
    25
100
AcDbLine
 10
32.8386609735
 20
20.5928870337
 30
0.0
 11
32.6811806328
 21
20.5928870337
 31
0.0
  0
ARC
  5
154
330
1F
100
AcDbEntity
  8
0
  6
Continuous
 62
     7
370
    25
100
AcDbCircle
 10
32.8386610016
 20
20.6322571906
 30
0.0
 40
0.0393700787401627
100
AcDbArc
 50
270.0
 51
0.0
  0
LINE
  5
155
330
1F
100
AcDbEntity
  8
0
  6
Continuous
 62
     7
370
    25
100
AcDbLine
 10
11.8150382669
 20
20.5928870337
 30
0.0
 11
11.6575576328
 21
20.5928870337
 31
0.0
  0
ARC
  5
156
330
1F
100
AcDbEntity
  8
0
  6
Continuous
 62
     7
370
    25
100
AcDbCircle
 10
11.6575586394
 20
20.6322571906
 30
0.0
 40
0.0393700787401627
100
AcDbArc
 50
180.0
 51
270.0
  0
LINE
  5
157
330
1F
100
AcDbEntity
  8
0
  6
Continuous
 62
     7
370
    25
100
AcDbLine
 10
11.6181880609
 20
20.6322571922
 30
0.0
 11
11.8150382669
 21
20.6322571922
 31
0.0
  0
LWPOLYLINE
  5
158
330
1F
100
AcDbEntity
  8
0
  6
Continuous
 62
     7
370
    25
100
AcDbPolyline
 90
        5
 70
   128
 43
0.0
 10
11.6758449949
 20
20.6602954283
 10
11.651364851
 20
20.6583368642
 10
11.6331737011
 20
20.6568816544
 10
11.6219708439
 20
20.6559855314
 10
11.6181880609
 20
20.6556828149
  0
ELLIPSE
  5
159
330
1F
100
AcDbEntity
  8
0
  6
Continuous
 62
     7
370
    25
100
AcDbEllipse
 10
11.8150389543
 20
20.6714309086
 30
0.0
 11
0.1968503937007871
 21
0.0
 31
0.0
210
0.0
220
0.0
230
1.0
 40
0.08
 41
3.926990816987298
 42
4.712388980384691
  0
LINE
  5
15A
330
1F
100
AcDbEntity
  8
0
  6
Continuous
 62
     7
370
    25
100
AcDbLine
 10
11.6181880609
 20
20.6322571922
 30
0.0
 11
11.6181880609
 21
20.6556828149
 31
0.0
  0
ARC
  5
15B
330
1F
100
AcDbEntity
  8
0
  6
Continuous
 62
     7
370
    25
100
AcDbCircle
 10
11.7123096752
 20
20.6645136718
 30
0.0
 40
0.0367078532114425
100
AcDbArc
 50
106.7306034813
 51
186.5986604685
  0
ELLIPSE
  5
15C
330
1F
100
AcDbEntity
  8
0
  6
Continuous
 62
     7
370
    25
100
AcDbEllipse
 10
11.8150389543
 20
20.7106056011
 30
0.0
 11
0.1574803149606296
 21
0.0
 31
0.0
210
0.0
220
0.0
230
1.0
 40
0.1
 41
3.909399971171127
 42
4.712388980384691
  0
LINE
  5
15D
330
1F
100
AcDbEntity
  8
0
  6
Continuous
 62
     7
370
    25
100
AcDbLine
 10
12.2087386788
 20
20.7503673744
 30
0.0
 11
11.701742509
 21
20.6996676401
 31
0.0
  0
LINE
  5
15E
330
1F
100
AcDbEntity
  8
0
  6
Continuous
 62
     7
370
    25
100
AcDbLine
 10
12.2087386788
 20
20.7503673744
 30
0.0
 11
32.8386609735
 21
20.7503673744
 31
0.0
  0
LINE
  5
15F
330
1F
100
AcDbEntity
  8
0
  6
Continuous
 62
     7
370
    25
100
AcDbLine
 10
32.8386609735
 20
20.7106056204
 30
0.0
 11
32.8386609735
 21
20.7503673744
 31
0.0
  0
ARC
  5
160
330
1F
100
AcDbEntity
  8
0
  6
Continuous
 62
     7
370
    25
100
AcDbCircle
 10
11.6575586394
 20
20.6556828771
 30
0.0
 40
0.0393700787401627
100
AcDbArc
 50
95.7105931375
 51
180.0
  0
LWPOLYLINE
  5
161
330
1F
100
AcDbEntity
  8
0
  6
Continuous
 62
     7
370
    25
100
AcDbPolyline
 90
        5
 70
   128
 43
0.0
 10
11.6536410914
 20
20.6948576157
 10
11.6568043615
 20
20.6951738254
 10
11.6661651067
 20
20.6961098412
 10
11.6813478646
 20
20.697628117
 10
11.701742509
 20
20.6996676401
  0
ARC
  5
162
330
1F
100
AcDbEntity
  8
0
  6
Continuous
 62
     7
370
    25
100
AcDbCircle
 10
32.8386610016
 20
20.710997348
 30
0.0
 40
0.0393700787401627
100
AcDbArc
 50
0.0
 51
90.0
  0
LINE
  5
163
330
1F
100
AcDbEntity
  8
0
  6
Continuous
 62
     7
370
    25
100
AcDbLine
 10
32.8780311321
 20
20.7109972159
 30
0.0
 11
32.8780311321
 21
20.6714308196
 31
0.0
  0
LINE
  5
164
330
1F
100
AcDbEntity
  8
0
  6
Continuous
 62
     7
370
    25
100
AcDbLine
 10
20.3058302072
 20
17.6716263603
 30
0.0
 11
21.7348867653
 21
17.6716264153
 31
0.0
  0
LINE
  5
165
330
1F
100
AcDbEntity
  8
0
  6
Continuous
 62
     7
370
    25
100
AcDbLine
 10
22.0591336862
 20
17.6716264336
 30
0.0
 11
22.5000778191
 21
17.671626287
 31
0.0
  0
LINE
  5
166
330
1F
100
AcDbEntity
  8
0
  6
Continuous
 62
     7
370
    25
100
AcDbLine
 10
20.2233974528
 20
17.6716263053
 30
0.0
 11
20.2233974528
 21
17.6716263603
 31
0.0
  0
LINE
  5
167
330
1F
100
AcDbEntity
  8
0
  6
Continuous
 62
     7
370
    25
100
AcDbLine
 10
19.2372515115
 20
17.6716263236
 30
0.0
 11
19.2372515115
 21
17.671626287
 31
0.0
  0
LINE
  5
168
330
1F
100
AcDbEntity
  8
0
  6
Continuous
 62
     7
370
    25
100
AcDbLine
 10
22.5000778191
 20
17.671626287
 30
0.0
 11
22.0591336862
 21
17.6716264703
 31
0.0
  0
LINE
  5
169
330
1F
100
AcDbEntity
  8
0
  6
Continuous
 62
     7
370
    25
100
AcDbLine
 10
21.7348867653
 20
17.671626452
 30
0.0
 11
20.3021377699
 21
17.6716263786
 31
0.0
  0
ARC
  5
16A
330
1F
100
AcDbEntity
  8
0
  6
Continuous
 62
     7
370
    25
100
AcDbCircle
 10
14.9157223251
 20
17.5338310174
 30
0.0
 40
0.118110236220479
100
AcDbArc
 50
44.9999999522
 51
89.9999999522
  0
LINE
  5
16B
330
1F
100
AcDbEntity
  8
0
  6
Continuous
 62
     7
370
    25
100
AcDbLine
 10
13.5473228954
 20
17.6519412627
 30
0.0
 11
14.9157211675
 21
17.6519412627
 31
0.0
  0
LINE
  5
16C
330
1F
100
AcDbEntity
  8
0
  6
Continuous
 62
     7
370
    25
100
AcDbLine
 10
13.5473228954
 20
17.671626287
 30
0.0
 11
13.5473228954
 21
17.6519412627
 31
0.0
  0
ARC
  5
16D
330
1F
100
AcDbEntity
  8
0
  6
Continuous
 62
     7
370
    25
100
AcDbCircle
 10
14.9157223251
 20
17.5338310174
 30
0.0
 40
0.137795275590552
100
AcDbArc
 50
45.0000055591
 51
90.0000001307
  0
LINE
  5
16E
330
1F
100
AcDbEntity
  8
0
  6
Continuous
 62
     7
370
    25
100
AcDbLine
 10
15.2925351612
 20
17.3518892773
 30
0.0
 11
15.0131583353
 21
17.6312670015
 31
0.0
  0
ARC
  5
16F
330
1F
100
AcDbEntity
  8
0
  6
Continuous
 62
     7
370
    25
100
AcDbCircle
 10
15.3760525673
 20
17.4354058201
 30
0.0
 40
0.1181102362204741
100
AcDbArc
 50
224.9999999522
 51
269.9999999522
  0
LINE
  5
170
330
1F
100
AcDbEntity
  8
0
  6
Continuous
 62
     7
370
    25
100
AcDbLine
 10
18.7769217893
 20
17.3172955936
 30
0.0
 11
15.3760520631
 21
17.3172955936
 31
0.0
  0
ARC
  5
171
330
1F
100
AcDbEntity
  8
0
  6
Continuous
 62
     7
370
    25
100
AcDbCircle
 10
18.7769214925
 20
17.4354058173
 30
0.0
 40
0.1181102362204878
100
AcDbArc
 50
270.0
 51
314.9999999522
  0
LINE
  5
172
330
1F
100
AcDbEntity
  8
0
  6
Continuous
 62
     7
370
    25
100
AcDbLine
 10
18.8604375178
 20
17.3518892773
 30
0.0
 11
19.1398155171
 21
17.6312669832
 31
0.0
  0
ARC
  5
173
330
1F
100
AcDbEntity
  8
0
  6
Continuous
 62
     7
370
    25
100
AcDbCircle
 10
19.2372517349
 20
17.5338310137
 30
0.0
 40
0.137795275590552
100
AcDbArc
 50
89.9999999521
 51
134.9999999522
  0
LINE
  5
174
330
1F
100
AcDbEntity
  8
0
  6
Continuous
 62
     7
370
    25
100
AcDbLine
 10
20.0265472468
 20
17.6519412444
 30
0.0
 11
20.0265472468
 21
17.671626287
 31
0.0
  0
LINE
  5
175
330
1F
100
AcDbEntity
  8
0
  6
Continuous
 62
     7
370
    25
100
AcDbLine
 10
19.2372515115
 20
17.6519412444
 30
0.0
 11
20.0265472468
 21
17.6519412444
 31
0.0
  0
ARC
  5
176
330
1F
100
AcDbEntity
  8
0
  6
Continuous
 62
     7
370
    25
100
AcDbCircle
 10
19.2372517349
 20
17.5338310137
 30
0.0
 40
0.1181102362204904
100
AcDbArc
 50
89.9999999522
 51
134.9999999522
  0
LINE
  5
177
330
1F
100
AcDbEntity
  8
0
  6
Continuous
 62
     7
370
    25
100
AcDbLine
 10
18.8743577837
 20
17.3379698181
 30
0.0
 11
19.1537346096
 21
17.6173475607
 31
0.0
  0
ARC
  5
178
330
1F
100
AcDbEntity
  8
0
  6
Continuous
 62
     7
370
    25
100
AcDbCircle
 10
18.7769214925
 20
17.4354058173
 30
0.0
 40
0.1377952755905518
100
AcDbArc
 50
269.9999999522
 51
314.9999809215
  0
LINE
  5
179
330
1F
100
AcDbEntity
  8
0
  6
Continuous
 62
     7
370
    25
100
AcDbLine
 10
18.7769217893
 20
17.2976105143
 30
0.0
 11
15.3760520631
 21
17.2976105143
 31
0.0
  0
ARC
  5
17A
330
1F
100
AcDbEntity
  8
0
  6
Continuous
 62
     7
370
    25
100
AcDbCircle
 10
15.3760525673
 20
17.4354058201
 30
0.0
 40
0.137795275590568
100
AcDbArc
 50
224.9999999522
 51
269.9999999522
  0
LINE
  5
17B
330
1F
100
AcDbEntity
  8
0
  6
Continuous
 62
     7
370
    25
100
AcDbLine
 10
15.278617242
 20
17.3379698547
 30
0.0
 11
14.9992380694
 21
17.6173475607
 31
0.0
  0
LINE
  5
17C
330
1F
100
AcDbEntity
  8
0
  6
Continuous
 62
     7
370
    25
100
AcDbLine
 10
19.1398155171
 20
17.6312669832
 30
0.0
 11
19.1398155171
 21
17.6312670199
 31
0.0
  0
ARC
  5
17D
330
1F
100
AcDbEntity
  8
0
  6
Continuous
 62
     7
370
    25
100
AcDbCircle
 10
19.2372517344
 20
17.5338310405
 30
0.0
 40
0.137795275590552
100
AcDbArc
 50
89.9999999521
 51
134.9999999522
  0
LINE
  5
17E
330
1F
100
AcDbEntity
  8
0
  6
Continuous
 62
     7
370
    25
100
AcDbLine
 10
20.2233974528
 20
17.6716263053
 30
0.0
 11
20.2233974528
 21
17.6519412627
 31
0.0
  0
LWPOLYLINE
  5
17F
330
1F
100
AcDbEntity
  8
0
  6
Continuous
 62
     7
370
    25
100
AcDbPolyline
 90
        9
 70
   128
 43
0.0
 10
20.2233974528
 20
17.6519412627
 10
20.2196146698
 20
17.6519412627
 10
20.2084129859
 20
17.6519412627
 10
20.1902218361
 20
17.6519412627
 10
20.1657405189
 20
17.6519412444
 10
20.1359112101
 20
17.6519412444
 10
20.1018778966
 20
17.6519412444
 10
20.0649500032
 20
17.6519412444
 10
20.0265472468
 20
17.6519412444
  0
ARC
  5
180
330
1F
100
AcDbEntity
  8
0
  6
Continuous
 62
     7
370
    25
100
AcDbCircle
 10
14.9157223241
 20
17.533831062
 30
0.0
 40
0.1377952755905743
100
AcDbArc
 50
44.9999999522
 51
89.9999999521
  0
LINE
  5
181
330
1F
100
AcDbEntity
  8
0
  6
Continuous
 62
     7
370
    25
100
AcDbLine
 10
15.0131583353
 20
17.6312670015
 30
0.0
 11
15.0131583353
 21
17.6312670382
 31
0.0
  0
LINE
  5
182
330
1F
100
AcDbEntity
  8
0
  6
Continuous
 62
     7
370
    25
100
AcDbLine
 10
14.9157211675
 20
17.671626342
 30
0.0
 11
14.9157211675
 21
17.671626287
 31
0.0
  0
LINE
  5
183
330
1F
100
AcDbEntity
  8
0
  6
Continuous
 62
     7
370
    25
100
AcDbLine
 10
13.3504726894
 20
17.6716263603
 30
0.0
 11
13.3504726894
 21
17.6716263053
 31
0.0
  0
LINE
  5
184
330
1F
100
AcDbEntity
  8
0
  6
Continuous
 62
     7
370
    25
100
AcDbLine
 10
13.3504726894
 20
17.6519412627
 30
0.0
 11
13.3504726894
 21
17.6716263053
 31
0.0
  0
LINE
  5
185
330
1F
100
AcDbEntity
  8
0
  6
Continuous
 62
     7
370
    25
100
AcDbLine
 10
13.5473228954
 20
17.6519412627
 30
0.0
 11
13.3504726894
 21
17.6519412627
 31
0.0
  0
LINE
  5
186
330
1F
100
AcDbEntity
  8
0
  6
Continuous
 62
     7
370
    25
100
AcDbLine
 10
18.8604375178
 20
17.3518892773
 30
0.0
 11
19.1398155171
 21
17.6312670199
 31
0.0
  0
LINE
  5
187
330
1F
100
AcDbEntity
  8
0
  6
Continuous
 62
     7
370
    25
100
AcDbLine
 10
15.0131583353
 20
17.6312670382
 30
0.0
 11
15.2925351612
 21
17.3518893139
 31
0.0
  0
LINE
  5
188
330
1F
100
AcDbEntity
  8
0
  6
Continuous
 62
     7
370
    25
100
AcDbLine
 10
15.2925351612
 20
17.3518892773
 30
0.0
 11
15.2925351612
 21
17.3518893139
 31
0.0
  0
ARC
  5
189
330
1F
100
AcDbEntity
  8
0
  6
Continuous
 62
     7
370
    25
100
AcDbCircle
 10
18.7769214919
 20
17.435405844
 30
0.0
 40
0.1181102362204706
100
AcDbArc
 50
269.9999999522
 51
314.9999999522
  0
ARC
  5
18A
330
1F
100
AcDbEntity
  8
0
  6
Continuous
 62
     7
370
    25
100
AcDbCircle
 10
15.3760525663
 20
17.4354058647
 30
0.0
 40
0.1181102362204742
100
AcDbArc
 50
224.9999999522
 51
269.9999999522
  0
LINE
  5
18B
330
1F
100
AcDbEntity
  8
0
  6
Continuous
 62
     7
370
    25
100
AcDbLine
 10
15.3760520631
 20
17.3172956302
 30
0.0
 11
15.3760520631
 21
17.3172955936
 31
0.0
  0
LINE
  5
18C
330
1F
100
AcDbEntity
  8
0
  6
Continuous
 62
     7
370
    25
100
AcDbLine
 10
15.9014036475
 20
17.3172958502
 30
0.0
 11
16.7306333215
 21
17.3172958502
 31
0.0
  0
LINE
  5
18D
330
1F
100
AcDbEntity
  8
0
  6
Continuous
 62
     7
370
    25
100
AcDbLine
 10
16.7306333215
 20
17.3172958502
 30
0.0
 11
18.7769217893
 21
17.3172959236
 31
0.0
  0
LWPOLYLINE
  5
18E
330
1F
100
AcDbEntity
  8
0
  6
Continuous
 62
     7
370
    25
100
AcDbPolyline
 90
       11
 70
   128
 43
0.0
 10
19.8242692636
 20
17.6173476707
 10
19.704803017
 20
17.6173476707
 10
19.5948183675
 20
17.617347634
 10
19.4953091171
 20
17.617347634
 10
19.4071716819
 20
17.617347634
 10
19.3312027462
 20
17.617347634
 10
19.2680898753
 20
17.617347634
 10
19.2183997826
 20
17.6173475973
 10
19.1825841964
 20
17.6173475973
 10
19.1609634328
 20
17.6173475973
 10
19.1537346096
 20
17.6173475973
  0
ARC
  5
18F
330
1F
100
AcDbEntity
  8
0
  6
Continuous
 62
     7
370
    25
100
AcDbCircle
 10
19.8786278076
 20
17.592425219
 30
0.0
 40
0.0597994975839757
100
AcDbArc
 50
95.5801455311
 51
155.3693635564
  0
ARC
  5
190
330
1F
100
AcDbEntity
  8
0
  6
Continuous
 62
     7
370
    25
100
AcDbCircle
 10
19.2372517344
 20
17.5338310405
 30
0.0
 40
0.1181102362204742
100
AcDbArc
 50
89.9999999522
 51
134.9999999522
  0
LWPOLYLINE
  5
191
330
1F
100
AcDbEntity
  8
0
  6
Continuous
 62
     7
370
    25
100
AcDbPolyline
 90
       10
 70
   128
 43
0.0
 10
19.2372515115
 20
17.651941281
 10
19.2457088005
 20
17.651941281
 10
19.2709856285
 20
17.6519412994
 10
19.3128003988
 20
17.6519412994
 10
19.3706873034
 20
17.6519413177
 10
19.4440021898
 20
17.6519413177
 10
19.5319260807
 20
17.6519413177
 10
19.6334804276
 20
17.651941336
 10
19.7475329767
 20
17.651941336
 10
19.8728130228
 20
17.651941336
  0
LWPOLYLINE
  5
192
330
1F
100
AcDbEntity
  8
0
  6
Continuous
 62
     7
370
    25
100
AcDbPolyline
 90
       12
 70
   128
 43
0.0
 10
18.8743577837
 20
17.3379698547
 10
18.881374236
 20
17.3379698914
 10
18.9023731401
 20
17.3379698914
 10
18.9371972711
 20
17.3379698914
 10
18.9855873254
 20
17.3379698914
 10
19.0471807472
 20
17.3379699281
 10
19.1215187685
 20
17.3379699281
 10
19.2080475822
 20
17.3379699281
 10
19.306119516
 20
17.3379699281
 10
19.4150035914
 20
17.3379699281
 10
19.5338878714
 20
17.3379699647
 10
19.6618841528
 20
17.3379699647
  0
LINE
  5
193
330
1F
100
AcDbEntity
  8
0
  6
Continuous
 62
     7
370
    25
100
AcDbLine
 10
19.6618841528
 20
17.3379699647
 30
0.0
 11
19.8242692636
 21
17.6173476707
 31
0.0
  0
LINE
  5
194
330
1F
100
AcDbEntity
  8
0
  6
Continuous
 62
     7
370
    25
100
AcDbLine
 10
18.8743577837
 20
17.3379698547
 30
0.0
 11
19.1537346096
 21
17.6173475973
 31
0.0
  0
ARC
  5
195
330
1F
100
AcDbEntity
  8
0
  6
Continuous
 62
     7
370
    25
100
AcDbCircle
 10
19.5984669181
 20
17.3670445155
 30
0.0
 40
0.0697644261710058
100
AcDbArc
 50
275.5798821206
 51
335.3702248777
  0
ARC
  5
196
330
1F
100
AcDbEntity
  8
0
  6
Continuous
 62
     7
370
    25
100
AcDbCircle
 10
18.7769214919
 20
17.435405844
 30
0.0
 40
0.1377952755905655
100
AcDbArc
 50
269.9999999522
 51
314.9999999522
  0
LWPOLYLINE
  5
197
330
1F
100
AcDbEntity
  8
0
  6
Continuous
 62
     7
370
    25
100
AcDbPolyline
 90
       12
 70
   128
 43
0.0
 10
19.6052503537
 20
17.297610661
 10
19.4706224689
 20
17.297610661
 10
19.3455782601
 20
17.297610661
 10
19.2310528631
 20
17.297610661
 10
19.1278992814
 20
17.297610661
 10
19.0368883861
 20
17.2976105876
 10
18.9586995294
 20
17.2976105876
 10
18.8939146778
 20
17.2976105876
 10
18.8430172391
 20
17.2976105876
 10
18.8063897155
 20
17.2976105876
 10
18.7843019707
 20
17.2976105876
 10
18.7769217893
 20
17.2976105876
  0
LWPOLYLINE
  5
198
330
1F
100
AcDbEntity
  8
0
  6
Continuous
 62
     7
370
    25
100
AcDbPolyline
 90
        9
 70
   128
 43
0.0
 10
14.9992380694
 20
17.6173475973
 10
14.9905836627
 20
17.617347634
 10
14.9649489722
 20
17.617347634
 10
14.9233195864
 20
17.617347634
 10
14.8672982603
 20
17.617347634
 10
14.7990345155
 20
17.617347634
 10
14.7211542419
 20
17.617347634
 10
14.6366470581
 20
17.617347634
 10
14.5487654066
 20
17.617347634
  0
LINE
  5
199
330
1F
100
AcDbEntity
  8
0
  6
Continuous
 62
     7
370
    25
100
AcDbLine
 10
14.5487654066
 20
17.617347634
 30
0.0
 11
14.5487654066
 21
17.6519413177
 31
0.0
  0
LWPOLYLINE
  5
19A
330
1F
100
AcDbEntity
  8
0
  6
Continuous
 62
     7
370
    25
100
AcDbPolyline
 90
        9
 70
   128
 43
0.0
 10
14.5487654066
 20
17.6519413177
 10
14.6203543396
 20
17.6519413177
 10
14.6891930111
 20
17.6519413177
 10
14.7526344115
 20
17.6519413177
 10
14.8082427291
 20
17.6519413177
 10
14.8538778286
 20
17.6519413177
 10
14.8877891169
 20
17.6519412994
 10
14.9086718623
 20
17.6519412994
 10
14.9157211675
 20
17.6519412994
  0
ARC
  5
19B
330
1F
100
AcDbEntity
  8
0
  6
Continuous
 62
     7
370
    25
100
AcDbCircle
 10
14.9157223241
 20
17.533831062
 30
0.0
 40
0.1181102362204854
100
AcDbArc
 50
44.9999999522
 51
89.9999999522
  0
LWPOLYLINE
  5
19C
330
1F
100
AcDbEntity
  8
0
  6
Continuous
 62
     7
370
    25
100
AcDbPolyline
 90
       12
 70
   128
 43
0.0
 10
14.5487654066
 20
17.3379699281
 10
14.6526323668
 20
17.3379699281
 10
14.7543873513
 20
17.3379699281
 10
14.8519559308
 20
17.3379699281
 10
14.9433528483
 20
17.3379699281
 10
15.026714872
 20
17.3379699281
 10
15.1003500747
 20
17.3379699281
 10
15.1627542605
 20
17.3379699281
 10
15.2126602439
 20
17.3379698914
 10
15.2490519302
 20
17.3379698914
 10
15.2711877812
 20
17.3379698914
 10
15.278617242
 20
17.3379698914
  0
LINE
  5
19D
330
1F
100
AcDbEntity
  8
0
  6
Continuous
 62
     7
370
    25
100
AcDbLine
 10
14.5487654066
 20
17.617347634
 30
0.0
 11
14.5487654066
 21
17.3379699281
 31
0.0
  0
LINE
  5
19E
330
1F
100
AcDbEntity
  8
0
  6
Continuous
 62
     7
370
    25
100
AcDbLine
 10
14.9992380694
 20
17.6173475973
 30
0.0
 11
15.278617242
 21
17.3379698914
 31
0.0
  0
LINE
  5
19F
330
1F
100
AcDbEntity
  8
0
  6
Continuous
 62
     7
370
    25
100
AcDbLine
 10
14.5487654066
 20
17.3379699281
 30
0.0
 11
14.5487654066
 21
17.297610661
 31
0.0
  0
ARC
  5
1A0
330
1F
100
AcDbEntity
  8
0
  6
Continuous
 62
     7
370
    25
100
AcDbCircle
 10
15.3760525663
 20
17.4354058647
 30
0.0
 40
0.137795275590568
100
AcDbArc
 50
224.9999999522
 51
269.9999999522
  0
LWPOLYLINE
  5
1A1
330
1F
100
AcDbEntity
  8
0
  6
Continuous
 62
     7
370
    25
100
AcDbPolyline
 90
       13
 70
   128
 43
0.0
 10
15.3760520631
 20
17.2976105876
 10
15.3689745982
 20
17.2976105876
 10
15.3478642287
 20
17.2976105876
 10
15.3130799906
 20
17.2976105876
 10
15.2652179301
 20
17.2976105876
 10
15.2050970246
 20
17.2976105876
 10
15.1337451022
 20
17.2976105876
 10
15.0523847621
 20
17.297610661
 10
14.9624075616
 20
17.297610661
 10
14.8653528961
 20
17.297610661
 10
14.7628821865
 20
17.297610661
 10
14.6567483726
 20
17.297610661
 10
14.5487654066
 20
17.297610661
  0
LINE
  5
1A2
330
1F
100
AcDbEntity
  8
0
  6
Continuous
 62
     7
370
    25
100
AcDbLine
 10
14.5487654066
 20
17.617347634
 30
0.0
 11
13.3504726894
 21
17.617347634
 31
0.0
  0
LINE
  5
1A3
330
1F
100
AcDbEntity
  8
0
  6
Continuous
 62
     7
370
    25
100
AcDbLine
 10
13.3504726894
 20
17.617347634
 30
0.0
 11
13.3504726894
 21
17.6519413177
 31
0.0
  0
LINE
  5
1A4
330
1F
100
AcDbEntity
  8
0
  6
Continuous
 62
     7
370
    25
100
AcDbLine
 10
13.3504726894
 20
17.6519413177
 30
0.0
 11
14.5487654066
 21
17.6519413177
 31
0.0
  0
LINE
  5
1A5
330
1F
100
AcDbEntity
  8
0
  6
Continuous
 62
     7
370
    25
100
AcDbLine
 10
20.3058302072
 20
17.6716263603
 30
0.0
 11
20.3058302072
 21
17.6519413177
 31
0.0
  0
LINE
  5
1A6
330
1F
100
AcDbEntity
  8
0
  6
Continuous
 62
     7
370
    25
100
AcDbLine
 10
20.3058302072
 20
17.6519413177
 30
0.0
 11
20.270642347
 21
17.6519413177
 31
0.0
  0
LINE
  5
1A7
330
1F
100
AcDbEntity
  8
0
  6
Continuous
 62
     7
370
    25
100
AcDbLine
 10
20.2312716019
 20
17.6519413177
 30
0.0
 11
20.2233974528
 21
17.6519413177
 31
0.0
  0
LINE
  5
1A8
330
1F
100
AcDbEntity
  8
0
  6
Continuous
 62
     7
370
    25
100
AcDbLine
 10
13.3504726894
 20
17.3379699281
 30
0.0
 11
14.5487654066
 21
17.3379699281
 31
0.0
  0
LINE
  5
1A9
330
1F
100
AcDbEntity
  8
0
  6
Continuous
 62
     7
370
    25
100
AcDbLine
 10
13.3504726894
 20
17.617347634
 30
0.0
 11
13.3504726894
 21
17.3379699281
 31
0.0
  0
LINE
  5
1AA
330
1F
100
AcDbEntity
  8
0
  6
Continuous
 62
     7
370
    25
100
AcDbLine
 10
20.3058302072
 20
17.6519413177
 30
0.0
 11
21.7954711321
 21
17.651941391
 31
0.0
  0
LINE
  5
1AB
330
1F
100
AcDbEntity
  8
0
  6
Continuous
 62
     7
370
    25
100
AcDbLine
 10
22.0591336862
 20
17.651941391
 30
0.0
 11
30.4011363587
 21
17.651941721
 31
0.0
  0
LINE
  5
1AC
330
1F
100
AcDbEntity
  8
0
  6
Continuous
 62
     7
370
    25
100
AcDbLine
 10
13.3504726894
 20
17.297610661
 30
0.0
 11
13.3504726894
 21
17.3379699281
 31
0.0
  0
LINE
  5
1AD
330
1F
100
AcDbEntity
  8
0
  6
Continuous
 62
     7
370
    25
100
AcDbLine
 10
14.5487654066
 20
17.297610661
 30
0.0
 11
13.3504726894
 21
17.297610661
 31
0.0
  0
ARC
  5
1AE
330
1F
100
AcDbEntity
  8
0
  6
Continuous
 62
     7
370
    25
100
AcDbCircle
 10
30.0968728181
 20
17.5924279486
 30
0.0
 40
0.0597970850164553
100
AcDbArc
 50
95.5794078285
 51
155.3707557704
  0
LINE
  5
1AF
330
1F
100
AcDbEntity
  8
0
  6
Continuous
 62
     7
370
    25
100
AcDbLine
 10
19.8728130228
 20
17.651941336
 30
0.0
 11
20.2312716019
 21
17.6519413544
 31
0.0
  0
LINE
  5
1B0
330
1F
100
AcDbEntity
  8
0
  6
Continuous
 62
     7
370
    25
100
AcDbLine
 10
20.270642347
 20
17.6519413544
 30
0.0
 11
21.7954711321
 21
17.6519414277
 31
0.0
  0
LINE
  5
1B1
330
1F
100
AcDbEntity
  8
0
  6
Continuous
 62
     7
370
    25
100
AcDbLine
 10
22.0591336862
 20
17.6519414277
 30
0.0
 11
30.0910590341
 21
17.6519417394
 31
0.0
  0
LINE
  5
1B2
330
1F
100
AcDbEntity
  8
0
  6
Continuous
 62
     7
370
    25
100
AcDbLine
 10
19.6618841528
 20
17.3379699647
 30
0.0
 11
29.8801295774
 21
17.3379703681
 31
0.0
  0
LINE
  5
1B3
330
1F
100
AcDbEntity
  8
0
  6
Continuous
 62
     7
370
    25
100
AcDbLine
 10
29.8801295774
 20
17.3379703681
 30
0.0
 11
30.0425158615
 21
17.617348074
 31
0.0
  0
ARC
  5
1B4
330
1F
100
AcDbEntity
  8
0
  6
Continuous
 62
     7
370
    25
100
AcDbCircle
 10
29.8167129499
 20
17.3670440038
 30
0.0
 40
0.0697634928627107
100
AcDbArc
 50
275.5794559628
 51
335.3707002377
  0
LINE
  5
1B5
330
1F
100
AcDbEntity
  8
0
  6
Continuous
 62
     7
370
    25
100
AcDbLine
 10
29.8234957783
 20
17.2976110276
 30
0.0
 11
19.6052503537
 21
17.297610661
 31
0.0
  0
LINE
  5
1B6
330
1F
100
AcDbEntity
  8
0
  6
Continuous
 62
     7
370
    25
100
AcDbLine
 10
15.9014036475
 20
17.3172958502
 30
0.0
 11
15.9014036475
 21
17.3518895339
 31
0.0
  0
ELLIPSE
  5
1B7
330
1F
100
AcDbEntity
  8
0
  6
Continuous
 62
     7
370
    25
100
AcDbEllipse
 10
15.4475579739
 20
17.435406233
 30
0.0
 11
2.070344318703786
 21
-0.03567631722583898
 31
0.0
210
0.0
220
0.0
230
1.0
 40
0.0374678255
 41
4.934041453913752
 42
5.352876791854339
  0
ARC
  5
1B8
330
1F
100
AcDbEntity
  8
0
  6
Continuous
 62
     7
370
    25
100
AcDbCircle
 10
16.7368483866
 20
17.3748683462
 30
0.0
 40
0.0579069886141904
100
AcDbArc
 50
203.3797048837
 51
263.8386671019
  0
LINE
  5
1B9
330
1F
100
AcDbEntity
  8
0
  6
Continuous
 62
     7
370
    25
100
AcDbLine
 10
15.8154673603
 20
17.6312672582
 30
0.0
 11
15.9014036475
 21
17.3518895339
 31
0.0
  0
ELLIPSE
  5
1BA
330
1F
100
AcDbEntity
  8
0
  6
Continuous
 62
     7
370
    25
100
AcDbEllipse
 10
15.4172828263
 20
17.5338314353
 30
0.0
 11
2.047253910583393
 21
0.03934254320316199
 31
0.0
210
0.0
220
0.0
230
1.0
 40
0.044700671
 41
0.9553575900210849
 42
1.374192927961526
  0
LINE
  5
1BB
330
1F
100
AcDbEntity
  8
0
  6
Continuous
 62
     7
370
    25
100
AcDbLine
 10
16.6836958371
 20
17.3518895339
 30
0.0
 11
16.5977618965
 21
17.6312672765
 31
0.0
  0
LINE
  5
1BC
330
1F
100
AcDbEntity
  8
0
  6
Continuous
 62
     7
370
    25
100
AcDbLine
 10
15.8154673603
 20
17.671626562
 30
0.0
 11
15.8154673603
 21
17.6312672582
 31
0.0
  0
ARC
  5
1BD
330
1F
100
AcDbEntity
  8
0
  6
Continuous
 62
     7
370
    25
100
AcDbCircle
 10
16.5357517462
 20
17.6044601023
 30
0.0
 40
0.0675565194993807
100
AcDbArc
 50
23.3789733173
 51
83.8401721245
  0
LWPOLYLINE
  5
1BE
330
1F
100
AcDbEntity
  8
0
  6
Continuous
 62
     7
370
    25
100
AcDbPolyline
 90
       15
 70
   128
 43
0.0
 10
30.4011363587
 20
17.651941721
 10
30.559549782
 20
17.651941721
 10
30.7086939791
 20
17.6519417394
 10
30.847782239
 20
17.6519417394
 10
30.9760835835
 20
17.6519417394
 10
31.0929215938
 20
17.6519417577
 10
31.1976808636
 20
17.6519417577
 10
31.2898099327
 20
17.651941776
 10
31.3688236332
 20
17.651941776
 10
31.4343060234
 20
17.6519417944
 10
31.4859121473
 20
17.6519418127
 10
31.5233703812
 20
17.6519418127
 10
31.5464830209
 20
17.651941831
 10
31.5551292143
 20
17.651941831
 10
31.5551955069
 20
17.651941831
  0
LWPOLYLINE
  5
1BF
330
1F
100
AcDbEntity
  8
0
  6
Continuous
 62
     7
370
    25
100
AcDbPolyline
 90
       13
 70
   128
 43
0.0
 10
30.0910590341
 20
17.6519417394
 10
30.2323548951
 20
17.6519417394
 10
30.3643621702
 20
17.6519417577
 10
30.4862243358
 20
17.6519417577
 10
30.5971517477
 20
17.651941776
 10
30.6964251608
 20
17.651941776
 10
30.7834015961
 20
17.651941776
 10
30.8575172732
 20
17.6519417944
 10
30.9182917178
 20
17.6519417944
 10
30.9653301078
 20
17.6519418127
 10
30.9983291399
 20
17.651941831
 10
31.01707351
 20
17.651941831
 10
31.0217210297
 20
17.651941831
  0
LWPOLYLINE
  5
1C0
330
1F
100
AcDbEntity
  8
0
  6
Continuous
 62
     7
370
    25
100
AcDbPolyline
 90
       12
 70
   128
 43
0.0
 10
30.5613907208
 20
17.297611101
 10
30.5589889352
 20
17.297611101
 10
30.5436424991
 20
17.297611101
 10
30.5142291322
 20
17.297611101
 10
30.4709852585
 20
17.297611101
 10
30.4142599404
 20
17.297611101
 10
30.3445113595
 20
17.297611101
 10
30.2623009492
 20
17.297611101
 10
30.1682922219
 20
17.297611101
 10
30.0632437287
 20
17.2976110276
 10
29.9480014334
 20
17.2976110276
 10
29.8234957783
 20
17.2976110276
  0
LINE
  5
1C1
330
1F
100
AcDbEntity
  8
0
  6
Continuous
 62
     8
370
    25
100
AcDbLine
 10
31.6142516247
 20
18.0692647451
 30
0.0
 11
31.6142516247
 21
19.7936440399
 31
0.0
  0
LINE
  5
1C2
330
1F
100
AcDbEntity
  8
0
  6
Continuous
 62
     8
370
    25
100
AcDbLine
 10
13.2756688602
 20
19.7936440399
 30
0.0
 11
13.2756688602
 21
18.0692647451
 31
0.0
  0
ARC
  5
1C3
330
1F
100
AcDbEntity
  8
0
  6
Continuous
 62
     8
370
    25
100
AcDbCircle
 10
29.7874758763
 20
20.0318765341
 30
0.0
 40
0.1023622047244106
100
AcDbArc
 50
300.0427854487
 51
59.8961182847
  0
ARC
  5
1C4
330
1F
100
AcDbEntity
  8
0
  6
Continuous
 62
     8
370
    25
100
AcDbCircle
 10
29.7874758763
 20
20.0318765341
 30
0.0
 40
0.1023622047244081
100
AcDbArc
 50
120.1038817136
 51
239.9572145503
  0
ARC
  5
1C5
330
1F
100
AcDbEntity
  8
0
  6
Continuous
 62
     8
370
    25
100
AcDbCircle
 10
15.6142475298
 20
20.0318765341
 30
0.0
 40
0.1023622047244117
100
AcDbArc
 50
300.0427854516
 51
59.8961182865
  0
ARC
  5
1C6
330
1F
100
AcDbEntity
  8
0
  6
Continuous
 62
     8
370
    25
100
AcDbCircle
 10
15.6142475298
 20
20.0318765341
 30
0.0
 40
0.1023622047244116
100
AcDbArc
 50
120.1038817152
 51
239.9572145467
  0
LINE
  5
1C7
330
1F
100
AcDbEntity
  8
0
  6
Continuous
 62
     8
370
    25
100
AcDbLine
 10
13.2362992884
 20
19.624377702
 30
0.0
 11
13.2323616272
 21
19.624377702
 31
0.0
  0
LINE
  5
1C8
330
1F
100
AcDbEntity
  8
0
  6
Continuous
 62
     8
370
    25
100
AcDbLine
 10
13.2362992884
 20
18.6283417749
 30
0.0
 11
13.2323616272
 21
18.6283417749
 31
0.0
  0
LINE
  5
1C9
330
1F
100
AcDbEntity
  8
0
  6
Continuous
 62
     8
370
    25
100
AcDbLine
 10
15.3760520631
 20
17.3172958502
 30
0.0
 11
15.9014036475
 21
17.3172958502
 31
0.0
  0
LINE
  5
1CA
330
1F
100
AcDbEntity
  8
0
  6
Continuous
 62
     8
370
    25
100
AcDbLine
 10
30.4011363587
 20
17.651941721
 30
0.0
 11
30.4011363587
 21
17.6716263603
 31
0.0
  0
LINE
  5
1CB
330
1F
100
AcDbEntity
  8
0
  6
Continuous
 62
     8
370
    25
100
AcDbLine
 10
30.0425158615
 20
17.617348074
 30
0.0
 11
22.0591336862
 21
17.617347744
 31
0.0
  0
LINE
  5
1CC
330
1F
100
AcDbEntity
  8
0
  6
Continuous
 62
     8
370
    25
100
AcDbLine
 10
21.9019393422
 20
17.617347744
 30
0.0
 11
20.2533077206
 21
17.6173476707
 31
0.0
  0
LINE
  5
1CD
330
1F
100
AcDbEntity
  8
0
  6
Continuous
 62
     8
370
    25
100
AcDbLine
 10
20.0085403082
 20
17.6173476707
 30
0.0
 11
19.8242692636
 21
17.6173476707
 31
0.0
  0
LINE
  5
1CE
330
1F
100
AcDbEntity
  8
0
  6
Continuous
 62
     8
370
    25
100
AcDbLine
 10
15.9014036475
 20
17.3518895339
 30
0.0
 11
15.2925351612
 21
17.3518895339
 31
0.0
  0
LINE
  5
1CF
330
1F
100
AcDbEntity
  8
0
  6
Continuous
 62
     8
370
    25
100
AcDbLine
 10
15.8154673603
 20
17.6312672582
 30
0.0
 11
15.0131583353
 21
17.6312672582
 31
0.0
  0
LINE
  5
1D0
330
1F
100
AcDbEntity
  8
0
  6
Continuous
 62
     8
370
    25
100
AcDbLine
 10
18.8604386912
 20
17.3518896073
 30
0.0
 11
16.6836958371
 21
17.3518895339
 31
0.0
  0
LINE
  5
1D1
330
1F
100
AcDbEntity
  8
0
  6
Continuous
 62
     8
370
    25
100
AcDbLine
 10
19.1398166904
 20
17.6312673682
 30
0.0
 11
16.5977618965
 21
17.6312672765
 31
0.0
  0
LWPOLYLINE
  5
1D2
330
1F
100
AcDbEntity
  8
0
  6
Continuous
 62
     8
370
    25
100
AcDbPolyline
 90
       13
 70
   128
 43
0.0
 10
30.9382047144
 20
17.6173481473
 10
30.9337730856
 20
17.6173481473
 10
30.9157761202
 20
17.6173481473
 10
30.8840507267
 20
17.6173481107
 10
30.8388034094
 20
17.6173481107
 10
30.7803263249
 20
17.6173481107
 10
30.7089996289
 20
17.6173481107
 10
30.6252856093
 20
17.617348074
 10
30.5297275132
 20
17.617348074
 10
30.4229454401
 20
17.617348074
 10
30.3056316486
 20
17.617348074
 10
30.1785470367
 20
17.617348074
 10
30.0425158615
 20
17.617348074
  0
LWPOLYLINE
  5
1D3
330
1F
100
AcDbEntity
  8
0
  6
Continuous
 62
     8
370
    25
100
AcDbPolyline
 90
       12
 70
   128
 43
0.0
 10
29.8801295774
 20
17.3379703681
 10
30.007966874
 20
17.3379703681
 10
30.1265947836
 20
17.3379703681
 10
30.23510985
 20
17.3379703681
 10
30.3326848828
 20
17.3379703681
 10
30.4185771706
 20
17.3379703681
 10
30.4921320008
 20
17.3379704047
 10
30.5527885268
 20
17.3379704047
 10
30.6000850471
 20
17.3379704047
 10
30.6336613526
 20
17.3379704047
 10
30.6532610728
 20
17.3379704414
 10
30.6588267152
 20
17.3379704414
  0
ENDSEC
  0
SECTION
  2
OBJECTS
  0
DICTIONARY
  5
C
330
0
100
AcDbDictionary
281
     1
  3
ACAD_GROUP
350
D
  3
ACAD_LAYOUT
350
1A
  3
ACAD_MLINESTYLE
350
17
  3
ACAD_PLOTSETTINGS
350
19
  3
ACAD_PLOTSTYLENAME
350
E
  3
ACAD_SCALELIST
350
47
  0
DICTIONARY
  5
D
102
{ACAD_REACTORS
330
C
102
}
330
C
100
AcDbDictionary
281
     1
  0
DICTIONARY
  5
1A
102
{ACAD_REACTORS
330
C
102
}
330
C
100
AcDbDictionary
281
     1
  3
Layout1
350
1E
  3
Layout2
350
26
  3
Model
350
22
  0
DICTIONARY
  5
17
102
{ACAD_REACTORS
330
C
102
}
330
C
100
AcDbDictionary
281
     1
  3
Standard
350
18
  0
DICTIONARY
  5
19
102
{ACAD_REACTORS
330
C
102
}
330
C
100
AcDbDictionary
281
     1
  0
ACDBDICTIONARYWDFLT
  5
E
102
{ACAD_REACTORS
330
C
102
}
330
C
100
AcDbDictionary
281
     1
  3
Normal
350
F
100
AcDbDictionaryWithDefault
340
F
  0
DICTIONARY
  5
47
102
{ACAD_REACTORS
330
C
102
}
330
C
100
AcDbDictionary
281
     1
  3
A0
350
48
  3
A1
350
49
  3
A2
350
4A
  3
A3
350
4B
  3
A4
350
4C
  3
A5
350
4D
  3
A6
350
4E
  3
A7
350
4F
  3
A8
350
50
  3
A9
350
51
  3
B0
350
52
  3
B1
350
53
  3
B2
350
54
  3
B3
350
55
  3
B4
350
56
  3
B5
350
57
  3
B6
350
58
  3
B7
350
59
  3
B8
350
5A
  3
B9
350
5B
  3
C0
350
5C
  3
C1
350
5D
  3
C2
350
5E
  3
C3
350
5F
  3
C4
350
60
  3
C5
350
61
  3
C6
350
62
  3
C7
350
63
  3
C8
350
64
  3
C9
350
65
  3
D0
350
66
  3
D1
350
67
  3
D2
350
68
  0
LAYOUT
  5
1E
102
{ACAD_REACTORS
330
1A
102
}
330
1A
100
AcDbPlotSettings
  1

  2
none_device
  4

  6

 40
0.0
 41
0.0
 42
0.0
 43
0.0
 44
0.0
 45
0.0
 46
0.0
 47
0.0
 48
0.0
 49
0.0
140
0.0
141
0.0
142
1.0
143
1.0
 70
   688
 72
     0
 73
     0
 74
     5
  7

 75
    16
147
1.0
148
0.0
149
0.0
100
AcDbLayout
  1
Layout1
 70
     1
 71
     1
 10
0.0
 20
0.0
 11
12.0
 21
9.0
 12
0.0
 22
0.0
 32
0.0
 14
1.0000000000E+20
 24
1.0000000000E+20
 34
1.0000000000E+20
 15
-1.0000000000E+20
 25
-1.0000000000E+20
 35
-1.0000000000E+20
146
0.0
 13
0.0
 23
0.0
 33
0.0
 16
1.0
 26
0.0
 36
0.0
 17
0.0
 27
1.0
 37
0.0
 76
     0
330
1B
  0
LAYOUT
  5
26
102
{ACAD_REACTORS
330
1A
102
}
330
1A
100
AcDbPlotSettings
  1

  2
none_device
  4

  6

 40
0.0
 41
0.0
 42
0.0
 43
0.0
 44
0.0
 45
0.0
 46
0.0
 47
0.0
 48
0.0
 49
0.0
140
0.0
141
0.0
142
1.0
143
1.0
 70
   688
 72
     0
 73
     0
 74
     5
  7

 75
    16
147
1.0
148
0.0
149
0.0
100
AcDbLayout
  1
Layout2
 70
     1
 71
     2
 10
0.0
 20
0.0
 11
0.0
 21
0.0
 12
0.0
 22
0.0
 32
0.0
 14
0.0
 24
0.0
 34
0.0
 15
0.0
 25
0.0
 35
0.0
146
0.0
 13
0.0
 23
0.0
 33
0.0
 16
1.0
 26
0.0
 36
0.0
 17
0.0
 27
1.0
 37
0.0
 76
     0
330
23
  0
LAYOUT
  5
22
102
{ACAD_REACTORS
330
1A
102
}
330
1A
100
AcDbPlotSettings
  1

  2
none_device
  4
Letter_(8.50_x_11.00_Inches)
  6

 40
6.35
 41
6.35
 42
6.35000508
 43
6.35000508
 44
215.9
 45
279.4
 46
0.0
 47
0.0
 48
0.0
 49
0.0
140
0.0
141
0.0
142
1.0
143
1.0
 70
  1712
 72
     0
 73
     0
 74
     0
  7

 75
     0
147
1.0
148
0.0
149
0.0
100
AcDbLayout
  1
Model
 70
     1
 71
     0
 10
0.0
 20
0.0
 11
45.0
 21
40.0
 12
0.0
 22
0.0
 32
0.0
 14
0.0
 24
0.0
 34
0.0
 15
45.0
 25
40.0
 35
0.0
146
0.0
 13
0.0
 23
0.0
 33
0.0
 16
1.0
 26
0.0
 36
0.0
 17
0.0
 27
1.0
 37
0.0
 76
     0
330
1F
331
29
  0
MLINESTYLE
  5
18
102
{ACAD_REACTORS
330
17
102
}
330
17
100
AcDbMlineStyle
  2
Standard
 70
     0
  3

 62
   256
 51
90.0
 52
90.0
 71
     2
 49
0.5
 62
   256
  6
BYLAYER
 49
-0.5
 62
   256
  6
BYLAYER
  0
ACDBPLACEHOLDER
  5
F
102
{ACAD_REACTORS
330
E
102
}
330
E
  0
SCALE
  5
48
102
{ACAD_REACTORS
330
47
102
}
330
47
100
AcDbScale
 70
     0
300
1:1
140
1.0
141
1.0
290
     1
  0
SCALE
  5
49
102
{ACAD_REACTORS
330
47
102
}
330
47
100
AcDbScale
 70
     0
300
1:2
140
1.0
141
2.0
290
     0
  0
SCALE
  5
4A
102
{ACAD_REACTORS
330
47
102
}
330
47
100
AcDbScale
 70
     0
300
1:4
140
1.0
141
4.0
290
     0
  0
SCALE
  5
4B
102
{ACAD_REACTORS
330
47
102
}
330
47
100
AcDbScale
 70
     0
300
1:5
140
1.0
141
5.0
290
     0
  0
SCALE
  5
4C
102
{ACAD_REACTORS
330
47
102
}
330
47
100
AcDbScale
 70
     0
300
1:8
140
1.0
141
8.0
290
     0
  0
SCALE
  5
4D
102
{ACAD_REACTORS
330
47
102
}
330
47
100
AcDbScale
 70
     0
300
1:10
140
1.0
141
10.0
290
     0
  0
SCALE
  5
4E
102
{ACAD_REACTORS
330
47
102
}
330
47
100
AcDbScale
 70
     0
300
1:16
140
1.0
141
16.0
290
     0
  0
SCALE
  5
4F
102
{ACAD_REACTORS
330
47
102
}
330
47
100
AcDbScale
 70
     0
300
1:20
140
1.0
141
20.0
290
     0
  0
SCALE
  5
50
102
{ACAD_REACTORS
330
47
102
}
330
47
100
AcDbScale
 70
     0
300
1:30
140
1.0
141
30.0
290
     0
  0
SCALE
  5
51
102
{ACAD_REACTORS
330
47
102
}
330
47
100
AcDbScale
 70
     0
300
1:40
140
1.0
141
40.0
290
     0
  0
SCALE
  5
52
102
{ACAD_REACTORS
330
47
102
}
330
47
100
AcDbScale
 70
     0
300
1:50
140
1.0
141
50.0
290
     0
  0
SCALE
  5
53
102
{ACAD_REACTORS
330
47
102
}
330
47
100
AcDbScale
 70
     0
300
1:100
140
1.0
141
100.0
290
     0
  0
SCALE
  5
54
102
{ACAD_REACTORS
330
47
102
}
330
47
100
AcDbScale
 70
     0
300
2:1
140
2.0
141
1.0
290
     0
  0
SCALE
  5
55
102
{ACAD_REACTORS
330
47
102
}
330
47
100
AcDbScale
 70
     0
300
4:1
140
4.0
141
1.0
290
     0
  0
SCALE
  5
56
102
{ACAD_REACTORS
330
47
102
}
330
47
100
AcDbScale
 70
     0
300
8:1
140
8.0
141
1.0
290
     0
  0
SCALE
  5
57
102
{ACAD_REACTORS
330
47
102
}
330
47
100
AcDbScale
 70
     0
300
10:1
140
10.0
141
1.0
290
     0
  0
SCALE
  5
58
102
{ACAD_REACTORS
330
47
102
}
330
47
100
AcDbScale
 70
     0
300
100:1
140
100.0
141
1.0
290
     0
  0
SCALE
  5
59
102
{ACAD_REACTORS
330
47
102
}
330
47
100
AcDbScale
 70
     0
300
1/128" = 1'-0"
140
0.0078125
141
12.0
290
     0
  0
SCALE
  5
5A
102
{ACAD_REACTORS
330
47
102
}
330
47
100
AcDbScale
 70
     0
300
1/64" = 1'-0"
140
0.015625
141
12.0
290
     0
  0
SCALE
  5
5B
102
{ACAD_REACTORS
330
47
102
}
330
47
100
AcDbScale
 70
     0
300
1/32" = 1'-0"
140
0.03125
141
12.0
290
     0
  0
SCALE
  5
5C
102
{ACAD_REACTORS
330
47
102
}
330
47
100
AcDbScale
 70
     0
300
1/16" = 1'-0"
140
0.0625
141
12.0
290
     0
  0
SCALE
  5
5D
102
{ACAD_REACTORS
330
47
102
}
330
47
100
AcDbScale
 70
     0
300
3/32" = 1'-0"
140
0.09375
141
12.0
290
     0
  0
SCALE
  5
5E
102
{ACAD_REACTORS
330
47
102
}
330
47
100
AcDbScale
 70
     0
300
1/8" = 1'-0"
140
0.125
141
12.0
290
     0
  0
SCALE
  5
5F
102
{ACAD_REACTORS
330
47
102
}
330
47
100
AcDbScale
 70
     0
300
3/16" = 1'-0"
140
0.1875
141
12.0
290
     0
  0
SCALE
  5
60
102
{ACAD_REACTORS
330
47
102
}
330
47
100
AcDbScale
 70
     0
300
1/4" = 1'-0"
140
0.25
141
12.0
290
     0
  0
SCALE
  5
61
102
{ACAD_REACTORS
330
47
102
}
330
47
100
AcDbScale
 70
     0
300
3/8" = 1'-0"
140
0.375
141
12.0
290
     0
  0
SCALE
  5
62
102
{ACAD_REACTORS
330
47
102
}
330
47
100
AcDbScale
 70
     0
300
1/2" = 1'-0"
140
0.5
141
12.0
290
     0
  0
SCALE
  5
63
102
{ACAD_REACTORS
330
47
102
}
330
47
100
AcDbScale
 70
     0
300
3/4" = 1'-0"
140
0.75
141
12.0
290
     0
  0
SCALE
  5
64
102
{ACAD_REACTORS
330
47
102
}
330
47
100
AcDbScale
 70
     0
300
1" = 1'-0"
140
1.0
141
12.0
290
     0
  0
SCALE
  5
65
102
{ACAD_REACTORS
330
47
102
}
330
47
100
AcDbScale
 70
     0
300
1-1/2" = 1'-0"
140
1.5
141
12.0
290
     0
  0
SCALE
  5
66
102
{ACAD_REACTORS
330
47
102
}
330
47
100
AcDbScale
 70
     0
300
3" = 1'-0"
140
3.0
141
12.0
290
     0
  0
SCALE
  5
67
102
{ACAD_REACTORS
330
47
102
}
330
47
100
AcDbScale
 70
     0
300
6" = 1'-0"
140
6.0
141
12.0
290
     0
  0
SCALE
  5
68
102
{ACAD_REACTORS
330
47
102
}
330
47
100
AcDbScale
 70
     0
300
1'-0" = 1'-0"
140
12.0
141
12.0
290
     0
  0
ENDSEC
  0
EOF
